  0
SECTION
  2
HEADER
  9
$ACADVER
  1
AC1009
  9
$INSBASE
 10
0.0
 20
0.0
 30
0.0
  9
$EXTMIN
 10
206.782135253248299
 20
-1.000171825522556
 30
-0.0015258207003583
  9
$EXTMAX
 10
40701.872029310252401
 20
27750.8843899071216583
 30
0.0000000349246037
  9
$LIMMIN
 10
0.0
 20
0.0
  9
$LIMMAX
 10
42050.0
 20
29700.0
  9
$ORTHOMODE
 70
     0
  9
$REGENMODE
 70
     1
  9
$FILLMODE
 70
     1
  9
$QTEXTMODE
 70
     0
  9
$MIRRTEXT
 70
     0
  9
$DRAGMODE
 70
     2
  9
$LTSCALE
 40
400.0
  9
$OSMODE
 70
   487
  9
$ATTMODE
 70
     1
  9
$TEXTSIZE
 40
150.0
  9
$TRACEWID
 40
0.05
  9
$TEXTSTYLE
  7
STANDARD
  9
$CLAYER
  8
HOJYO
  9
$CELTYPE
  6
BYLAYER
  9
$CECOLOR
 62
   256
  9
$DIMSCALE
 40
50.0
  9
$DIMASZ
 40
2.0
  9
$DIMEXO
 40
2.0
  9
$DIMDLI
 40
7.0
  9
$DIMRND
 40
0.0
  9
$DIMDLE
 40
0.0
  9
$DIMEXE
 40
1.8
  9
$DIMTP
 40
0.0
  9
$DIMTM
 40
0.0
  9
$DIMTXT
 40
2.0
  9
$DIMCEN
 40
0.1
  9
$DIMTSZ
 40
0.0
  9
$DIMTOL
 70
     0
  9
$DIMLIM
 70
     0
  9
$DIMTIH
 70
     0
  9
$DIMTOH
 70
     0
  9
$DIMSE1
 70
     0
  9
$DIMSE2
 70
     0
  9
$DIMTAD
 70
     0
  9
$DIMZIN
 70
     9
  9
$DIMBLK
  1

  9
$DIMASO
 70
     1
  9
$DIMSHO
 70
     1
  9
$DIMPOST
  1

  9
$DIMAPOST
  1

  9
$DIMALT
 70
     0
  9
$DIMALTD
 70
     2
  9
$DIMALTF
 40
25.3999999999999986
  9
$DIMLFAC
 40
1.0
  9
$DIMTOFL
 70
     1
  9
$DIMTVP
 40
1.0
  9
$DIMTIX
 70
     0
  9
$DIMSOXD
 70
     0
  9
$DIMSAH
 70
     1
  9
$DIMBLK1
  1
YAZ1
  9
$DIMBLK2
  1
YAZ1
  9
$DIMSTYLE
  2
YAZ1
  9
$DIMCLRD
 70
   256
  9
$DIMCLRE
 70
   256
  9
$DIMCLRT
 70
   256
  9
$DIMTFAC
 40
1.0
  9
$DIMGAP
 40
0.0
  9
$LUNITS
 70
     2
  9
$LUPREC
 70
     3
  9
$SKETCHINC
 40
0.1
  9
$FILLETRAD
 40
0.0
  9
$AUNITS
 70
     0
  9
$AUPREC
 70
     2
  9
$MENU
  1
amecex
  9
$ELEVATION
 40
0.0
  9
$PELEVATION
 40
0.0
  9
$THICKNESS
 40
0.0
  9
$LIMCHECK
 70
     0
  9
$BLIPMODE
 70
     0
  9
$CHAMFERA
 40
0.0
  9
$CHAMFERB
 40
0.0
  9
$SKPOLY
 70
     0
  9
$TDCREATE
 40
2453896.4658333328552544
  9
$TDUPDATE
 40
2459657.5396643518470228
  9
$TDINDWG
 40
1.4869396990999999
  9
$TDUSRTIMER
 40
1.4869396990999999
  9
$USRTIMER
 70
     1
  9
$ANGBASE
 50
0.0
  9
$ANGDIR
 70
     0
  9
$PDMODE
 70
     0
  9
$PDSIZE
 40
0.0
  9
$PLINEWID
 40
0.0
  9
$COORDS
 70
     1
  9
$SPLFRAME
 70
     0
  9
$SPLINETYPE
 70
     6
  9
$SPLINESEGS
 70
     8
  9
$ATTDIA
 70
     1
  9
$ATTREQ
 70
     1
  9
$HANDLING
 70
     1
  9
$HANDSEED
  5
3E487
  9
$SURFTAB1
 70
     6
  9
$SURFTAB2
 70
     6
  9
$SURFTYPE
 70
     6
  9
$SURFU
 70
     6
  9
$SURFV
 70
     6
  9
$UCSNAME
  2

  9
$UCSORG
 10
0.0
 20
0.0
 30
0.0
  9
$UCSXDIR
 10
1.0
 20
0.0
 30
0.0
  9
$UCSYDIR
 10
0.0
 20
1.0
 30
0.0
  9
$PUCSNAME
  2

  9
$PUCSORG
 10
0.0
 20
0.0
 30
0.0
  9
$PUCSXDIR
 10
1.0
 20
0.0
 30
0.0
  9
$PUCSYDIR
 10
0.0
 20
1.0
 30
0.0
  9
$USERI1
 70
     0
  9
$USERI2
 70
     0
  9
$USERI3
 70
     0
  9
$USERI4
 70
     0
  9
$USERI5
 70
     0
  9
$USERR1
 40
30.0
  9
$USERR2
 40
0.0
  9
$USERR3
 40
0.0
  9
$USERR4
 40
0.0
  9
$USERR5
 40
0.0
  9
$WORLDVIEW
 70
     1
  9
$SHADEDGE
 70
     3
  9
$SHADEDIF
 70
    70
  9
$TILEMODE
 70
     1
  9
$MAXACTVP
 70
    16
  9
$PLIMCHECK
 70
     0
  9
$PEXTMIN
 10
1.0000000000000000E+20
 20
1.0000000000000000E+20
 30
1.0000000000000000E+20
  9
$PEXTMAX
 10
-1.0000000000000000E+20
 20
-1.0000000000000000E+20
 30
-1.0000000000000000E+20
  9
$PLIMMIN
 10
0.0
 20
0.0
  9
$PLIMMAX
 10
12.0
 20
9.0
  9
$UNITMODE
 70
     0
  9
$VISRETAIN
 70
     0
  9
$PLINEGEN
 70
     0
  9
$PSLTSCALE
 70
     0
  0
ENDSEC
  0
SECTION
  2
TABLES
  0
TABLE
  2
VPORT
 70
     1
  0
VPORT
  2
*ACTIVE
 70
     0
 10
0.0
 20
0.0
 11
1.0
 21
1.0
 12
20454.3270822817503358
 22
13874.9421090407904558
 13
0.0
 23
0.0
 14
1.0
 24
1.0
 15
0.0
 25
0.0
 16
0.0
 26
0.0
 36
1.0
 17
0.0
 27
0.0
 37
0.0
 40
27958.4742731102996913
 41
1.885714285714285
 42
50.0
 43
0.0
 44
0.0
 50
0.0
 51
0.0
 71
     0
 72
   100
 73
     1
 74
     1
 75
     0
 76
     0
 77
     0
 78
     0
  0
ENDTAB
  0
TABLE
  2
LTYPE
 70
    18
  0
LTYPE
  2
CONTINUOUS
 70
     0
  3
実線
 72
    65
 73
     0
 40
0.0
  0
LTYPE
  2
CENTER
 70
     0
  3
____ _ ____ _ ____ _ ____ _ ____ _ ____ _ ____
 72
    65
 73
     4
 40
2.0
 49
1.25
 49
-0.25
 49
0.25
 49
-0.25
  0
LTYPE
  2
DASHED
 70
     0
  3
__ __ __ __ __ __ __ __ __ __ __ __ __ __ __
 72
    65
 73
     2
 40
0.75
 49
0.5
 49
-0.25
  0
LTYPE
  2
PHANTOM
 70
     0
  3
______  __  __  ______  __  __  ______  __  __ 
 72
    65
 73
     6
 40
2.5
 49
1.25
 49
-0.25
 49
0.25
 49
-0.25
 49
0.25
 49
-0.25
  0
LTYPE
  2
AM_ISO02W050
 70
     0
  3
__ __ __ __ __ __ __ __ __ __ __ __ __ __ __
 72
    65
 73
     2
 40
7.5
 49
6.0
 49
-1.5
  0
LTYPE
  2
AM_ISO08W050
 70
     0
  3
____ . ____ . ____ . ____ . ____ . ____ . ____
 72
    65
 73
     4
 40
18.0
 49
12.0
 49
-1.5
 49
3.0
 49
-1.5
  0
LTYPE
  2
AM_ISO09W050
 70
     0
  3
_____ . . _____ . . _____ . . ____ .. ____
 72
    65
 73
     6
 40
22.5
 49
12.0
 49
-1.5
 49
3.0
 49
-1.5
 49
3.0
 49
-1.5
  0
LTYPE
  2
AMCONSTR
 70
     0
  3
_______________________
 72
    65
 73
     2
 40
9999.0
 49
9999.0
 49
0.0
  0
LTYPE
  2
AM_ISO08W050X2
 70
     0
  3
__ . __ . __ . __ . __ . __
 72
    65
 73
     4
 40
9.0
 49
6.0
 49
-0.75
 49
1.5
 49
-0.75
  0
LTYPE
  2
AM_ISO02W050X2
 70
     0
  3
 _ _ _ _ _ _ _ _ _ _ _ _
 72
    65
 73
     2
 40
3.75
 49
3.0
 49
-0.75
  0
LTYPE
  2
AMZIGZAG
 70
     0
  3
/\/-/\/-/\/-/\/-/\/-/\/
 72
    65
 73
     2
 40
11.0000999999999998
 49
0.0001
 49
-11.0
  0
LTYPE
  2
ACISOWELD
 70
     0
  3
_ _ _ _ _
 72
    65
 73
     2
 40
2.0
 49
2.0
 49
-1.0
  0
LTYPE
  2
ACISOTGL
 70
     0
  3
_ _ _ _ _
 72
    65
 73
     2
 40
3.0
 49
2.0
 49
-1.0
  0
LTYPE
  2
ACISOTGB
 70
     0
  3
__ . . __ . .
 72
    65
 73
     6
 40
9.0
 49
4.0
 49
-1.0
 49
1.0
 49
-1.0
 49
1.0
 49
-1.0
  0
ENDTAB
  0
TABLE
  2
LAYER
 70
    21
  0
LAYER
  2
0
 70
     0
 62
     7
  6
CONTINUOUS
  0
LAYER
  2
1
 70
     0
 62
     4
  6
CONTINUOUS
  0
LAYER
  2
CENTER
 70
     0
 62
     1
  6
CENTER
  0
LAYER
  2
GAWA
 70
     0
 62
     2
  6
CONTINUOUS
  0
LAYER
  2
HOJYO
 70
     0
 62
     6
  6
CONTINUOUS
  0
LAYER
  2
SCALE
 70
     0
 62
     4
  6
CONTINUOUS
  0
LAYER
  2
UL1
 70
     0
 62
     3
  6
PHANTOM
  0
LAYER
  2
KARISEN
 70
     0
 62
     5
  6
DASHED
  0
LAYER
  2
DEFPOINTS
 70
     0
 62
     7
  6
CONTINUOUS
  0
ENDTAB
  0
TABLE
  2
STYLE
 70
     8
  0
STYLE
  2
STANDARD
 70
     0
 40
0.0
 41
1.0
 50
0.0
 71
     0
 42
150.0
  3
TXT
  4
BIGFONT
  0
STYLE
  2

 70
     1
 40
0.0
 41
1.0
 50
0.0
 71
     0
 42
150.0
  3
genltshp.shx
  4

  0
STYLE
  2
ACISOGDT
 70
     0
 40
0.0
 41
1.0
 50
0.0
 71
     0
 42
150.0
  3
amgdt.shx
  4

  0
ENDTAB
  0
TABLE
  2
VIEW
 70
     0
  0
ENDTAB
  0
TABLE
  2
UCS
 70
     0
  0
ENDTAB
  0
TABLE
  2
APPID
 70
    11
  0
APPID
  2
ACAD
 70
     0
  0
APPID
  2
ACE-LT__COPYRIGHT_TRIALSOFT-JPN
 70
     0
  0
APPID
  2
MCAD_NO_VIS
 70
     0
  0
APPID
  2
ACAD_TEMP_GRAPHIC
 70
     0
  0
APPID
  2
ACATTRIBSERVICES
 70
     0
  0
APPID
  2
DESIGNERASSEMBLIES
 70
     0
  0
APPID
  2
ACAD_DSTYLE_DIMJAG
 70
     0
  0
APPID
  2
ACAD_DSTYLE_DIMBREAK
 70
     0
  0
APPID
  2
ACAD_NAV_VCDISPLAY
 70
     0
  0
APPID
  2
ACAD_EXEMPT_FROM_CAD_STANDARDS
 70
     0
  0
APPID
  2
ACAD_MLEADERVER
 70
     0
  0
ENDTAB
  0
TABLE
  2
DIMSTYLE
 70
    17
  0
DIMSTYLE
  2
YAZ1
 70
     0
  3

  4

  5

  6
YAZ1
  7
YAZ1
 40
50.0
 41
2.0
 42
0.1
 43
7.0
 44
1.8
 45
0.0
 46
0.0
 47
0.0
 48
0.0
140
2.5
141
0.1
142
0.0
143
25.3999999999999986
144
1.0
145
1.0
146
1.0
147
0.0
 71
     0
 72
     0
 73
     0
 74
     0
 75
     0
 76
     0
 77
     0
 78
     9
170
     0
171
     2
172
     1
173
     1
174
     0
175
     0
176
   256
177
   256
178
   256
  0
DIMSTYLE
  2
STANDARD
 70
     0
  3

  4

  5

  6

  7

 40
1.0
 41
0.18
 42
0.0625
 43
0.38
 44
0.18
 45
0.0
 46
0.0
 47
0.0
 48
0.0
140
0.18
141
0.09
142
0.0
143
25.3999999999999986
144
1.0
145
0.0
146
1.0
147
0.09
 71
     0
 72
     0
 73
     1
 74
     1
 75
     0
 76
     0
 77
     0
 78
     0
170
     0
171
     2
172
     0
173
     0
174
     0
175
     0
176
     0
177
     0
178
     0
  0
DIMSTYLE
  2
AM_ISO
 70
     0
  3

  4
"
  5

  6

  7

 40
1.0
 41
3.5
 42
1.0
 43
10.0
 44
1.0
 45
0.0
 46
0.0
 47
0.1
 48
0.1
140
3.5
141
0.0
142
0.0
143
0.0393701
144
1.0
145
0.0
146
0.71
147
1.5
 71
     0
 72
     0
 73
     0
 74
     0
 75
     0
 76
     0
 77
     1
 78
     8
170
     0
171
     2
172
     1
173
     0
174
     0
175
     0
176
   256
177
   256
178
     2
  0
DIMSTYLE
  2
AM_ISO$3
 70
     0
  3

  4
"
  5

  6

  7

 40
1.0
 41
3.5
 42
1.0
 43
10.0
 44
1.0
 45
0.0
 46
0.0
 47
0.1
 48
0.1
140
3.5
141
0.0
142
0.0
143
0.0393701
144
1.0
145
0.0
146
0.71
147
1.5
 71
     0
 72
     0
 73
     0
 74
     1
 75
     0
 76
     0
 77
     1
 78
     8
170
     0
171
     2
172
     0
173
     0
174
     0
175
     0
176
   256
177
   256
178
     2
  0
DIMSTYLE
  2
AM_ISO$4
 70
     0
  3

  4
"
  5

  6

  7

 40
1.0
 41
3.5
 42
1.0
 43
10.0
 44
1.0
 45
0.0
 46
0.0
 47
0.1
 48
0.1
140
3.5
141
0.0
142
0.0
143
0.0393701
144
1.0
145
0.0
146
0.71
147
1.5
 71
     0
 72
     0
 73
     0
 74
     1
 75
     0
 76
     0
 77
     1
 78
     8
170
     0
171
     2
172
     0
173
     0
174
     0
175
     0
176
   256
177
   256
178
     2
  0
DIMSTYLE
  2
AM_ISO$6
 70
     0
  3

  4
"
  5

  6

  7

 40
1.0
 41
3.5
 42
1.0
 43
10.0
 44
1.0
 45
0.0
 46
0.0
 47
0.1
 48
0.1
140
3.5
141
0.0
142
0.0
143
0.0393701
144
1.0
145
0.0
146
0.71
147
1.5
 71
     0
 72
     0
 73
     0
 74
     0
 75
     0
 76
     0
 77
     0
 78
     8
170
     0
171
     2
172
     1
173
     0
174
     0
175
     0
176
   256
177
   256
178
     2
  0
DIMSTYLE
  2
AM_ISO$7
 70
     0
  3

  4
"
  5

  6

  7

 40
1.0
 41
3.5
 42
1.0
 43
10.0
 44
1.0
 45
0.0
 46
0.0
 47
0.1
 48
0.1
140
3.5
141
0.0
142
0.0
143
0.0393701
144
1.0
145
0.0
146
0.71
147
1.5
 71
     0
 72
     0
 73
     0
 74
     0
 75
     0
 76
     0
 77
     1
 78
     8
170
     0
171
     2
172
     1
173
     0
174
     0
175
     0
176
   256
177
   256
178
     2
  0
DIMSTYLE
  2
AM_ISO$SF
 70
     0
  3

  4
"
  5

  6

  7

 40
1.0
 41
3.5
 42
1.0
 43
10.0
 44
1.0
 45
0.0
 46
0.0
 47
0.1
 48
0.1
140
3.5
141
0.0
142
0.0
143
0.0393701
144
1.0
145
0.0
146
0.71
147
1.5
 71
     0
 72
     0
 73
     0
 74
     0
 75
     1
 76
     1
 77
     1
 78
     8
170
     0
171
     2
172
     1
173
     0
174
     0
175
     0
176
   256
177
   256
178
     2
  0
DIMSTYLE
  2
AM_ISO$SH
 70
     0
  3

  4
"
  5

  6
GENAXEH
  7

 40
1.0
 41
3.5
 42
1.0
 43
10.0
 44
1.0
 45
0.0
 46
0.0
 47
0.1
 48
0.1
140
3.5
141
0.0
142
0.0
143
0.0393701
144
2.0
145
0.0
146
0.71
147
1.5
 71
     0
 72
     0
 73
     0
 74
     0
 75
     1
 76
     1
 77
     1
 78
     8
170
     0
171
     2
172
     1
173
     1
174
     0
175
     0
176
   256
177
   256
178
     2
  0
ENDTAB
  0
ENDSEC
  0
SECTION
  2
BLOCKS
  0
BLOCK
  8
0
  2
$MODEL_SPACE
 70
     0
 10
0.0
 20
0.0
 30
0.0
  3
$MODEL_SPACE
  1

  0
ENDBLK
  5
20B
  8
0
  0
BLOCK
 67
     1
  8
0
  2
$PAPER_SPACE
 70
     0
 10
0.0
 20
0.0
 30
0.0
  3
$PAPER_SPACE
  1

  0
ENDBLK
  5
209
 67
     1
  8
0
  0
BLOCK
  8
0
  2
YAZ1
 70
     0
 10
0.0
 20
0.0
 30
0.0
  3
YAZ1
  1

  0
LINE
  5
255
  8
0
 10
0.0
 20
0.0
 30
0.0
 11
-1.0
 21
-0.2679491924311037
 31
0.0
  0
LINE
  5
256
  8
0
 10
0.0
 20
0.0
 30
0.0
 11
-1.0
 21
0.2679491924311037
 31
0.0
  0
LINE
  5
257
  8
0
 10
-1.0
 20
0.0
 30
0.0
 11
0.0
 21
0.0
 31
0.0
  0
ENDBLK
  5
259
  8
0
  0
BLOCK
  8
0
  2
INSLYTXT
 70
     0
 10
0.0
 20
0.0
 30
0.0
  3
INSLYTXT
  1

  0
ENDBLK
  5
2F2
  8
0
  0
BLOCK
  8
0
  2
GENAXEH
 70
     0
 10
0.0
 20
0.0
 30
0.0
  3
GENAXEH
  1

  0
LINE
  5
3DFD1
  8
0
 10
-1.0
 20
0.0
 30
0.0
 11
1.0
 21
0.0
 31
0.0
  0
ENDBLK
  5
3DFD3
  8
0
  0
BLOCK
  8
0
  2
*U121
 70
     1
 10
0.0
 20
0.0
 30
0.0
  3
*U121
  1

  0
TEXT
  5
3E429
  8
SCALE
 10
-6157.5759709060412206
 20
26958.4031927711912431
 30
0.0
 40
125.0
  1
\U+2205322
 50
90.0
  0
ENDBLK
  5
3E42B
  8
0
  0
BLOCK
  8
0
  2
*U122
 70
     1
 10
0.0
 20
0.0
 30
0.0
  3
*U122
  1

  0
TEXT
  5
3E42D
  8
SCALE
 10
-6360.0385614184306178
 20
26661.2365261045306397
 30
0.0
 40
125.0
  1
761
 50
90.0
  0
ENDBLK
  5
3E42F
  8
0
  0
BLOCK
  8
0
  2
*U123
 70
     1
 10
0.0
 20
0.0
 30
0.0
  3
*U123
  1

  0
TEXT
  5
3E431
  8
SCALE
 10
-4220.2641708361616111
 20
28414.8059766816186311
 30
0.0
 40
125.0
  1
取付面間2590
  0
ENDBLK
  5
3E433
  8
0
  0
BLOCK
  8
0
  2
*U124
 70
     1
 10
0.0
 20
0.0
 30
0.0
  3
*U124
  1

  0
TEXT
  5
3E435
  8
SCALE
 10
-6360.0385614184324368
 20
27422.2365261045306397
 30
0.0
 40
125.0
  1
761
 50
90.0
  0
ENDBLK
  5
3E437
  8
0
  0
BLOCK
  8
0
  2
*U125
 70
     1
 10
0.0
 20
0.0
 30
0.0
  3
*U125
  1

  0
TEXT
  5
3E439
  8
SCALE
 10
-5442.3475041694955507
 20
28414.8059766816186311
 30
0.0
 40
125.0
  1
600
  0
ENDBLK
  5
3E43B
  8
0
  0
BLOCK
  8
0
  2
*U126
 70
     1
 10
0.0
 20
0.0
 30
0.0
  3
*U126
  1

  0
TEXT
  5
3E43D
  8
SCALE
 10
-2252.3475041694960055
 20
28414.8059766816186311
 30
0.0
 40
125.0
  1
600
  0
ENDBLK
  5
3E43F
  8
0
  0
BLOCK
  8
0
  2
*U127
 70
     1
 10
0.0
 20
0.0
 30
0.0
  3
*U127
  1

  0
TEXT
  5
3E441
  8
SCALE
 10
-2637.0141708361588826
 20
28263.3713868336417363
 30
0.0
 40
125.0
  1
211
  0
ENDBLK
  5
3E443
  8
0
  0
BLOCK
  8
0
  2
*U128
 70
     1
 10
0.0
 20
0.0
 30
0.0
  3
*U128
  1

  0
TEXT
  5
3E445
  8
SCALE
 10
-5165.2900647252718045
 20
22119.374830470271263
 30
0.0
 40
125.0
  1
200
 50
90.0
  0
ENDBLK
  5
3E447
  8
0
  0
BLOCK
  8
0
  2
*U129
 70
     1
 10
0.0
 20
0.0
 30
0.0
  3
*U129
  1

  0
TEXT
  5
3E449
  8
SCALE
 10
-5165.2900647252718045
 20
22544.374830470278539
 30
0.0
 40
125.0
  1
200
 50
90.0
  0
ENDBLK
  5
3E44B
  8
0
  0
ENDSEC
  0
SECTION
  2
ENTITIES
  0
INSERT
  5
378
  8
0
  2
INSLYTXT
 10
0.0
 20
0.0
 30
0.0
 41
50.0
 42
50.0
 43
50.0
  0
TEXT
  5
402
  8
SCALE
 10
334.1702073142951122
 20
275.6991537608938074
 30
0.0
 40
125.0
  1
08091341
 50
90.0
  0
LINE
  5
1C30C
  8
GAWA
 10
400.0
 20
0.0
 30
0.0
 11
40700.0
 21
0.0
 31
0.0
  0
LINE
  5
1C30D
  8
GAWA
 10
40700.0
 20
27750.0
 30
0.0
 11
400.0
 21
27750.0
 31
0.0
  0
LINE
  5
1C312
  8
GAWA
 10
400.0
 20
27750.0
 30
0.0
 11
400.0
 21
0.0
 31
0.0
  0
LINE
  5
1C313
  8
GAWA
 10
20350.0
 20
0.0
 30
0.0
 11
800.0
 21
0.0
 31
0.0
  0
LINE
  5
1C876
  8
GAWA
 10
40700.0
 20
0.0
 30
0.0
 11
40700.0
 21
27750.0
 31
0.0
  0
LINE
  5
237E4
  8
KARISEN
 10
10475.0
 20
0.0
 30
0.0
 11
10475.0
 21
23750.0
 31
0.0
  0
LINE
  5
237E8
  8
KARISEN
 10
400.0
 20
11875.0
 30
0.0
 11
40700.0
 21
11875.0
 31
0.0
  0
LINE
  5
3730B
  8
GAWA
 10
40700.0
 20
23750.0
 30
0.0
 11
400.0
 21
23750.0
 31
0.0
  0
TEXT
  5
3730E
  8
SCALE
 10
1580.1877159494611078
 20
25367.8948759894701652
 30
0.0
 40
700.0
  1
水平１本タイプ 〔免震量500mm〕
  0
TEXT
  5
37405
  8
SCALE
 10
4130.8333333333330302
 20
22788.6513824063003995
 30
0.0
 40
200.0
  1
品番:MB5VP-HY100
 72
     4
 11
5437.5
 21
22888.6513824063003995
 31
0.0
  0
TEXT
  5
37406
  8
SCALE
 10
5137.5
 20
23274.0531561693715048
 30
0.0
 40
200.0
  1
100A
 72
     4
 11
5437.5
 21
23374.0531561693605909
 31
0.0
  0
TEXT
  5
37886
  8
SCALE
 10
4430.0
 20
20655.4609905246907147
 30
0.0
 40
90.0
  1

 72
     4
 11
4430.0
 21
20655.4609905246907147
 31
0.0
  0
TEXT
  5
37922
  8
SCALE
 10
12489.9999999999909051
 20
20655.4609905246907147
 30
0.0
 40
90.0
  1

 72
     4
 11
12489.9999999999909051
 21
20655.4609905246907147
 31
0.0
  0
TEXT
  5
379D8
  8
SCALE
 10
20550.0
 20
20655.4609905246907147
 30
0.0
 40
90.0
  1

 72
     4
 11
20550.0
 21
20655.4609905246907147
 31
0.0
  0
TEXT
  5
37A67
  8
SCALE
 10
28610.0
 20
20655.4609905246907147
 30
0.0
 40
90.0
  1

 72
     4
 11
28610.0
 21
20655.4609905246907147
 31
0.0
  0
TEXT
  5
37B1D
  8
SCALE
 10
36670.0
 20
20655.4609905246907147
 30
0.0
 40
90.0
  1

 72
     4
 11
36670.0
 21
20655.4609905246907147
 31
0.0
  0
TEXT
  5
3815B
  8
SCALE
 10
4429.9999999999918145
 20
8947.0854049793269951
 30
0.0
 40
90.0
  1

 72
     4
 11
4429.9999999999918145
 21
8947.0854049793269951
 31
0.0
  0
TEXT
  5
38175
  8
SCALE
 10
12489.9999999999909051
 20
8947.0854049793269951
 30
0.0
 40
90.0
  1

 72
     4
 11
12489.9999999999909051
 21
8947.0854049793269951
 31
0.0
  0
TEXT
  5
3830B
  8
SCALE
 10
20549.9999999999890861
 20
8947.0854049793269951
 30
0.0
 40
90.0
  1

 72
     4
 11
20549.9999999999890861
 21
8947.0854049793269951
 31
0.0
  0
TEXT
  5
3830E
  8
SCALE
 10
28609.9999999999890861
 20
8947.0854049793269951
 30
0.0
 40
90.0
  1

 72
     4
 11
28609.9999999999890861
 21
8947.0854049793269951
 31
0.0
  0
TEXT
  5
38A21
  8
SCALE
 10
4430.0
 20
19964.5410924941497797
 30
0.0
 40
90.0
  1

 72
     4
 11
4430.0
 21
19964.5410924941497797
 31
0.0
  0
TEXT
  5
38AAD
  8
SCALE
 10
12489.9999999999909051
 20
19964.5410924941497797
 30
0.0
 40
90.0
  1

 72
     4
 11
12489.9999999999909051
 21
19964.5410924941497797
 31
0.0
  0
TEXT
  5
38B3D
  8
SCALE
 10
20550.0
 20
19964.5410924941497797
 30
0.0
 40
90.0
  1

 72
     4
 11
20550.0
 21
19964.5410924941497797
 31
0.0
  0
TEXT
  5
38BD5
  8
SCALE
 10
28610.0
 20
19964.5410924941497797
 30
0.0
 40
90.0
  1

 72
     4
 11
28610.0
 21
19964.5410924941497797
 31
0.0
  0
TEXT
  5
38C70
  8
SCALE
 10
36670.0
 20
19964.5410924941497797
 30
0.0
 40
90.0
  1

 72
     4
 11
36670.0
 21
19964.5410924941497797
 31
0.0
  0
TEXT
  5
391C1
  8
SCALE
 10
4429.9999999999918145
 20
8089.5410924941534176
 30
0.0
 40
90.0
  1

 72
     4
 11
4429.9999999999918145
 21
8089.5410924941534176
 31
0.0
  0
TEXT
  5
3926B
  8
SCALE
 10
12489.9999999999909051
 20
8089.5410924941534176
 30
0.0
 40
90.0
  1

 72
     4
 11
12489.9999999999909051
 21
8089.5410924941534176
 31
0.0
  0
TEXT
  5
3931D
  8
SCALE
 10
20549.9999999999890861
 20
8089.5410924941534176
 30
0.0
 40
90.0
  1

 72
     4
 11
20549.9999999999890861
 21
8089.5410924941534176
 31
0.0
  0
TEXT
  5
393DC
  8
SCALE
 10
28609.9999999999890861
 20
8089.5410924941534176
 30
0.0
 40
90.0
  1

 72
     4
 11
28609.9999999999890861
 21
8089.5410924941534176
 31
0.0
  0
TEXT
  5
39C83
  8
SCALE
 10
4430.0
 20
19493.1618358652303868
 30
0.0
 40
90.0
  1

 72
     4
 11
4430.0
 21
19493.1618358652303868
 31
0.0
  0
TEXT
  5
39C93
  8
SCALE
 10
12490.0
 20
19493.1618358652303868
 30
0.0
 40
90.0
  1

 72
     4
 11
12490.0
 21
19493.1618358652303868
 31
0.0
  0
TEXT
  5
39CA3
  8
SCALE
 10
20550.0
 20
19493.1618358652303868
 30
0.0
 40
90.0
  1

 72
     4
 11
20550.0
 21
19493.1618358652303868
 31
0.0
  0
TEXT
  5
39CB3
  8
SCALE
 10
28610.0
 20
19493.1618358652303868
 30
0.0
 40
90.0
  1

 72
     4
 11
28610.0
 21
19493.1618358652303868
 31
0.0
  0
TEXT
  5
39CC3
  8
SCALE
 10
36670.0
 20
19493.1618358652303868
 30
0.0
 40
90.0
  1

 72
     4
 11
36670.0
 21
19493.1618358652303868
 31
0.0
  0
TEXT
  5
3A589
  8
SCALE
 10
4430.0
 20
7618.1618358653504401
 30
0.0
 40
90.0
  1

 72
     4
 11
4430.0
 21
7618.1618358653504401
 31
0.0
  0
TEXT
  5
3A5A1
  8
SCALE
 10
12490.0
 20
7618.1618358653504401
 30
0.0
 40
90.0
  1

 72
     4
 11
12490.0
 21
7618.1618358653504401
 31
0.0
  0
TEXT
  5
3A5B9
  8
SCALE
 10
20550.0
 20
7618.1618358653504401
 30
0.0
 40
90.0
  1

 72
     4
 11
20550.0
 21
7618.1618358653504401
 31
0.0
  0
TEXT
  5
3A5D1
  8
SCALE
 10
28610.0
 20
7618.1618358653504401
 30
0.0
 40
90.0
  1

 72
     4
 11
28610.0
 21
7618.1618358653504401
 31
0.0
  0
TEXT
  5
3ACA2
  8
SCALE
 10
-899.7026076388574438
 20
22096.2302539357515343
 30
0.0
 40
75.0
  1

 72
     4
 11
-899.7026076388574438
 21
22096.2302539357515343
 31
0.0
  0
TEXT
  5
3ACA3
  8
SCALE
 10
-899.7026076388574438
 20
21736.2302539357515343
 30
0.0
 40
75.0
  1

 72
     4
 11
-899.7026076388574438
 21
21736.2302539357515343
 31
0.0
  0
TEXT
  5
3ACA4
  8
SCALE
 10
-899.7026076388574438
 20
21916.2302539357515343
 30
0.0
 40
75.0
  1

 72
     4
 11
-899.7026076388574438
 21
21916.2302539357515343
 31
0.0
  0
TEXT
  5
3ACA5
  8
SCALE
 10
-899.7026076388574438
 20
22816.2302539357515343
 30
0.0
 40
75.0
  1

 72
     4
 11
-899.7026076388574438
 21
22816.2302539357515343
 31
0.0
  0
TEXT
  5
3ACA6
  8
SCALE
 10
-899.7026076388574438
 20
22276.2302539357515343
 30
0.0
 40
75.0
  1

 72
     4
 11
-899.7026076388574438
 21
22276.2302539357515343
 31
0.0
  0
TEXT
  5
3ACA7
  8
SCALE
 10
-899.7026076388574438
 20
22456.2302539357515343
 30
0.0
 40
75.0
  1

 72
     4
 11
-899.7026076388574438
 21
22456.2302539357515343
 31
0.0
  0
TEXT
  5
3ACA8
  8
SCALE
 10
-899.7026076388574438
 20
22636.2302539357515343
 30
0.0
 40
75.0
  1

 72
     4
 11
-899.7026076388574438
 21
22636.2302539357515343
 31
0.0
  0
LINE
  5
3ACC8
  8
KARISEN
 10
20550.0
 20
0.0
 30
0.0
 11
20550.0
 21
23750.0
 31
0.0
  0
TEXT
  5
3ACCF
  8
SCALE
 10
14172.5
 20
22788.6513824063003995
 30
0.0
 40
200.0
  1
品番:MB5VP-HY125
 72
     4
 11
15512.5
 21
22888.6513824063003995
 31
0.0
  0
TEXT
  5
3ACD0
  8
SCALE
 10
15179.1666666666606034
 20
23274.0531561693715048
 30
0.0
 40
200.0
  1
125A
 72
     4
 11
15512.5
 21
23374.0531561693605909
 31
0.0
  0
LINE
  5
3ACD2
  8
KARISEN
 10
30625.0
 20
0.0
 30
0.0
 11
30625.0
 21
23750.0
 31
0.0
  0
TEXT
  5
3ACD9
  8
SCALE
 10
24264.1666666666715173
 20
22788.6513824063003995
 30
0.0
 40
200.0
  1
品番:MB5VP-HY150
 72
     4
 11
25587.5
 21
22888.6513824063003995
 31
0.0
  0
TEXT
  5
3ACDA
  8
SCALE
 10
25270.8333333333284827
 20
23274.0531561693715048
 30
0.0
 40
200.0
  1
150A
 72
     4
 11
25587.5
 21
23374.0531561693605909
 31
0.0
  0
TEXT
  5
3ACE3
  8
SCALE
 10
34322.5
 20
22788.6513824063003995
 30
0.0
 40
200.0
  1
品番:MB5VP-HY200
 72
     4
 11
35662.5
 21
22888.6513824063003995
 31
0.0
  0
TEXT
  5
3ACE4
  8
SCALE
 10
35329.1666666666569654
 20
23274.0531561693715048
 30
0.0
 40
200.0
  1
200A
 72
     4
 11
35662.5
 21
23374.0531561693605909
 31
0.0
  0
TEXT
  5
3BCE6
  8
SCALE
 10
5437.5
 20
20973.8802130210715404
 30
0.0
 40
200.0
  1

 72
     4
 11
5437.5
 21
20973.8802130210715404
 31
0.0
  0
TEXT
  5
3BEA0
  8
SCALE
 10
15512.5
 20
20973.8802130210715404
 30
0.0
 40
200.0
  1

 72
     4
 11
15512.5
 21
20973.8802130210715404
 31
0.0
  0
TEXT
  5
3C058
  8
SCALE
 10
25587.5
 20
20973.8802130210715404
 30
0.0
 40
200.0
  1

 72
     4
 11
25587.5
 21
20973.8802130210715404
 31
0.0
  0
TEXT
  5
3C212
  8
SCALE
 10
35662.5
 20
20973.8802130210715404
 30
0.0
 40
200.0
  1

 72
     4
 11
35662.5
 21
20973.8802130210715404
 31
0.0
  0
TEXT
  5
3C3C6
  8
SCALE
 10
5437.5
 20
9098.8802130210679024
 30
0.0
 40
200.0
  1

 72
     4
 11
5437.5
 21
9098.8802130210679024
 31
0.0
  0
TEXT
  5
3C58A
  8
SCALE
 10
15512.5
 20
7822.2788021797314286
 30
0.0
 40
90.0
  1

 72
     4
 11
15512.5
 21
7822.2788021797314286
 31
0.0
  0
TEXT
  5
3C77D
  8
SCALE
 10
25587.5
 20
7822.2788021798478439
 30
0.0
 40
90.0
  1

 72
     4
 11
25587.5
 21
7822.2788021798478439
 31
0.0
  0
LINE
  5
3D01C
  8
CENTER
 10
6620.5299999999988358
 20
19598.0192305276286788
 30
0.0
 11
4600.5
 21
19598.0192305276286788
 31
0.0
  0
LINE
  5
3D01D
  8
1
  6
CONTINUOUS
 62
     7
 10
5890.5
 20
19522.5192305276286788
 30
0.0
 11
4594.5
 21
19522.5192305276286788
 31
0.0
  0
LINE
  5
3D01E
  8
1
  6
CONTINUOUS
 62
     7
 10
5890.5
 20
19673.5192305276286788
 30
0.0
 11
4594.5
 21
19673.5192305276286788
 31
0.0
  0
ARC
  5
3D01F
  8
1
  6
CONTINUOUS
 62
     7
 10
4439.5
 20
19598.0192305276286788
 30
0.0
 40
76.5
 50
228.1680000000066002
 51
290.2969999999997981
  0
ARC
  5
3D020
  8
1
  6
CONTINUOUS
 62
     7
 10
4439.5
 20
19598.0192305276286788
 30
0.0
 40
76.5
 50
69.7030000000001451
 51
131.8324999999692011
  0
LINE
  5
3D021
  8
CENTER
 10
4570.5
 20
19598.0192305276286788
 30
0.0
 11
4265.0600000000004002
 21
19598.0192305276286788
 31
0.0
  0
LINE
  5
3D022
  8
1
  6
CONTINUOUS
 62
     7
 10
4315.5
 20
19493.0192305276286788
 30
0.0
 11
4315.5
 21
19598.0192305276286788
 31
0.0
  0
LINE
  5
3D023
  8
1
  6
CONTINUOUS
 62
     7
 10
4297.5
 20
19493.0192305276286788
 30
0.0
 11
4297.5
 21
19598.0192305276286788
 31
0.0
  0
LINE
  5
3D024
  8
1
  6
CONTINUOUS
 62
     7
 10
4297.5
 20
19493.0192305276286788
 30
0.0
 11
4315.5
 21
19493.0192305276286788
 31
0.0
  0
LINE
  5
3D025
  8
1
  6
CONTINUOUS
 62
     7
 10
4315.5
 20
19703.0192305276286788
 30
0.0
 11
4315.5
 21
19598.0192305276286788
 31
0.0
  0
LINE
  5
3D026
  8
1
  6
CONTINUOUS
 62
     7
 10
4297.5
 20
19703.0192305276286788
 30
0.0
 11
4297.5
 21
19598.0192305276286788
 31
0.0
  0
LINE
  5
3D027
  8
1
  6
CONTINUOUS
 62
     7
 10
4297.5
 20
19703.0192305276286788
 30
0.0
 11
4315.5
 21
19703.0192305276286788
 31
0.0
  0
LINE
  5
3D028
  8
1
  6
CONTINUOUS
 62
     7
 10
4388.4799999999995634
 20
19541.0192305276286788
 30
0.0
 11
4388.4799999999995634
 21
19598.0192305276286788
 31
0.0
  0
LINE
  5
3D029
  8
1
  6
CONTINUOUS
 62
     7
 10
4388.4799999999995634
 20
19655.0192305276286788
 30
0.0
 11
4388.4799999999995634
 21
19598.0192305276286788
 31
0.0
  0
LINE
  5
3D02A
  8
1
  6
CONTINUOUS
 62
     7
 10
4388.4799999999995634
 20
19541.0192305276286788
 30
0.0
 11
4315.5
 21
19541.0192305276286788
 31
0.0
  0
LINE
  5
3D02B
  8
1
  6
CONTINUOUS
 62
     7
 10
4388.4799999999995634
 20
19655.0192305276286788
 30
0.0
 11
4315.5
 21
19655.0192305276286788
 31
0.0
  0
LINE
  5
3D02D
  8
1
  6
CONTINUOUS
 62
     7
 10
4576.5
 20
19536.0192305276286788
 30
0.0
 11
4576.5
 21
19600.419230527630134
 31
0.0
  0
LINE
  5
3D02E
  8
1
  6
CONTINUOUS
 62
     7
 10
4594.5
 20
19522.5192305276286788
 30
0.0
 11
4594.5
 21
19595.6192305276199477
 31
0.0
  0
LINE
  5
3D02F
  8
1
  6
CONTINUOUS
 62
     7
 10
4513.0
 20
19536.0192305276286788
 30
0.0
 11
4513.0
 21
19598.0192305276286788
 31
0.0
  0
LINE
  5
3D030
  8
1
  6
CONTINUOUS
 62
     7
 10
4474.4999999999990905
 20
19598.0192305276286788
 30
0.0
 11
4474.4999999999990905
 21
19526.2692305276286788
 31
0.0
  0
LINE
  5
3D031
  8
1
  6
CONTINUOUS
 62
     7
 10
4576.5
 20
19536.0192305276286788
 30
0.0
 11
4513.0
 21
19536.0192305276286788
 31
0.0
  0
LINE
  5
3D033
  8
1
  6
CONTINUOUS
 62
     7
 10
4474.4999999999990905
 20
19526.2692305276286788
 30
0.0
 11
4466.0399999999999636
 21
19526.2692305276286788
 31
0.0
  0
LINE
  5
3D034
  8
1
  6
CONTINUOUS
 62
     7
 10
4513.0
 20
19541.0192305276286788
 30
0.0
 11
4474.4999999999990905
 21
19541.0192305276286788
 31
0.0
  0
LINE
  5
3D035
  8
1
  6
CONTINUOUS
 62
     7
 10
4576.5
 20
19660.0192305276286788
 30
0.0
 11
4513.0
 21
19660.0192305276286788
 31
0.0
  0
LINE
  5
3D036
  8
CENTER
 10
4600.5
 20
19598.0192305276286788
 30
0.0
 11
4570.5
 21
19598.0192305276286788
 31
0.0
  0
LINE
  5
3D037
  8
1
  6
CONTINUOUS
 62
     7
 10
4576.5
 20
19660.0192305276286788
 30
0.0
 11
4576.5
 21
19600.419230527630134
 31
0.0
  0
LINE
  5
3D038
  8
1
  6
CONTINUOUS
 62
     7
 10
4594.5
 20
19673.5192305276286788
 30
0.0
 11
4594.5
 21
19595.6192305276199477
 31
0.0
  0
LINE
  5
3D039
  8
1
  6
CONTINUOUS
 62
     7
 10
4594.5
 20
19665.6192305276308616
 30
0.0
 11
4582.1499999999996362
 21
19657.5192305276286788
 31
0.0
  0
LINE
  5
3D03A
  8
1
  6
CONTINUOUS
 62
     7
 10
4576.5
 20
19657.5192305276286788
 30
0.0
 11
4582.1499999999996362
 21
19657.5192305276286788
 31
0.0
  0
LINE
  5
3D03B
  8
1
  6
CONTINUOUS
 62
     7
 10
4474.4999999999990905
 20
19669.7692305276286788
 30
0.0
 11
4466.0399999999999636
 21
19669.7692305276286788
 31
0.0
  0
LINE
  5
3D03C
  8
1
  6
CONTINUOUS
 62
     7
 10
4513.0
 20
19660.0192305276286788
 30
0.0
 11
4513.0
 21
19598.0192305276286788
 31
0.0
  0
LINE
  5
3D03D
  8
1
  6
CONTINUOUS
 62
     7
 10
4513.0
 20
19655.0192305276286788
 30
0.0
 11
4474.4999999999990905
 21
19655.0192305276286788
 31
0.0
  0
LINE
  5
3D03E
  8
1
  6
CONTINUOUS
 62
     7
 10
4474.4999999999990905
 20
19598.0192305276286788
 30
0.0
 11
4474.4999999999990905
 21
19669.7692305276286788
 31
0.0
  0
LINE
  5
3D03F
  8
1
  6
CONTINUOUS
 62
     7
 10
6400.5
 20
19541.0192305276286788
 30
0.0
 11
5890.5
 21
19541.0192305276286788
 31
0.0
  0
LINE
  5
3D040
  8
1
  6
CONTINUOUS
 62
     7
 10
6400.5
 20
19655.0192305276286788
 30
0.0
 11
5890.5
 21
19655.0192305276286788
 31
0.0
  0
LINE
  5
3D041
  8
1
  6
CONTINUOUS
 62
     7
 10
5890.5
 20
19598.0192305276286788
 30
0.0
 11
5890.5
 21
19522.5192305276286788
 31
0.0
  0
LINE
  5
3D042
  8
1
  6
CONTINUOUS
 62
     7
 10
5890.5
 20
19598.0192305276286788
 30
0.0
 11
5890.5
 21
19673.5192305276286788
 31
0.0
  0
LINE
  5
3D044
  8
1
  6
CONTINUOUS
 62
     7
 10
6486.5200000000004366
 20
19541.0192305276286788
 30
0.0
 11
6486.5200000000004366
 21
19598.0192305276286788
 31
0.0
  0
LINE
  5
3D045
  8
1
  6
CONTINUOUS
 62
     7
 10
6400.5
 20
19598.0192305276286788
 30
0.0
 11
6400.5
 21
19526.2692305276286788
 31
0.0
  0
ARC
  5
3D046
  8
1
  6
CONTINUOUS
 62
     7
 10
6435.5000000000009095
 20
19598.0192305276286788
 30
0.0
 40
76.5
 50
249.7030000000000882
 51
311.8319999999933998
  0
LINE
  5
3D047
  8
1
  6
CONTINUOUS
 62
     7
 10
6400.5
 20
19526.2692305276286788
 30
0.0
 11
6408.9600000000000364
 21
19526.2692305276286788
 31
0.0
  0
ARC
  5
3D048
  8
1
  6
CONTINUOUS
 62
     7
 10
6435.5000000000009095
 20
19598.0192305276286788
 30
0.0
 40
76.5
 50
48.1680000000065718
 51
110.2967999999911939
  0
LINE
  5
3D049
  8
1
  6
CONTINUOUS
 62
     7
 10
6486.5200000000004366
 20
19655.0192305276286788
 30
0.0
 11
6486.5200000000004366
 21
19598.0192305276286788
 31
0.0
  0
LINE
  5
3D04A
  8
1
  6
CONTINUOUS
 62
     7
 10
6400.5
 20
19598.0192305276286788
 30
0.0
 11
6400.5
 21
19669.7692305276286788
 31
0.0
  0
LINE
  5
3D04B
  8
1
  6
CONTINUOUS
 62
     7
 10
6400.5
 20
19669.7692305276286788
 30
0.0
 11
6408.9600000000000364
 21
19669.7692305276286788
 31
0.0
  0
LINE
  5
3D04C
  8
1
  6
CONTINUOUS
 62
     7
 10
6559.4999999999990905
 20
19493.0192305276286788
 30
0.0
 11
6559.4999999999990905
 21
19598.0192305276286788
 31
0.0
  0
LINE
  5
3D04D
  8
1
  6
CONTINUOUS
 62
     7
 10
6577.5
 20
19493.0192305276286788
 30
0.0
 11
6577.5
 21
19598.0192305276286788
 31
0.0
  0
LINE
  5
3D04E
  8
1
  6
CONTINUOUS
 62
     7
 10
6577.5
 20
19493.0192305276286788
 30
0.0
 11
6559.4999999999990905
 21
19493.0192305276286788
 31
0.0
  0
LINE
  5
3D04F
  8
1
  6
CONTINUOUS
 62
     7
 10
6559.4999999999990905
 20
19703.0192305276286788
 30
0.0
 11
6559.4999999999990905
 21
19598.0192305276286788
 31
0.0
  0
LINE
  5
3D050
  8
1
  6
CONTINUOUS
 62
     7
 10
6577.5
 20
19703.0192305276286788
 30
0.0
 11
6577.5
 21
19598.0192305276286788
 31
0.0
  0
LINE
  5
3D051
  8
1
  6
CONTINUOUS
 62
     7
 10
6577.5
 20
19703.0192305276286788
 30
0.0
 11
6559.4999999999990905
 21
19703.0192305276286788
 31
0.0
  0
LINE
  5
3D052
  8
1
  6
CONTINUOUS
 62
     7
 10
6486.5200000000004366
 20
19541.0192305276286788
 30
0.0
 11
6559.4999999999990905
 21
19541.0192305276286788
 31
0.0
  0
LINE
  5
3D053
  8
1
  6
CONTINUOUS
 62
     7
 10
6486.5200000000004366
 20
19655.0192305276286788
 30
0.0
 11
6559.4999999999990905
 21
19655.0192305276286788
 31
0.0
  0
LINE
  5
3D054
  8
1
  6
CONTINUOUS
 62
     7
 10
4315.5
 20
15178.5410367590902752
 30
0.0
 11
4315.5
 21
15283.5410367590902752
 31
0.0
  0
LINE
  5
3D055
  8
1
  6
CONTINUOUS
 62
     7
 10
4297.5
 20
15178.5410367590902752
 30
0.0
 11
4297.5
 21
15283.5410367590902752
 31
0.0
  0
LINE
  5
3D056
  8
1
  6
CONTINUOUS
 62
     7
 10
4297.5
 20
15178.5410367590902752
 30
0.0
 11
4315.5
 21
15178.5410367590902752
 31
0.0
  0
LINE
  5
3D057
  8
CENTER
 10
6620.5299999999988358
 20
15295.5410367590902752
 30
0.0
 11
4600.5
 21
15295.5410367590902752
 31
0.0
  0
LINE
  5
3D058
  8
1
  6
CONTINUOUS
 62
     7
 10
5890.5
 20
15220.0410367590902752
 30
0.0
 11
4594.5
 21
15220.0410367590902752
 31
0.0
  0
LINE
  5
3D059
  8
1
  6
CONTINUOUS
 62
     7
 10
5890.5
 20
15371.0410367590902752
 30
0.0
 11
4594.5
 21
15371.0410367590902752
 31
0.0
  0
LINE
  5
3D05A
  8
CENTER
 10
4570.5
 20
15283.5410367590902752
 30
0.0
 11
4265.0600000000004002
 21
15283.5410367590902752
 31
0.0
  0
LINE
  5
3D05B
  8
1
  6
CONTINUOUS
 62
     7
 10
4388.4799999999995634
 20
15226.5410367590902752
 30
0.0
 11
4315.5
 21
15226.5410367590902752
 31
0.0
  0
LINE
  5
3D05C
  8
1
  6
CONTINUOUS
 62
     7
 10
4388.4799999999995634
 20
15340.5410367590902752
 30
0.0
 11
4315.5
 21
15340.5410367590902752
 31
0.0
  0
LINE
  5
3D05D
  8
1
  6
CONTINUOUS
 62
     7
 10
4315.5
 20
15388.5410367590902752
 30
0.0
 11
4315.5
 21
15283.5410367590902752
 31
0.0
  0
LINE
  5
3D05E
  8
1
  6
CONTINUOUS
 62
     7
 10
4297.5
 20
15388.5410367590902752
 30
0.0
 11
4297.5
 21
15283.5410367590902752
 31
0.0
  0
LINE
  5
3D05F
  8
1
  6
CONTINUOUS
 62
     7
 10
4297.5
 20
15388.5410367590902752
 30
0.0
 11
4315.5
 21
15388.5410367590902752
 31
0.0
  0
LINE
  5
3D060
  8
1
  6
CONTINUOUS
 62
     7
 10
4474.4999999999990905
 20
15283.5410367590902752
 30
0.0
 11
4474.4999999999990905
 21
15211.7910367590902752
 31
0.0
  0
LINE
  5
3D061
  8
1
  6
CONTINUOUS
 62
     7
 10
4576.5
 20
15221.5410367590902752
 30
0.0
 11
4513.0
 21
15221.5410367590902752
 31
0.0
  0
LINE
  5
3D062
  8
1
  6
CONTINUOUS
 62
     7
 10
4576.5
 20
15224.0410367590902752
 30
0.0
 11
4594.5
 21
15224.0410367590902752
 31
0.0
  0
LINE
  5
3D063
  8
1
  6
CONTINUOUS
 62
     7
 10
4474.4999999999990905
 20
15211.7910367590902752
 30
0.0
 11
4466.0399999999999636
 21
15211.7910367590902752
 31
0.0
  0
LINE
  5
3D064
  8
1
  6
CONTINUOUS
 62
     7
 10
4513.0
 20
15226.5410367590902752
 30
0.0
 11
4474.4999999999990905
 21
15226.5410367590902752
 31
0.0
  0
LINE
  5
3D065
  8
1
  6
CONTINUOUS
 62
     7
 10
4576.5
 20
15345.5410367590902752
 30
0.0
 11
4513.0
 21
15345.5410367590902752
 31
0.0
  0
LINE
  5
3D066
  8
CENTER
 10
4600.5
 20
15295.5410367590902752
 30
0.0
 11
4570.5
 21
15283.5410367590902752
 31
0.0
  0
LINE
  5
3D067
  8
1
  6
CONTINUOUS
 62
     7
 10
4576.5
 20
15345.5410367590902752
 30
0.0
 11
4576.5
 21
15285.9410367590899114
 31
0.0
  0
LINE
  5
3D068
  8
1
  6
CONTINUOUS
 62
     7
 10
4594.5
 20
15371.0410367590902752
 30
0.0
 11
4594.5
 21
15293.141036759090639
 31
0.0
  0
LINE
  5
3D069
  8
1
  6
CONTINUOUS
 62
     7
 10
4594.5
 20
15363.141036759090639
 30
0.0
 11
4582.1499999999996362
 21
15343.0410367590902752
 31
0.0
  0
LINE
  5
3D06A
  8
1
  6
CONTINUOUS
 62
     7
 10
4576.5
 20
15343.0410367590902752
 30
0.0
 11
4582.1499999999996362
 21
15343.0410367590902752
 31
0.0
  0
LINE
  5
3D06B
  8
1
  6
CONTINUOUS
 62
     7
 10
4474.4999999999990905
 20
15355.2910367590902752
 30
0.0
 11
4466.0399999999999636
 21
15355.2910367590902752
 31
0.0
  0
LINE
  5
3D06C
  8
1
  6
CONTINUOUS
 62
     7
 10
4513.0
 20
15345.5410367590902752
 30
0.0
 11
4513.0
 21
15283.5410367590902752
 31
0.0
  0
LINE
  5
3D06D
  8
1
  6
CONTINUOUS
 62
     7
 10
4513.0
 20
15340.5410367590902752
 30
0.0
 11
4474.4999999999990905
 21
15340.5410367590902752
 31
0.0
  0
LINE
  5
3D06E
  8
1
  6
CONTINUOUS
 62
     7
 10
4474.4999999999990905
 20
15283.5410367590902752
 30
0.0
 11
4474.4999999999990905
 21
15355.2910367590902752
 31
0.0
  0
ARC
  5
3D06F
  8
1
  6
CONTINUOUS
 62
     7
 10
4439.5
 20
15283.5410367590902752
 30
0.0
 40
76.5
 50
228.1680000000066002
 51
290.2969999999997981
  0
ARC
  5
3D070
  8
1
  6
CONTINUOUS
 62
     7
 10
4439.5
 20
15283.5410367590902752
 30
0.0
 40
76.5
 50
69.7030000000001451
 51
131.8324999999692011
  0
LINE
  5
3D071
  8
1
  6
CONTINUOUS
 62
     7
 10
4388.4799999999995634
 20
15226.5410367590902752
 30
0.0
 11
4388.4799999999995634
 21
15283.5410367590902752
 31
0.0
  0
LINE
  5
3D072
  8
1
  6
CONTINUOUS
 62
     7
 10
4388.4799999999995634
 20
15340.5410367590902752
 30
0.0
 11
4388.4799999999995634
 21
15283.5410367590902752
 31
0.0
  0
LINE
  5
3D074
  8
1
  6
CONTINUOUS
 62
     7
 10
4576.5
 20
15221.5410367590902752
 30
0.0
 11
4576.5
 21
15285.9410367590899114
 31
0.0
  0
LINE
  5
3D075
  8
1
  6
CONTINUOUS
 62
     7
 10
4594.5
 20
15220.0410367590902752
 30
0.0
 11
4594.5
 21
15293.141036759090639
 31
0.0
  0
LINE
  5
3D076
  8
1
  6
CONTINUOUS
 62
     7
 10
4513.0
 20
15221.5410367590902752
 30
0.0
 11
4513.0
 21
15283.5410367590902752
 31
0.0
  0
LINE
  5
3D077
  8
1
  6
CONTINUOUS
 62
     7
 10
6400.5
 20
15238.5410367590902752
 30
0.0
 11
5890.5
 21
15238.5410367590902752
 31
0.0
  0
LINE
  5
3D078
  8
1
  6
CONTINUOUS
 62
     7
 10
6400.5
 20
15352.5410367590902752
 30
0.0
 11
5890.5
 21
15352.5410367590902752
 31
0.0
  0
LINE
  5
3D079
  8
1
  6
CONTINUOUS
 62
     7
 10
5890.5
 20
15295.5410367590902752
 30
0.0
 11
5890.5
 21
15220.0410367590902752
 31
0.0
  0
LINE
  5
3D07A
  8
1
  6
CONTINUOUS
 62
     7
 10
5890.5
 20
15295.5410367590902752
 30
0.0
 11
5890.5
 21
15371.0410367590902752
 31
0.0
  0
LINE
  5
3D07B
  8
1
  6
CONTINUOUS
 62
     7
 10
6486.5200000000004366
 20
15238.5410367590902752
 30
0.0
 11
6559.4999999999990905
 21
15238.5410367590902752
 31
0.0
  0
LINE
  5
3D07C
  8
1
  6
CONTINUOUS
 62
     7
 10
6486.5200000000004366
 20
15352.5410367590902752
 30
0.0
 11
6559.4999999999990905
 21
15352.5410367590902752
 31
0.0
  0
LINE
  5
3D07E
  8
1
  6
CONTINUOUS
 62
     7
 10
6486.5200000000004366
 20
15238.5410367590902752
 30
0.0
 11
6486.5200000000004366
 21
15295.5410367590902752
 31
0.0
  0
LINE
  5
3D07F
  8
1
  6
CONTINUOUS
 62
     7
 10
6400.5
 20
15295.5410367590902752
 30
0.0
 11
6400.5
 21
15223.7910367590902752
 31
0.0
  0
ARC
  5
3D080
  8
1
  6
CONTINUOUS
 62
     7
 10
6435.5000000000009095
 20
15295.5410367590902752
 30
0.0
 40
76.5
 50
249.7030000000000882
 51
311.8319999999933998
  0
LINE
  5
3D081
  8
1
  6
CONTINUOUS
 62
     7
 10
6400.5
 20
15223.7910367590902752
 30
0.0
 11
6408.9600000000000364
 21
15223.7910367590902752
 31
0.0
  0
ARC
  5
3D082
  8
1
  6
CONTINUOUS
 62
     7
 10
6435.5000000000009095
 20
15295.5410367590902752
 30
0.0
 40
76.5
 50
48.1680000000065718
 51
110.2967999999911939
  0
LINE
  5
3D083
  8
1
  6
CONTINUOUS
 62
     7
 10
6486.5200000000004366
 20
15352.5410367590902752
 30
0.0
 11
6486.5200000000004366
 21
15295.5410367590902752
 31
0.0
  0
LINE
  5
3D084
  8
1
  6
CONTINUOUS
 62
     7
 10
6400.5
 20
15295.5410367590902752
 30
0.0
 11
6400.5
 21
15367.2910367590902752
 31
0.0
  0
LINE
  5
3D085
  8
1
  6
CONTINUOUS
 62
     7
 10
6400.5
 20
15367.2910367590902752
 30
0.0
 11
6408.9600000000000364
 21
15367.2910367590902752
 31
0.0
  0
LINE
  5
3D086
  8
1
  6
CONTINUOUS
 62
     7
 10
6559.4999999999990905
 20
15190.5410367590902752
 30
0.0
 11
6559.4999999999990905
 21
15295.5410367590902752
 31
0.0
  0
LINE
  5
3D087
  8
1
  6
CONTINUOUS
 62
     7
 10
6577.5
 20
15190.5410367590902752
 30
0.0
 11
6577.5
 21
15295.5410367590902752
 31
0.0
  0
LINE
  5
3D088
  8
1
  6
CONTINUOUS
 62
     7
 10
6577.5
 20
15190.5410367590902752
 30
0.0
 11
6559.4999999999990905
 21
15190.5410367590902752
 31
0.0
  0
LINE
  5
3D089
  8
1
  6
CONTINUOUS
 62
     7
 10
6559.4999999999990905
 20
15400.5410367590902752
 30
0.0
 11
6559.4999999999990905
 21
15295.5410367590902752
 31
0.0
  0
LINE
  5
3D08A
  8
1
  6
CONTINUOUS
 62
     7
 10
6577.5
 20
15400.5410367590902752
 30
0.0
 11
6577.5
 21
15295.5410367590902752
 31
0.0
  0
LINE
  5
3D08B
  8
1
  6
CONTINUOUS
 62
     7
 10
6577.5
 20
15400.5410367590902752
 30
0.0
 11
6559.4999999999990905
 21
15400.5410367590902752
 31
0.0
  0
LINE
  5
3D08E
  8
1
  6
CONTINUOUS
 62
     7
 10
4576.5
 20
19538.5192305276286788
 30
0.0
 11
4582.1499999999996362
 21
19538.5192305276286788
 31
0.0
  0
LINE
  5
3D08F
  8
1
  6
CONTINUOUS
 62
     7
 10
4594.5
 20
19530.419230527630134
 30
0.0
 11
4582.1499999999996362
 21
19538.5192305276286788
 31
0.0
  0
LINE
  5
3D498
  8
UL1
 10
3797.5
 20
20253.0192305276286788
 30
0.0
 11
7077.5
 21
20253.0192305276286788
 31
0.0
  0
LINE
  5
3D499
  8
UL1
 10
7077.5
 20
18943.0192305276286788
 30
0.0
 11
3797.5
 21
18943.0192305276286788
 31
0.0
  0
LINE
  5
3D49A
  8
UL1
 10
4297.5
 20
19443.0192305276286788
 30
0.0
 11
4297.5
 21
19753.0192305276286788
 31
0.0
  0
LINE
  5
3D49B
  8
UL1
 10
6577.5
 20
18943.0192305276286788
 30
0.0
 11
6577.5
 21
20253.0192305276286788
 31
0.0
  0
LINE
  5
3D49C
  8
UL1
 10
3797.5
 20
20253.0192305276286788
 30
0.0
 11
3797.5
 21
18943.0192305276286788
 31
0.0
  0
LINE
  5
3D49D
  8
UL1
 10
7077.5
 20
20253.0192305276286788
 30
0.0
 11
7077.5
 21
18943.0192305276286788
 31
0.0
  0
LINE
  5
3D4A4
  8
UL1
 10
4297.5
 20
19753.0192305276286788
 30
0.0
 11
6400.5
 21
20253.0192305276286788
 31
0.0
  0
LINE
  5
3D4A5
  8
UL1
 10
4297.5
 20
19443.0192305276286788
 30
0.0
 11
6400.5
 21
18943.0192305276286788
 31
0.0
  0
LINE
  5
3D4A9
  8
UL1
 10
3797.5
 20
15488.5410367590902752
 30
0.0
 11
7077.5
 21
15488.5410367590902752
 31
0.0
  0
LINE
  5
3D4AA
  8
UL1
 10
3797.5
 20
15078.5410367590902752
 30
0.0
 11
7077.5
 21
15078.5410367590902752
 31
0.0
  0
LINE
  5
3D4AB
  8
UL1
 10
3797.5
 20
15488.5410367590902752
 30
0.0
 11
3797.5
 21
15078.5410367590902752
 31
0.0
  0
LINE
  5
3D4AC
  8
UL1
 10
7077.5
 20
15078.5410367590902752
 30
0.0
 11
7077.5
 21
15488.5410367590902752
 31
0.0
  0
TEXT
  5
3D559
  8
SCALE
 10
5110.8333333333312112
 20
18254.6225795925383864
 30
0.0
 40
200.0
  1
平面図
 72
     4
 11
5437.4999999999972715
 21
18347.955912925870507
 31
0.0
  0
TEXT
  5
3D55A
  8
SCALE
 10
5110.8333333333312112
 20
13983.9703838745008397
 30
0.0
 40
200.0
  1
断面図
 72
     4
 11
5437.4999999999972715
 21
14083.9703838745008397
 31
0.0
  0
LINE
  5
3D5B9
  8
1
  6
CONTINUOUS
 62
     7
 10
16579.5799999999908323
 20
15365.5410367590902752
 30
0.0
 11
16657.5
 21
15365.5410367590902752
 31
0.0
  0
LINE
  5
3D5BA
  8
1
  6
CONTINUOUS
 62
     7
 10
16579.5799999999908323
 20
15225.5410367590902752
 30
0.0
 11
16657.5
 21
15225.5410367590902752
 31
0.0
  0
LINE
  5
3D5BE
  8
CENTER
 10
16705.2200000000011642
 20
15295.5410367590902752
 30
0.0
 11
14680.5
 21
15295.5410367590902752
 31
0.0
  0
LINE
  5
3D5BF
  8
1
  6
CONTINUOUS
 62
     7
 10
15969.5
 20
15206.5410367590902752
 30
0.0
 11
14673.5
 21
15206.5410367590902752
 31
0.0
  0
LINE
  5
3D5C0
  8
1
  6
CONTINUOUS
 62
     7
 10
15969.5
 20
15384.5410367590902752
 30
0.0
 11
14673.5
 21
15384.5410367590902752
 31
0.0
  0
ARC
  5
3D5C4
  8
1
  6
CONTINUOUS
 62
     7
 10
14505.5
 20
15284.0410367590902752
 30
0.0
 40
92.2499999999999858
 50
229.358999999974202
 51
289.4229999999787992
  0
ARC
  5
3D5C5
  8
1
  6
CONTINUOUS
 62
     7
 10
14505.5
 20
15284.0410367590902752
 30
0.0
 40
92.2499999999999858
 50
70.5770000000211724
 51
130.6407999999975971
  0
LINE
  5
3D5C6
  8
CENTER
 10
14650.5
 20
15284.0410367590902752
 30
0.0
 11
14325.6599999999998545
 21
15284.0410367590902752
 31
0.0
  0
LINE
  5
3D5C7
  8
1
  6
CONTINUOUS
 62
     7
 10
14367.5
 20
15409.0410367590902752
 30
0.0
 11
14367.5
 21
15284.0410367590902752
 31
0.0
  0
LINE
  5
3D5C8
  8
1
  6
CONTINUOUS
 62
     7
 10
14347.5
 20
15409.0410367590902752
 30
0.0
 11
14347.5
 21
15284.0410367590902752
 31
0.0
  0
LINE
  5
3D5C9
  8
1
  6
CONTINUOUS
 62
     7
 10
14367.5
 20
15159.0410367590902752
 30
0.0
 11
14367.5
 21
15284.0410367590902752
 31
0.0
  0
LINE
  5
3D5CA
  8
1
  6
CONTINUOUS
 62
     7
 10
14347.5
 20
15159.0410367590902752
 30
0.0
 11
14347.5
 21
15284.0410367590902752
 31
0.0
  0
LINE
  5
3D5CB
  8
1
  6
CONTINUOUS
 62
     7
 10
14347.5
 20
15159.0410367590902752
 30
0.0
 11
14367.5
 21
15159.0410367590902752
 31
0.0
  0
LINE
  5
3D5CC
  8
1
  6
CONTINUOUS
 62
     7
 10
14347.5
 20
15409.0410367590902752
 30
0.0
 11
14367.5
 21
15409.0410367590902752
 31
0.0
  0
LINE
  5
3D5CD
  8
1
  6
CONTINUOUS
 62
     7
 10
14445.4200000000000728
 20
15214.0410367590902752
 30
0.0
 11
14445.4200000000000728
 21
15284.0410367590902752
 31
0.0
  0
LINE
  5
3D5CE
  8
1
  6
CONTINUOUS
 62
     7
 10
14445.4200000000000728
 20
15354.0410367590902752
 30
0.0
 11
14445.4200000000000728
 21
15284.0410367590902752
 31
0.0
  0
LINE
  5
3D5CF
  8
1
  6
CONTINUOUS
 62
     7
 10
14445.4200000000000728
 20
15354.0410367590902752
 30
0.0
 11
14367.5
 21
15354.0410367590902752
 31
0.0
  0
LINE
  5
3D5D0
  8
1
  6
CONTINUOUS
 62
     7
 10
14445.4200000000000728
 20
15214.0410367590902752
 30
0.0
 11
14367.5
 21
15214.0410367590902752
 31
0.0
  0
LINE
  5
3D5D1
  8
1
  6
CONTINUOUS
 62
     7
 10
14657.5
 20
15359.5410367590902752
 30
0.0
 11
14585.5
 21
15359.5410367590902752
 31
0.0
  0
LINE
  5
3D5D2
  8
1
  6
CONTINUOUS
 62
     7
 10
14657.5
 20
15208.5410367590902752
 30
0.0
 11
14585.5
 21
15208.5410367590902752
 31
0.0
  0
LINE
  5
3D5D3
  8
1
  6
CONTINUOUS
 62
     7
 10
14657.5
 20
15286.7210367590905662
 30
0.0
 11
14657.5
 21
15208.5410367590902752
 31
0.0
  0
LINE
  5
3D5D4
  8
1
  6
CONTINUOUS
 62
     7
 10
14673.5
 20
15292.8610367590899841
 30
0.0
 11
14673.5
 21
15206.5410367590902752
 31
0.0
  0
LINE
  5
3D5D5
  8
1
  6
CONTINUOUS
 62
     7
 10
14657.5
 20
15212.5410367590902752
 30
0.0
 11
14673.5
 21
15212.5410367590902752
 31
0.0
  0
LINE
  5
3D5D6
  8
CENTER
 10
14680.5
 20
15295.5410367590902752
 30
0.0
 11
14650.5
 21
15284.0410367590902752
 31
0.0
  0
LINE
  5
3D5D7
  8
1
  6
CONTINUOUS
 62
     7
 10
14673.5
 20
15384.5410367590902752
 30
0.0
 11
14673.5
 21
15292.8610367590899841
 31
0.0
  0
LINE
  5
3D5D8
  8
1
  6
CONTINUOUS
 62
     7
 10
14657.5
 20
15359.5410367590902752
 30
0.0
 11
14657.5
 21
15286.7210367590905662
 31
0.0
  0
LINE
  5
3D5D9
  8
1
  6
CONTINUOUS
 62
     7
 10
14673.5
 20
15374.9210367590894748
 30
0.0
 11
14661.5900000000001455
 21
15355.5410367590902752
 31
0.0
  0
LINE
  5
3D5DA
  8
1
  6
CONTINUOUS
 62
     7
 10
14657.5
 20
15355.5410367590902752
 30
0.0
 11
14661.5900000000001455
 21
15355.5410367590902752
 31
0.0
  0
LINE
  5
3D5DC
  8
1
  6
CONTINUOUS
 62
     7
 10
14545.5
 20
15284.0410367590902752
 30
0.0
 11
14545.5
 21
15197.0410367590902752
 31
0.0
  0
LINE
  5
3D5DD
  8
1
  6
CONTINUOUS
 62
     7
 10
14585.5
 20
15208.5410367590902752
 30
0.0
 11
14585.5
 21
15284.0410367590902752
 31
0.0
  0
LINE
  5
3D5DE
  8
1
  6
CONTINUOUS
 62
     7
 10
14585.5
 20
15214.0410367590902752
 30
0.0
 11
14545.5
 21
15214.0410367590902752
 31
0.0
  0
LINE
  5
3D5DF
  8
1
  6
CONTINUOUS
 62
     7
 10
14545.5
 20
15197.0410367590902752
 30
0.0
 11
14536.180000000000291
 21
15197.0410367590902752
 31
0.0
  0
LINE
  5
3D5E0
  8
1
  6
CONTINUOUS
 62
     7
 10
14585.5
 20
15359.5410367590902752
 30
0.0
 11
14585.5
 21
15284.0410367590902752
 31
0.0
  0
LINE
  5
3D5E1
  8
1
  6
CONTINUOUS
 62
     7
 10
14585.5
 20
15354.0410367590902752
 30
0.0
 11
14545.5
 21
15354.0410367590902752
 31
0.0
  0
LINE
  5
3D5E2
  8
1
  6
CONTINUOUS
 62
     7
 10
14545.5
 20
15284.0410367590902752
 30
0.0
 11
14545.5
 21
15371.0410367590902752
 31
0.0
  0
LINE
  5
3D5E3
  8
1
  6
CONTINUOUS
 62
     7
 10
14545.5
 20
15371.0410367590902752
 30
0.0
 11
14536.180000000000291
 21
15371.0410367590902752
 31
0.0
  0
LINE
  5
3D5E5
  8
1
  6
CONTINUOUS
 62
     7
 10
16479.5
 20
15225.5410367590902752
 30
0.0
 11
15969.5
 21
15225.5410367590902752
 31
0.0
  0
LINE
  5
3D5E6
  8
1
  6
CONTINUOUS
 62
     7
 10
16479.5
 20
15365.5410367590902752
 30
0.0
 11
15969.5
 21
15365.5410367590902752
 31
0.0
  0
LINE
  5
3D5E7
  8
1
  6
CONTINUOUS
 62
     7
 10
15969.5
 20
15295.5410367590902752
 30
0.0
 11
15969.5
 21
15206.5410367590902752
 31
0.0
  0
LINE
  5
3D5E8
  8
1
  6
CONTINUOUS
 62
     7
 10
15969.5
 20
15295.5410367590902752
 30
0.0
 11
15969.5
 21
15384.5410367590902752
 31
0.0
  0
LINE
  5
3D5EA
  8
1
  6
CONTINUOUS
 62
     7
 10
16479.5
 20
15295.5410367590902752
 30
0.0
 11
16479.5
 21
15208.5410367590902752
 31
0.0
  0
LINE
  5
3D5EB
  8
1
  6
CONTINUOUS
 62
     7
 10
16479.5
 20
15208.5410367590902752
 30
0.0
 11
16488.819999999999709
 21
15208.5410367590902752
 31
0.0
  0
LINE
  5
3D5EC
  8
1
  6
CONTINUOUS
 62
     7
 10
16479.5
 20
15295.5410367590902752
 30
0.0
 11
16479.5
 21
15382.5410367590902752
 31
0.0
  0
LINE
  5
3D5ED
  8
1
  6
CONTINUOUS
 62
     7
 10
16479.5
 20
15382.5410367590902752
 30
0.0
 11
16488.819999999999709
 21
15382.5410367590902752
 31
0.0
  0
LINE
  5
3D5EE
  8
1
  6
CONTINUOUS
 62
     7
 10
16579.5799999999908323
 20
15225.5410367590902752
 30
0.0
 11
16579.5799999999908323
 21
15295.5410367590902752
 31
0.0
  0
LINE
  5
3D5EF
  8
1
  6
CONTINUOUS
 62
     7
 10
16579.5799999999908323
 20
15365.5410367590902752
 30
0.0
 11
16579.5799999999908323
 21
15295.5410367590902752
 31
0.0
  0
ARC
  5
3D5F0
  8
1
  6
CONTINUOUS
 62
     7
 10
16519.5
 20
15295.5410367590902752
 30
0.0
 40
92.2499999999999858
 50
49.358999999974202
 51
109.4229999999787992
  0
ARC
  5
3D5F1
  8
1
  6
CONTINUOUS
 62
     7
 10
16519.5
 20
15295.5410367590902752
 30
0.0
 40
92.2499999999999858
 50
250.5770000000212008
 51
310.6410000000258265
  0
LINE
  5
3D5F3
  8
1
  6
CONTINUOUS
 62
     7
 10
16657.5
 20
15420.5410367590902752
 30
0.0
 11
16657.5
 21
15295.5410367590902752
 31
0.0
  0
LINE
  5
3D5F4
  8
1
  6
CONTINUOUS
 62
     7
 10
16677.5
 20
15420.5410367590902752
 30
0.0
 11
16677.5
 21
15295.5410367590902752
 31
0.0
  0
LINE
  5
3D5F5
  8
1
  6
CONTINUOUS
 62
     7
 10
16657.5
 20
15170.5410367590902752
 30
0.0
 11
16657.5
 21
15295.5410367590902752
 31
0.0
  0
LINE
  5
3D5F6
  8
1
  6
CONTINUOUS
 62
     7
 10
16677.5
 20
15170.5410367590902752
 30
0.0
 11
16677.5
 21
15295.5410367590902752
 31
0.0
  0
LINE
  5
3D5F7
  8
1
  6
CONTINUOUS
 62
     7
 10
16677.5
 20
15170.5410367590902752
 30
0.0
 11
16657.5
 21
15170.5410367590902752
 31
0.0
  0
LINE
  5
3D5F8
  8
1
  6
CONTINUOUS
 62
     7
 10
16677.5
 20
15420.5410367590902752
 30
0.0
 11
16657.5
 21
15420.5410367590902752
 31
0.0
  0
LINE
  5
3D5FA
  8
1
  6
CONTINUOUS
 62
     7
 10
15969.5
 20
19509.0192305276286788
 30
0.0
 11
14673.5
 21
19509.0192305276286788
 31
0.0
  0
LINE
  5
3D5FB
  8
1
  6
CONTINUOUS
 62
     7
 10
15969.5
 20
19687.0192305276286788
 30
0.0
 11
14673.5
 21
19687.0192305276286788
 31
0.0
  0
LINE
  5
3D5FC
  8
CENTER
 10
16705.2200000000011642
 20
19598.0192305276286788
 30
0.0
 11
14680.5
 21
19598.0192305276286788
 31
0.0
  0
LINE
  5
3D5FD
  8
CENTER
 10
14650.5
 20
19598.0192305276286788
 30
0.0
 11
14325.6599999999998545
 21
19598.0192305276286788
 31
0.0
  0
LINE
  5
3D5FE
  8
CENTER
 10
14680.5
 20
19598.0192305276286788
 30
0.0
 11
14650.5
 21
19598.0192305276286788
 31
0.0
  0
LINE
  5
3D5FF
  8
1
  6
CONTINUOUS
 62
     7
 10
14657.5
 20
19600.6992305276289699
 30
0.0
 11
14657.5
 21
19522.5192305276286788
 31
0.0
  0
LINE
  5
3D600
  8
1
  6
CONTINUOUS
 62
     7
 10
14673.5
 20
19595.3392305276283878
 30
0.0
 11
14673.5
 21
19509.0192305276286788
 31
0.0
  0
LINE
  5
3D602
  8
1
  6
CONTINUOUS
 62
     7
 10
14673.5
 20
19687.0192305276286788
 30
0.0
 11
14673.5
 21
19595.3392305276283878
 31
0.0
  0
LINE
  5
3D603
  8
1
  6
CONTINUOUS
 62
     7
 10
14657.5
 20
19673.5192305276286788
 30
0.0
 11
14657.5
 21
19600.6992305276289699
 31
0.0
  0
LINE
  5
3D604
  8
1
  6
CONTINUOUS
 62
     7
 10
14673.5
 20
19677.3992305276296975
 30
0.0
 11
14661.5900000000001455
 21
19669.5192305276286788
 31
0.0
  0
LINE
  5
3D605
  8
1
  6
CONTINUOUS
 62
     7
 10
14657.5
 20
19669.5192305276286788
 30
0.0
 11
14661.5900000000001455
 21
19669.5192305276286788
 31
0.0
  0
ARC
  5
3D606
  8
1
  6
CONTINUOUS
 62
     7
 10
14505.5
 20
19598.0192305276286788
 30
0.0
 40
92.2499999999999858
 50
229.358999999974202
 51
289.4229999999787992
  0
ARC
  5
3D607
  8
1
  6
CONTINUOUS
 62
     7
 10
14505.5
 20
19598.0192305276286788
 30
0.0
 40
92.2499999999999858
 50
70.5770000000211724
 51
130.6407999999975971
  0
LINE
  5
3D608
  8
1
  6
CONTINUOUS
 62
     7
 10
14367.5
 20
19723.0192305276286788
 30
0.0
 11
14367.5
 21
19598.0192305276286788
 31
0.0
  0
LINE
  5
3D609
  8
1
  6
CONTINUOUS
 62
     7
 10
14347.5
 20
19723.0192305276286788
 30
0.0
 11
14347.5
 21
19598.0192305276286788
 31
0.0
  0
LINE
  5
3D60A
  8
1
  6
CONTINUOUS
 62
     7
 10
14367.5
 20
19473.0192305276286788
 30
0.0
 11
14367.5
 21
19598.0192305276286788
 31
0.0
  0
LINE
  5
3D60B
  8
1
  6
CONTINUOUS
 62
     7
 10
14347.5
 20
19473.0192305276286788
 30
0.0
 11
14347.5
 21
19598.0192305276286788
 31
0.0
  0
LINE
  5
3D60C
  8
1
  6
CONTINUOUS
 62
     7
 10
14347.5
 20
19473.0192305276286788
 30
0.0
 11
14367.5
 21
19473.0192305276286788
 31
0.0
  0
LINE
  5
3D60D
  8
1
  6
CONTINUOUS
 62
     7
 10
14347.5
 20
19723.0192305276286788
 30
0.0
 11
14367.5
 21
19723.0192305276286788
 31
0.0
  0
LINE
  5
3D60E
  8
1
  6
CONTINUOUS
 62
     7
 10
14445.4200000000000728
 20
19528.0192305276286788
 30
0.0
 11
14445.4200000000000728
 21
19598.0192305276286788
 31
0.0
  0
LINE
  5
3D60F
  8
1
  6
CONTINUOUS
 62
     7
 10
14445.4200000000000728
 20
19668.0192305276286788
 30
0.0
 11
14445.4200000000000728
 21
19598.0192305276286788
 31
0.0
  0
LINE
  5
3D610
  8
1
  6
CONTINUOUS
 62
     7
 10
14445.4200000000000728
 20
19668.0192305276286788
 30
0.0
 11
14367.5
 21
19668.0192305276286788
 31
0.0
  0
LINE
  5
3D611
  8
1
  6
CONTINUOUS
 62
     7
 10
14445.4200000000000728
 20
19528.0192305276286788
 30
0.0
 11
14367.5
 21
19528.0192305276286788
 31
0.0
  0
LINE
  5
3D612
  8
1
  6
CONTINUOUS
 62
     7
 10
14545.5
 20
19598.0192305276286788
 30
0.0
 11
14545.5
 21
19511.0192305276214029
 31
0.0
  0
LINE
  5
3D613
  8
1
  6
CONTINUOUS
 62
     7
 10
14585.5
 20
19522.5192305276286788
 30
0.0
 11
14585.5
 21
19598.0192305276286788
 31
0.0
  0
LINE
  5
3D614
  8
1
  6
CONTINUOUS
 62
     7
 10
14585.5
 20
19528.0192305276286788
 30
0.0
 11
14545.5
 21
19528.0192305276286788
 31
0.0
  0
LINE
  5
3D615
  8
1
  6
CONTINUOUS
 62
     7
 10
14545.5
 20
19511.0192305276214029
 30
0.0
 11
14536.180000000000291
 21
19511.0192305276214029
 31
0.0
  0
LINE
  5
3D616
  8
1
  6
CONTINUOUS
 62
     7
 10
14585.5
 20
19673.5192305276286788
 30
0.0
 11
14585.5
 21
19598.0192305276286788
 31
0.0
  0
LINE
  5
3D617
  8
1
  6
CONTINUOUS
 62
     7
 10
14585.5
 20
19668.0192305276286788
 30
0.0
 11
14545.5
 21
19668.0192305276286788
 31
0.0
  0
LINE
  5
3D618
  8
1
  6
CONTINUOUS
 62
     7
 10
14545.5
 20
19598.0192305276286788
 30
0.0
 11
14545.5
 21
19685.0192305276286788
 31
0.0
  0
LINE
  5
3D619
  8
1
  6
CONTINUOUS
 62
     7
 10
14545.5
 20
19685.0192305276286788
 30
0.0
 11
14536.180000000000291
 21
19685.0192305276286788
 31
0.0
  0
LINE
  5
3D61A
  8
1
  6
CONTINUOUS
 62
     7
 10
14657.5
 20
19673.5192305276286788
 30
0.0
 11
14585.5
 21
19673.5192305276286788
 31
0.0
  0
LINE
  5
3D61B
  8
1
  6
CONTINUOUS
 62
     7
 10
14657.5
 20
19522.5192305276286788
 30
0.0
 11
14585.5
 21
19522.5192305276286788
 31
0.0
  0
LINE
  5
3D61C
  8
1
  6
CONTINUOUS
 62
     7
 10
16479.5
 20
19511.0192305276214029
 30
0.0
 11
16488.819999999999709
 21
19511.0192305276214029
 31
0.0
  0
LINE
  5
3D61D
  8
1
  6
CONTINUOUS
 62
     7
 10
16479.5
 20
19685.0192305276286788
 30
0.0
 11
16488.819999999999709
 21
19685.0192305276286788
 31
0.0
  0
LINE
  5
3D61E
  8
1
  6
CONTINUOUS
 62
     7
 10
16479.5
 20
19528.0192305276286788
 30
0.0
 11
15969.5
 21
19528.0192305276286788
 31
0.0
  0
LINE
  5
3D61F
  8
1
  6
CONTINUOUS
 62
     7
 10
16479.5
 20
19668.0192305276286788
 30
0.0
 11
15969.5
 21
19668.0192305276286788
 31
0.0
  0
LINE
  5
3D620
  8
1
  6
CONTINUOUS
 62
     7
 10
15969.5
 20
19598.0192305276286788
 30
0.0
 11
15969.5
 21
19509.0192305276286788
 31
0.0
  0
LINE
  5
3D621
  8
1
  6
CONTINUOUS
 62
     7
 10
15969.5
 20
19598.0192305276286788
 30
0.0
 11
15969.5
 21
19687.0192305276286788
 31
0.0
  0
LINE
  5
3D622
  8
1
  6
CONTINUOUS
 62
     7
 10
16479.5
 20
19598.0192305276286788
 30
0.0
 11
16479.5
 21
19511.0192305276214029
 31
0.0
  0
LINE
  5
3D623
  8
1
  6
CONTINUOUS
 62
     7
 10
16479.5
 20
19598.0192305276286788
 30
0.0
 11
16479.5
 21
19685.0192305276286788
 31
0.0
  0
LINE
  5
3D624
  8
1
  6
CONTINUOUS
 62
     7
 10
16579.5799999999908323
 20
19668.0192305276286788
 30
0.0
 11
16657.5
 21
19668.0192305276286788
 31
0.0
  0
LINE
  5
3D625
  8
1
  6
CONTINUOUS
 62
     7
 10
16579.5799999999908323
 20
19528.0192305276286788
 30
0.0
 11
16657.5
 21
19528.0192305276286788
 31
0.0
  0
LINE
  5
3D626
  8
1
  6
CONTINUOUS
 62
     7
 10
16579.5799999999908323
 20
19528.0192305276286788
 30
0.0
 11
16579.5799999999908323
 21
19598.0192305276286788
 31
0.0
  0
LINE
  5
3D627
  8
1
  6
CONTINUOUS
 62
     7
 10
16579.5799999999908323
 20
19668.0192305276286788
 30
0.0
 11
16579.5799999999908323
 21
19598.0192305276286788
 31
0.0
  0
ARC
  5
3D628
  8
1
  6
CONTINUOUS
 62
     7
 10
16519.5
 20
19598.0192305276286788
 30
0.0
 40
92.2499999999999858
 50
49.358999999974202
 51
109.4229999999787992
  0
ARC
  5
3D629
  8
1
  6
CONTINUOUS
 62
     7
 10
16519.5
 20
19598.0192305276286788
 30
0.0
 40
92.2499999999999858
 50
250.5770000000212008
 51
310.6410000000258265
  0
LINE
  5
3D62A
  8
1
  6
CONTINUOUS
 62
     7
 10
16657.5
 20
19723.0192305276286788
 30
0.0
 11
16657.5
 21
19598.0192305276286788
 31
0.0
  0
LINE
  5
3D62B
  8
1
  6
CONTINUOUS
 62
     7
 10
16677.5
 20
19723.0192305276286788
 30
0.0
 11
16677.5
 21
19598.0192305276286788
 31
0.0
  0
LINE
  5
3D62C
  8
1
  6
CONTINUOUS
 62
     7
 10
16657.5
 20
19473.0192305276286788
 30
0.0
 11
16657.5
 21
19598.0192305276286788
 31
0.0
  0
LINE
  5
3D62D
  8
1
  6
CONTINUOUS
 62
     7
 10
16677.5
 20
19473.0192305276286788
 30
0.0
 11
16677.5
 21
19598.0192305276286788
 31
0.0
  0
LINE
  5
3D62E
  8
1
  6
CONTINUOUS
 62
     7
 10
16677.5
 20
19473.0192305276286788
 30
0.0
 11
16657.5
 21
19473.0192305276286788
 31
0.0
  0
LINE
  5
3D62F
  8
1
  6
CONTINUOUS
 62
     7
 10
16677.5
 20
19723.0192305276286788
 30
0.0
 11
16657.5
 21
19723.0192305276286788
 31
0.0
  0
LINE
  5
3D630
  8
1
  6
CONTINUOUS
 62
     7
 10
14673.4999999999599822
 20
19518.6392305276094703
 30
0.0
 11
14661.5899999999692227
 21
19526.5192305276214029
 31
0.0
  0
LINE
  5
3D631
  8
1
  6
CONTINUOUS
 62
     7
 10
14657.4999999999708962
 20
19526.5192305276214029
 30
0.0
 11
14661.5899999999692227
 21
19526.5192305276214029
 31
0.0
  0
LINE
  5
3D636
  8
UL1
 10
13847.5
 20
20273.0192305276286788
 30
0.0
 11
17177.5
 21
20273.0192305276286788
 31
0.0
  0
LINE
  5
3D637
  8
UL1
 10
17177.5
 20
18923.0192305276286788
 30
0.0
 11
13847.5
 21
18923.0192305276286788
 31
0.0
  0
LINE
  5
3D638
  8
UL1
 10
14347.5
 20
19773.0192305276286788
 30
0.0
 11
14347.5
 21
19423.0192305276286788
 31
0.0
  0
LINE
  5
3D63A
  8
UL1
 10
16677.5
 20
18923.0192305276286788
 30
0.0
 11
16677.5
 21
20273.0192305276286788
 31
0.0
  0
LINE
  5
3D63B
  8
UL1
 10
13847.5
 20
20273.0192305276286788
 30
0.0
 11
13847.5
 21
18923.0192305276286788
 31
0.0
  0
LINE
  5
3D63C
  8
UL1
 10
17177.5
 20
20273.0192305276286788
 30
0.0
 11
17177.5
 21
18923.0192305276286788
 31
0.0
  0
LINE
  5
3D63D
  8
UL1
 10
14347.5
 20
19773.0192305276286788
 30
0.0
 11
16479.5
 21
20273.0192305276286788
 31
0.0
  0
LINE
  5
3D63E
  8
UL1
 10
14347.5
 20
19423.0192305276286788
 30
0.0
 11
16479.5
 21
18923.0192305276286788
 31
0.0
  0
LINE
  5
3D641
  8
UL1
 10
13847.5
 20
15509.0410367590902752
 30
0.0
 11
17177.5
 21
15509.0410367590902752
 31
0.0
  0
LINE
  5
3D642
  8
UL1
 10
17177.5
 20
15059.0410367590902752
 30
0.0
 11
13847.5
 21
15059.0410367590902752
 31
0.0
  0
LINE
  5
3D643
  8
UL1
 10
13847.5
 20
15509.0410367590902752
 30
0.0
 11
13847.5
 21
15059.0410367590902752
 31
0.0
  0
LINE
  5
3D644
  8
UL1
 10
17177.5
 20
15509.0410367590902752
 30
0.0
 11
17177.5
 21
15059.0410367590902752
 31
0.0
  0
TEXT
  5
3D6E0
  8
SCALE
 10
15185.8333333333303017
 20
18254.6225795925383864
 30
0.0
 40
200.0
  1
平面図
 72
     4
 11
15512.5
 21
18347.955912925870507
 31
0.0
  0
TEXT
  5
3D6E1
  8
SCALE
 10
15185.8333333333303017
 20
13983.9703838745008397
 30
0.0
 40
200.0
  1
断面図
 72
     4
 11
15512.5
 21
14083.9703838745008397
 31
0.0
  0
LINE
  5
3D6E2
  8
1
  6
CONTINUOUS
 62
     7
 10
26062.5
 20
15181.0410367590902752
 30
0.0
 11
24765.5
 21
15181.0410367590902752
 31
0.0
  0
LINE
  5
3D6E3
  8
1
  6
CONTINUOUS
 62
     7
 10
26062.5
 20
15410.0410367590902752
 30
0.0
 11
24765.5
 21
15410.0410367590902752
 31
0.0
  0
LINE
  5
3D6E4
  8
CENTER
 10
26855.5299999999988358
 20
15295.5410367590902752
 30
0.0
 11
24772.5
 21
15295.5410367590902752
 31
0.0
  0
ARC
  5
3D6E5
  8
1
  6
CONTINUOUS
 62
     7
 10
24562.5
 20
15271.5410367590902752
 30
0.0
 40
106.5
 50
230.7729999999772019
 51
288.4939999999747897
  0
ARC
  5
3D6E6
  8
1
  6
CONTINUOUS
 62
     7
 10
24562.5
 20
15271.5410367590902752
 30
0.0
 40
106.5
 50
71.5060000000251819
 51
129.226899999992213
  0
LINE
  5
3D6E7
  8
CENTER
 10
24722.5
 20
15271.5410367590902752
 30
0.0
 11
24327.7299999999995634
 21
15271.5410367590902752
 31
0.0
  0
LINE
  5
3D6E8
  8
1
  6
CONTINUOUS
 62
     7
 10
24384.5
 20
15411.5410367590902752
 30
0.0
 11
24384.5
 21
15271.5410367590902752
 31
0.0
  0
LINE
  5
3D6E9
  8
1
  6
CONTINUOUS
 62
     7
 10
24362.5
 20
15411.5410367590902752
 30
0.0
 11
24362.5
 21
15271.5410367590902752
 31
0.0
  0
LINE
  5
3D6EA
  8
1
  6
CONTINUOUS
 62
     7
 10
24384.5
 20
15131.5410367590902752
 30
0.0
 11
24384.5
 21
15271.5410367590902752
 31
0.0
  0
LINE
  5
3D6EB
  8
1
  6
CONTINUOUS
 62
     7
 10
24362.5
 20
15131.5410367590902752
 30
0.0
 11
24362.5
 21
15271.5410367590902752
 31
0.0
  0
LINE
  5
3D6EC
  8
1
  6
CONTINUOUS
 62
     7
 10
24362.5
 20
15131.5410367590902752
 30
0.0
 11
24384.5
 21
15131.5410367590902752
 31
0.0
  0
LINE
  5
3D6ED
  8
1
  6
CONTINUOUS
 62
     7
 10
24362.5
 20
15411.5410367590902752
 30
0.0
 11
24384.5
 21
15411.5410367590902752
 31
0.0
  0
LINE
  5
3D6EE
  8
1
  6
CONTINUOUS
 62
     7
 10
24495.1500000000014552
 20
15354.0410367590902752
 30
0.0
 11
24495.1500000000014552
 21
15271.5410367590902752
 31
0.0
  0
LINE
  5
3D6EF
  8
1
  6
CONTINUOUS
 62
     7
 10
24495.1500000000014552
 20
15189.0410367590902752
 30
0.0
 11
24495.1500000000014552
 21
15271.5410367590902752
 31
0.0
  0
LINE
  5
3D6F0
  8
1
  6
CONTINUOUS
 62
     7
 10
24495.1500000000014552
 20
15189.0410367590902752
 30
0.0
 11
24384.5
 21
15189.0410367590902752
 31
0.0
  0
LINE
  5
3D6F1
  8
1
  6
CONTINUOUS
 62
     7
 10
24495.1500000000014552
 20
15354.0410367590902752
 30
0.0
 11
24384.5
 21
15354.0410367590902752
 31
0.0
  0
LINE
  5
3D6F2
  8
1
  6
CONTINUOUS
 62
     7
 10
24642.5
 20
15354.0410367590902752
 30
0.0
 11
24602.5
 21
15354.0410367590902752
 31
0.0
  0
LINE
  5
3D6F3
  8
1
  6
CONTINUOUS
 62
     7
 10
24642.5
 20
15189.0410367590902752
 30
0.0
 11
24602.5
 21
15189.0410367590902752
 31
0.0
  0
LINE
  5
3D6F4
  8
1
  6
CONTINUOUS
 62
     7
 10
24729.5
 20
15360.5410367590902752
 30
0.0
 11
24729.5
 21
15274.9010367590908572
 31
0.0
  0
LINE
  5
3D6F5
  8
1
  6
CONTINUOUS
 62
     7
 10
24642.5
 20
15360.5410367590902752
 30
0.0
 11
24642.5
 21
15271.5410367590902752
 31
0.0
  0
LINE
  5
3D6F6
  8
1
  6
CONTINUOUS
 62
     7
 10
24765.5
 20
15410.0410367590902752
 30
0.0
 11
24765.5
 21
15292.1810367590896931
 31
0.0
  0
LINE
  5
3D6F7
  8
1
  6
CONTINUOUS
 62
     7
 10
24729.5
 20
15182.5410367590902752
 30
0.0
 11
24642.5
 21
15182.5410367590902752
 31
0.0
  0
LINE
  5
3D6F8
  8
CENTER
 10
24772.5
 20
15295.5410367590902752
 30
0.0
 11
24722.5
 21
15271.5410367590902752
 31
0.0
  0
LINE
  5
3D6F9
  8
1
  6
CONTINUOUS
 62
     7
 10
24729.5
 20
15182.5410367590902752
 30
0.0
 11
24729.5
 21
15274.9010367590908572
 31
0.0
  0
LINE
  5
3D6FA
  8
1
  6
CONTINUOUS
 62
     7
 10
24765.5
 20
15181.0410367590902752
 30
0.0
 11
24765.5
 21
15292.1810367590896931
 31
0.0
  0
LINE
  5
3D6FB
  8
1
  6
CONTINUOUS
 62
     7
 10
24765.5
 20
15187.0410367590902752
 30
0.0
 11
24729.5
 21
15187.0410367590902752
 31
0.0
  0
LINE
  5
3D6FC
  8
1
  6
CONTINUOUS
 62
     7
 10
24642.5
 20
15182.5410367590902752
 30
0.0
 11
24642.5
 21
15271.5410367590902752
 31
0.0
  0
LINE
  5
3D6FD
  8
1
  6
CONTINUOUS
 62
     7
 10
24729.5
 20
15360.5410367590902752
 30
0.0
 11
24642.5
 21
15360.5410367590902752
 31
0.0
  0
LINE
  5
3D6FE
  8
1
  6
CONTINUOUS
 62
     7
 10
24765.5
 20
15398.7610367590896203
 30
0.0
 11
24743.25
 21
15356.0410367590902752
 31
0.0
  0
LINE
  5
3D6FF
  8
1
  6
CONTINUOUS
 62
     7
 10
24743.25
 20
15356.0410367590902752
 30
0.0
 11
24729.5
 21
15356.0410367590902752
 31
0.0
  0
LINE
  5
3D701
  8
1
  6
CONTINUOUS
 62
     7
 10
24602.5
 20
15271.5410367590902752
 30
0.0
 11
24602.5
 21
15372.5410367590902752
 31
0.0
  0
LINE
  5
3D702
  8
1
  6
CONTINUOUS
 62
     7
 10
24602.5
 20
15271.5410367590902752
 30
0.0
 11
24602.5
 21
15170.5410367590902752
 31
0.0
  0
LINE
  5
3D703
  8
1
  6
CONTINUOUS
 62
     7
 10
24596.2799999999988358
 20
15170.5410367590902752
 30
0.0
 11
24602.5
 21
15170.5410367590902752
 31
0.0
  0
LINE
  5
3D704
  8
1
  6
CONTINUOUS
 62
     7
 10
24596.2799999999988358
 20
15372.5410367590902752
 30
0.0
 11
24602.5
 21
15372.5410367590902752
 31
0.0
  0
ARC
  5
3D705
  8
1
  6
CONTINUOUS
 62
     7
 10
26612.5
 20
15295.5410367590902752
 30
0.0
 40
106.5
 50
50.7729999999772588
 51
108.4939999999748039
  0
ARC
  5
3D706
  8
1
  6
CONTINUOUS
 62
     7
 10
26612.5
 20
15295.5410367590902752
 30
0.0
 40
106.5
 50
251.5060000000252103
 51
309.2270000000228265
  0
LINE
  5
3D707
  8
1
  6
CONTINUOUS
 62
     7
 10
26062.5
 20
15213.0410367590902752
 30
0.0
 11
26572.5
 21
15213.0410367590902752
 31
0.0
  0
LINE
  5
3D708
  8
1
  6
CONTINUOUS
 62
     7
 10
26062.5
 20
15378.0410367590902752
 30
0.0
 11
26572.5
 21
15378.0410367590902752
 31
0.0
  0
LINE
  5
3D709
  8
1
  6
CONTINUOUS
 62
     7
 10
26062.5
 20
15410.0410367590902752
 30
0.0
 11
26062.5
 21
15295.5410367590902752
 31
0.0
  0
LINE
  5
3D70A
  8
1
  6
CONTINUOUS
 62
     7
 10
26062.5
 20
15181.0410367590902752
 30
0.0
 11
26062.5
 21
15295.5410367590902752
 31
0.0
  0
LINE
  5
3D70B
  8
1
  6
CONTINUOUS
 62
     7
 10
26572.5
 20
15295.5410367590902752
 30
0.0
 11
26572.5
 21
15396.5410367590902752
 31
0.0
  0
LINE
  5
3D70C
  8
1
  6
CONTINUOUS
 62
     7
 10
26572.5
 20
15295.5410367590902752
 30
0.0
 11
26572.5
 21
15194.5410367590902752
 31
0.0
  0
LINE
  5
3D70D
  8
1
  6
CONTINUOUS
 62
     7
 10
26578.7200000000011642
 20
15194.5410367590902752
 30
0.0
 11
26572.5
 21
15194.5410367590902752
 31
0.0
  0
LINE
  5
3D70E
  8
1
  6
CONTINUOUS
 62
     7
 10
26578.7200000000011642
 20
15396.5410367590902752
 30
0.0
 11
26572.5
 21
15396.5410367590902752
 31
0.0
  0
LINE
  5
3D710
  8
1
  6
CONTINUOUS
 62
     7
 10
26790.5
 20
15435.5410367590902752
 30
0.0
 11
26790.5
 21
15295.5410367590902752
 31
0.0
  0
LINE
  5
3D711
  8
1
  6
CONTINUOUS
 62
     7
 10
26812.5
 20
15435.5410367590902752
 30
0.0
 11
26812.5
 21
15295.5410367590902752
 31
0.0
  0
LINE
  5
3D712
  8
1
  6
CONTINUOUS
 62
     7
 10
26679.8499999999985448
 20
15378.0410367590902752
 30
0.0
 11
26679.8499999999985448
 21
15295.5410367590902752
 31
0.0
  0
LINE
  5
3D713
  8
1
  6
CONTINUOUS
 62
     7
 10
26679.8499999999985448
 20
15213.0410367590902752
 30
0.0
 11
26790.5
 21
15213.0410367590902752
 31
0.0
  0
LINE
  5
3D714
  8
1
  6
CONTINUOUS
 62
     7
 10
26790.5
 20
15155.5410367590902752
 30
0.0
 11
26790.5
 21
15295.5410367590902752
 31
0.0
  0
LINE
  5
3D715
  8
1
  6
CONTINUOUS
 62
     7
 10
26812.5
 20
15155.5410367590902752
 30
0.0
 11
26812.5
 21
15295.5410367590902752
 31
0.0
  0
LINE
  5
3D716
  8
1
  6
CONTINUOUS
 62
     7
 10
26812.5
 20
15155.5410367590902752
 30
0.0
 11
26790.5
 21
15155.5410367590902752
 31
0.0
  0
LINE
  5
3D717
  8
1
  6
CONTINUOUS
 62
     7
 10
26679.8499999999985448
 20
15213.0410367590902752
 30
0.0
 11
26679.8499999999985448
 21
15295.5410367590902752
 31
0.0
  0
LINE
  5
3D718
  8
1
  6
CONTINUOUS
 62
     7
 10
26679.8499999999985448
 20
15378.0410367590902752
 30
0.0
 11
26790.5
 21
15378.0410367590902752
 31
0.0
  0
LINE
  5
3D719
  8
1
  6
CONTINUOUS
 62
     7
 10
26812.5
 20
15435.5410367590902752
 30
0.0
 11
26790.5
 21
15435.5410367590902752
 31
0.0
  0
LINE
  5
3D71A
  8
CENTER
 10
26855.5299999999988358
 20
19598.0192305276286788
 30
0.0
 11
24772.5
 21
19598.0192305276286788
 31
0.0
  0
LINE
  5
3D71B
  8
1
  6
CONTINUOUS
 62
     7
 10
26062.5
 20
19515.5192305276286788
 30
0.0
 11
26572.5
 21
19515.5192305276286788
 31
0.0
  0
LINE
  5
3D71C
  8
1
  6
CONTINUOUS
 62
     7
 10
26062.5
 20
19680.5192305276286788
 30
0.0
 11
26572.5
 21
19680.5192305276286788
 31
0.0
  0
LINE
  5
3D71D
  8
CENTER
 10
24722.5
 20
19598.0192305276286788
 30
0.0
 11
24327.7299999999995634
 21
19598.0192305276286788
 31
0.0
  0
LINE
  5
3D71E
  8
1
  6
CONTINUOUS
 62
     7
 10
24642.5
 20
19680.5192305276286788
 30
0.0
 11
24602.5
 21
19680.5192305276286788
 31
0.0
  0
LINE
  5
3D71F
  8
1
  6
CONTINUOUS
 62
     7
 10
24642.5
 20
19515.5192305276286788
 30
0.0
 11
24602.5
 21
19515.5192305276286788
 31
0.0
  0
ARC
  5
3D720
  8
1
  6
CONTINUOUS
 62
     7
 10
24562.5
 20
19598.0192305276286788
 30
0.0
 40
106.5
 50
230.7729999999772019
 51
288.4939999999747897
  0
ARC
  5
3D721
  8
1
  6
CONTINUOUS
 62
     7
 10
24562.5
 20
19598.0192305276286788
 30
0.0
 40
106.5
 50
71.5060000000251819
 51
129.226899999992213
  0
LINE
  5
3D722
  8
1
  6
CONTINUOUS
 62
     7
 10
24384.5
 20
19738.0192305276286788
 30
0.0
 11
24384.5
 21
19598.0192305276286788
 31
0.0
  0
LINE
  5
3D723
  8
1
  6
CONTINUOUS
 62
     7
 10
24362.5
 20
19738.0192305276286788
 30
0.0
 11
24362.5
 21
19598.0192305276286788
 31
0.0
  0
LINE
  5
3D724
  8
1
  6
CONTINUOUS
 62
     7
 10
24384.5
 20
19458.0192305276286788
 30
0.0
 11
24384.5
 21
19598.0192305276286788
 31
0.0
  0
LINE
  5
3D725
  8
1
  6
CONTINUOUS
 62
     7
 10
24362.5
 20
19458.0192305276286788
 30
0.0
 11
24362.5
 21
19598.0192305276286788
 31
0.0
  0
LINE
  5
3D726
  8
1
  6
CONTINUOUS
 62
     7
 10
24362.5
 20
19458.0192305276286788
 30
0.0
 11
24384.5
 21
19458.0192305276286788
 31
0.0
  0
LINE
  5
3D727
  8
1
  6
CONTINUOUS
 62
     7
 10
24362.5
 20
19738.0192305276286788
 30
0.0
 11
24384.5
 21
19738.0192305276286788
 31
0.0
  0
LINE
  5
3D728
  8
1
  6
CONTINUOUS
 62
     7
 10
24495.1500000000014552
 20
19680.5192305276286788
 30
0.0
 11
24495.1500000000014552
 21
19598.0192305276286788
 31
0.0
  0
LINE
  5
3D729
  8
1
  6
CONTINUOUS
 62
     7
 10
24495.1500000000014552
 20
19515.5192305276286788
 30
0.0
 11
24495.1500000000014552
 21
19598.0192305276286788
 31
0.0
  0
LINE
  5
3D72A
  8
1
  6
CONTINUOUS
 62
     7
 10
24495.1500000000014552
 20
19515.5192305276286788
 30
0.0
 11
24384.5
 21
19515.5192305276286788
 31
0.0
  0
LINE
  5
3D72B
  8
1
  6
CONTINUOUS
 62
     7
 10
24495.1500000000014552
 20
19680.5192305276286788
 30
0.0
 11
24384.5
 21
19680.5192305276286788
 31
0.0
  0
LINE
  5
3D72D
  8
1
  6
CONTINUOUS
 62
     7
 10
24602.5
 20
19598.0192305276286788
 30
0.0
 11
24602.5
 21
19699.0192305276286788
 31
0.0
  0
LINE
  5
3D72E
  8
1
  6
CONTINUOUS
 62
     7
 10
24602.5
 20
19598.0192305276286788
 30
0.0
 11
24602.5
 21
19497.0192305276286788
 31
0.0
  0
LINE
  5
3D72F
  8
1
  6
CONTINUOUS
 62
     7
 10
24596.2799999999988358
 20
19497.0192305276286788
 30
0.0
 11
24602.5
 21
19497.0192305276286788
 31
0.0
  0
LINE
  5
3D730
  8
1
  6
CONTINUOUS
 62
     7
 10
24596.2799999999988358
 20
19699.0192305276286788
 30
0.0
 11
24602.5
 21
19699.0192305276286788
 31
0.0
  0
LINE
  5
3D731
  8
1
  6
CONTINUOUS
 62
     7
 10
26062.5
 20
19483.5192305276286788
 30
0.0
 11
24765.5
 21
19483.5192305276286788
 31
0.0
  0
LINE
  5
3D732
  8
1
  6
CONTINUOUS
 62
     7
 10
26062.5
 20
19712.5192305276286788
 30
0.0
 11
24765.5
 21
19712.5192305276286788
 31
0.0
  0
LINE
  5
3D733
  8
1
  6
CONTINUOUS
 62
     7
 10
24729.5
 20
19687.0192305276286788
 30
0.0
 11
24729.5
 21
19601.3792305276292609
 31
0.0
  0
LINE
  5
3D734
  8
1
  6
CONTINUOUS
 62
     7
 10
24642.5
 20
19687.0192305276286788
 30
0.0
 11
24642.5
 21
19598.0192305276286788
 31
0.0
  0
LINE
  5
3D735
  8
1
  6
CONTINUOUS
 62
     7
 10
24765.5
 20
19712.5192305276286788
 30
0.0
 11
24765.5
 21
19594.6592305276317347
 31
0.0
  0
LINE
  5
3D736
  8
1
  6
CONTINUOUS
 62
     7
 10
24729.5
 20
19509.0192305276286788
 30
0.0
 11
24642.5
 21
19509.0192305276286788
 31
0.0
  0
LINE
  5
3D737
  8
CENTER
 10
24772.5
 20
19598.0192305276286788
 30
0.0
 11
24722.5
 21
19598.0192305276286788
 31
0.0
  0
LINE
  5
3D738
  8
1
  6
CONTINUOUS
 62
     7
 10
24729.5
 20
19509.0192305276286788
 30
0.0
 11
24729.5
 21
19601.3792305276292609
 31
0.0
  0
LINE
  5
3D739
  8
1
  6
CONTINUOUS
 62
     7
 10
24765.5
 20
19483.5192305276286788
 30
0.0
 11
24765.5
 21
19594.6592305276317347
 31
0.0
  0
LINE
  5
3D73B
  8
1
  6
CONTINUOUS
 62
     7
 10
24642.5
 20
19509.0192305276286788
 30
0.0
 11
24642.5
 21
19598.0192305276286788
 31
0.0
  0
LINE
  5
3D73C
  8
1
  6
CONTINUOUS
 62
     7
 10
24729.5
 20
19687.0192305276286788
 30
0.0
 11
24642.5
 21
19687.0192305276286788
 31
0.0
  0
LINE
  5
3D73D
  8
1
  6
CONTINUOUS
 62
     7
 10
24765.5
 20
19701.239230527629843
 30
0.0
 11
24743.25
 21
19682.5192305276286788
 31
0.0
  0
LINE
  5
3D73E
  8
1
  6
CONTINUOUS
 62
     7
 10
24743.25
 20
19682.5192305276286788
 30
0.0
 11
24729.5
 21
19682.5192305276286788
 31
0.0
  0
LINE
  5
3D73F
  8
1
  6
CONTINUOUS
 62
     7
 10
26062.5
 20
19712.5192305276286788
 30
0.0
 11
26062.5
 21
19598.0192305276286788
 31
0.0
  0
LINE
  5
3D740
  8
1
  6
CONTINUOUS
 62
     7
 10
26062.5
 20
19483.5192305276286788
 30
0.0
 11
26062.5
 21
19598.0192305276286788
 31
0.0
  0
LINE
  5
3D741
  8
1
  6
CONTINUOUS
 62
     7
 10
26790.5
 20
19738.0192305276286788
 30
0.0
 11
26790.5
 21
19598.0192305276286788
 31
0.0
  0
LINE
  5
3D742
  8
1
  6
CONTINUOUS
 62
     7
 10
26812.5
 20
19738.0192305276286788
 30
0.0
 11
26812.5
 21
19598.0192305276286788
 31
0.0
  0
LINE
  5
3D743
  8
1
  6
CONTINUOUS
 62
     7
 10
26679.8499999999985448
 20
19515.5192305276286788
 30
0.0
 11
26790.5
 21
19515.5192305276286788
 31
0.0
  0
LINE
  5
3D744
  8
1
  6
CONTINUOUS
 62
     7
 10
26679.8499999999985448
 20
19680.5192305276286788
 30
0.0
 11
26790.5
 21
19680.5192305276286788
 31
0.0
  0
ARC
  5
3D745
  8
1
  6
CONTINUOUS
 62
     7
 10
26612.5
 20
19598.0192305276286788
 30
0.0
 40
106.5
 50
50.7729999999772588
 51
108.4939999999748039
  0
ARC
  5
3D746
  8
1
  6
CONTINUOUS
 62
     7
 10
26612.5
 20
19598.0192305276286788
 30
0.0
 40
106.5
 50
251.5060000000252103
 51
309.2270000000228265
  0
LINE
  5
3D747
  8
1
  6
CONTINUOUS
 62
     7
 10
26572.5
 20
19598.0192305276286788
 30
0.0
 11
26572.5
 21
19699.0192305276286788
 31
0.0
  0
LINE
  5
3D748
  8
1
  6
CONTINUOUS
 62
     7
 10
26572.5
 20
19598.0192305276286788
 30
0.0
 11
26572.5
 21
19497.0192305276286788
 31
0.0
  0
LINE
  5
3D749
  8
1
  6
CONTINUOUS
 62
     7
 10
26578.7200000000011642
 20
19497.0192305276286788
 30
0.0
 11
26572.5
 21
19497.0192305276286788
 31
0.0
  0
LINE
  5
3D74A
  8
1
  6
CONTINUOUS
 62
     7
 10
26578.7200000000011642
 20
19699.0192305276286788
 30
0.0
 11
26572.5
 21
19699.0192305276286788
 31
0.0
  0
LINE
  5
3D74C
  8
1
  6
CONTINUOUS
 62
     7
 10
26679.8499999999985448
 20
19680.5192305276286788
 30
0.0
 11
26679.8499999999985448
 21
19598.0192305276286788
 31
0.0
  0
LINE
  5
3D74D
  8
1
  6
CONTINUOUS
 62
     7
 10
26679.8499999999985448
 20
19515.5192305276286788
 30
0.0
 11
26679.8499999999985448
 21
19598.0192305276286788
 31
0.0
  0
LINE
  5
3D74E
  8
1
  6
CONTINUOUS
 62
     7
 10
26790.5
 20
19458.0192305276286788
 30
0.0
 11
26790.5
 21
19598.0192305276286788
 31
0.0
  0
LINE
  5
3D74F
  8
1
  6
CONTINUOUS
 62
     7
 10
26812.5
 20
19458.0192305276286788
 30
0.0
 11
26812.5
 21
19598.0192305276286788
 31
0.0
  0
LINE
  5
3D750
  8
1
  6
CONTINUOUS
 62
     7
 10
26812.5
 20
19458.0192305276286788
 30
0.0
 11
26790.5
 21
19458.0192305276286788
 31
0.0
  0
LINE
  5
3D751
  8
1
  6
CONTINUOUS
 62
     7
 10
26812.5
 20
19738.0192305276286788
 30
0.0
 11
26790.5
 21
19738.0192305276286788
 31
0.0
  0
LINE
  5
3D754
  8
1
  6
CONTINUOUS
 62
     7
 10
24765.5
 20
19494.7992305276311527
 30
0.0
 11
24743.25
 21
19513.5192305276286788
 31
0.0
  0
LINE
  5
3D755
  8
1
  6
CONTINUOUS
 62
     7
 10
24743.25
 20
19513.5192305276286788
 30
0.0
 11
24729.5
 21
19513.5192305276286788
 31
0.0
  0
LINE
  5
3D75C
  8
UL1
 10
23862.5
 20
20288.0192305276286788
 30
0.0
 11
27312.5
 21
20288.0192305276286788
 31
0.0
  0
LINE
  5
3D75D
  8
UL1
 10
23862.5
 20
18908.0192305276286788
 30
0.0
 11
27312.5
 21
18908.0192305276286788
 31
0.0
  0
LINE
  5
3D75E
  8
UL1
 10
23862.5
 20
15511.5410367590902752
 30
0.0
 11
27312.5
 21
15511.5410367590902752
 31
0.0
  0
LINE
  5
3D75F
  8
UL1
 10
23862.5
 20
15031.5410367590902752
 30
0.0
 11
27312.5
 21
15031.5410367590902752
 31
0.0
  0
LINE
  5
3D762
  8
UL1
 10
26812.5
 20
18908.0192305276286788
 30
0.0
 11
26812.5
 21
20288.0192305276286788
 31
0.0
  0
LINE
  5
3D763
  8
UL1
 10
24362.5
 20
19788.0192305276286788
 30
0.0
 11
26572.5
 21
20288.0192305276286788
 31
0.0
  0
LINE
  5
3D764
  8
UL1
 10
24362.5
 20
19408.0192305276286788
 30
0.0
 11
26572.5
 21
18908.0192305276286788
 31
0.0
  0
LINE
  5
3D765
  8
UL1
 10
23862.5
 20
20288.0192305276286788
 30
0.0
 11
23862.5
 21
18908.0192305276286788
 31
0.0
  0
LINE
  5
3D766
  8
UL1
 10
27312.5
 20
18908.0192305276286788
 30
0.0
 11
27312.5
 21
20288.0192305276286788
 31
0.0
  0
LINE
  5
3D767
  8
UL1
 10
24362.5
 20
19788.0192305276286788
 30
0.0
 11
24362.5
 21
19408.0192305276286788
 31
0.0
  0
LINE
  5
3D768
  8
UL1
 10
23862.5
 20
15511.5410367590902752
 30
0.0
 11
23862.5
 21
15031.5410367590902752
 31
0.0
  0
LINE
  5
3D769
  8
UL1
 10
27312.5
 20
15031.5410367590902752
 30
0.0
 11
27312.5
 21
15511.5410367590902752
 31
0.0
  0
TEXT
  5
3D807
  8
SCALE
 10
25260.8333333333284827
 20
18254.6225795925383864
 30
0.0
 40
200.0
  1
平面図
 72
     4
 11
25587.5
 21
18347.955912925870507
 31
0.0
  0
TEXT
  5
3D808
  8
SCALE
 10
25260.8333333333284827
 20
13983.9703838745008397
 30
0.0
 40
200.0
  1
断面図
 72
     4
 11
25587.5
 21
14083.9703838745008397
 31
0.0
  0
LINE
  5
3DA08
  8
1
  6
CONTINUOUS
 62
     7
 10
36162.5
 20
15154.2410367590891838
 30
0.0
 11
34865.5
 21
15154.2410367590891838
 31
0.0
  0
LINE
  5
3DA09
  8
1
  6
CONTINUOUS
 62
     7
 10
36162.5
 20
15436.8410367590895476
 30
0.0
 11
34865.5
 21
15436.8410367590895476
 31
0.0
  0
LINE
  5
3DA0A
  8
CENTER
 10
37015.5299999999988358
 20
15295.5410367590902752
 30
0.0
 11
34872.5
 21
15295.5410367590902752
 31
0.0
  0
LINE
  5
3DA0B
  8
CENTER
 10
34812.5
 20
15271.0410367590902752
 30
0.0
 11
34329.5400000000008731
 21
15271.0410367590902752
 31
0.0
  0
LINE
  5
3DA0C
  8
1
  6
CONTINUOUS
 62
     7
 10
34374.5
 20
15163.0410367590902752
 30
0.0
 11
34512.0
 21
15163.0410367590902752
 31
0.0
  0
LINE
  5
3DA0D
  8
1
  6
CONTINUOUS
 62
     7
 10
34374.5
 20
15379.0410367590902752
 30
0.0
 11
34512.0
 21
15379.0410367590902752
 31
0.0
  0
LINE
  5
3DA0E
  8
1
  6
CONTINUOUS
 62
     7
 10
34374.5
 20
15271.0410367590902752
 30
0.0
 11
34374.5
 21
15106.0410367590902752
 31
0.0
  0
LINE
  5
3DA0F
  8
1
  6
CONTINUOUS
 62
     7
 10
34352.5
 20
15271.0410367590902752
 30
0.0
 11
34352.5
 21
15106.0410367590902752
 31
0.0
  0
LINE
  5
3DA10
  8
1
  6
CONTINUOUS
 62
     7
 10
34352.5
 20
15106.0410367590902752
 30
0.0
 11
34374.5
 21
15106.0410367590902752
 31
0.0
  0
LINE
  5
3DA11
  8
1
  6
CONTINUOUS
 62
     7
 10
34374.5
 20
15271.0410367590902752
 30
0.0
 11
34374.5
 21
15436.0410367590902752
 31
0.0
  0
LINE
  5
3DA12
  8
1
  6
CONTINUOUS
 62
     7
 10
34352.5
 20
15271.0410367590902752
 30
0.0
 11
34352.5
 21
15436.0410367590902752
 31
0.0
  0
LINE
  5
3DA13
  8
1
  6
CONTINUOUS
 62
     7
 10
34352.5
 20
15436.0410367590902752
 30
0.0
 11
34374.5
 21
15436.0410367590902752
 31
0.0
  0
ARC
  5
3DA14
  8
1
  6
CONTINUOUS
 62
     7
 10
34597.5
 20
15271.0410367590902752
 30
0.0
 40
137.75
 50
71.3279999999763419
 51
128.3690000000115106
  0
ARC
  5
3DA15
  8
1
  6
CONTINUOUS
 62
     7
 10
34597.5
 20
15271.0410367590902752
 30
0.0
 40
137.75
 50
231.6309999999884894
 51
288.6720000000236723
  0
LINE
  5
3DA16
  8
1
  6
CONTINUOUS
 62
     7
 10
34808.2200000000011642
 20
15162.0410367590902752
 30
0.0
 11
34808.2200000000011642
 21
15271.0410367590902752
 31
0.0
  0
LINE
  5
3DA17
  8
1
  6
CONTINUOUS
 62
     7
 10
34783.319999999999709
 20
15155.6910367590899114
 30
0.0
 11
34783.319999999999709
 21
15271.0410367590902752
 31
0.0
  0
LINE
  5
3DA18
  8
1
  6
CONTINUOUS
 62
     7
 10
34702.5
 20
15155.6910367590899114
 30
0.0
 11
34702.5
 21
15271.0410367590902752
 31
0.0
  0
LINE
  5
3DA19
  8
1
  6
CONTINUOUS
 62
     7
 10
34652.5
 20
15140.5410367590902752
 30
0.0
 11
34652.5
 21
15271.0410367590902752
 31
0.0
  0
LINE
  5
3DA1A
  8
1
  6
CONTINUOUS
 62
     7
 10
34783.319999999999709
 20
15155.6910367590899114
 30
0.0
 11
34702.5
 21
15155.6910367590899114
 31
0.0
  0
LINE
  5
3DA1B
  8
1
  6
CONTINUOUS
 62
     7
 10
34808.2200000000011642
 20
15162.0410367590902752
 30
0.0
 11
34783.319999999999709
 21
15155.6910367590899114
 31
0.0
  0
LINE
  5
3DA1C
  8
1
  6
CONTINUOUS
 62
     7
 10
34702.5
 20
15163.0410367590902752
 30
0.0
 11
34652.5
 21
15163.0410367590902752
 31
0.0
  0
LINE
  5
3DA1D
  8
1
  6
CONTINUOUS
 62
     7
 10
34641.6000000000130967
 20
15140.5410367590902752
 30
0.0
 11
34652.5
 21
15140.5410367590902752
 31
0.0
  0
LINE
  5
3DA1E
  8
1
  6
CONTINUOUS
 62
     7
 10
34783.319999999999709
 20
15386.391036759090639
 30
0.0
 11
34702.5
 21
15386.391036759090639
 31
0.0
  0
LINE
  5
3DA1F
  8
1
  6
CONTINUOUS
 62
     7
 10
34808.2200000000011642
 20
15380.0410367590902752
 30
0.0
 11
34808.2200000000011642
 21
15271.0410367590902752
 31
0.0
  0
LINE
  5
3DA20
  8
1
  6
CONTINUOUS
 62
     7
 10
34783.319999999999709
 20
15386.391036759090639
 30
0.0
 11
34783.319999999999709
 21
15271.0410367590902752
 31
0.0
  0
LINE
  5
3DA21
  8
1
  6
CONTINUOUS
 62
     7
 10
34808.2200000000011642
 20
15380.0410367590902752
 30
0.0
 11
34783.319999999999709
 21
15386.391036759090639
 31
0.0
  0
LINE
  5
3DA22
  8
1
  6
CONTINUOUS
 62
     7
 10
34824.069999999999709
 20
15380.0410367590902752
 30
0.0
 11
34808.2200000000011642
 21
15380.0410367590902752
 31
0.0
  0
LINE
  5
3DA23
  8
1
  6
CONTINUOUS
 62
     7
 10
34702.5
 20
15386.391036759090639
 30
0.0
 11
34702.5
 21
15271.0410367590902752
 31
0.0
  0
LINE
  5
3DA24
  8
1
  6
CONTINUOUS
 62
     7
 10
34652.5
 20
15401.5410367590902752
 30
0.0
 11
34652.5
 21
15271.0410367590902752
 31
0.0
  0
LINE
  5
3DA25
  8
1
  6
CONTINUOUS
 62
     7
 10
34702.5
 20
15379.0410367590902752
 30
0.0
 11
34652.5
 21
15379.0410367590902752
 31
0.0
  0
LINE
  5
3DA26
  8
1
  6
CONTINUOUS
 62
     7
 10
34641.6000000000130967
 20
15401.5410367590902752
 30
0.0
 11
34652.5
 21
15401.5410367590902752
 31
0.0
  0
LINE
  5
3DA28
  8
1
  6
CONTINUOUS
 62
     7
 10
34512.0
 20
15163.0410367590902752
 30
0.0
 11
34512.0
 21
15271.0410367590902752
 31
0.0
  0
LINE
  5
3DA29
  8
1
  6
CONTINUOUS
 62
     7
 10
34512.0
 20
15379.0410367590902752
 30
0.0
 11
34512.0
 21
15271.0410367590902752
 31
0.0
  0
LINE
  5
3DA2A
  8
1
  6
CONTINUOUS
 62
     7
 10
34865.5
 20
15154.2410367590891838
 30
0.0
 11
34865.5
 21
15292.6820367590898968
 31
0.0
  0
LINE
  5
3DA2B
  8
1
  6
CONTINUOUS
 62
     7
 10
34865.5
 20
15436.8410367590895476
 30
0.0
 11
34865.5
 21
15292.6820367590898968
 31
0.0
  0
LINE
  5
3DA2C
  8
1
  6
CONTINUOUS
 62
     7
 10
34865.5
 20
15162.0410367590902752
 30
0.0
 11
34808.2200000000011642
 21
15162.0410367590902752
 31
0.0
  0
LINE
  5
3DA2D
  8
CENTER
 10
34872.5
 20
15295.5410367590902752
 30
0.0
 11
34812.5
 21
15271.0410367590902752
 31
0.0
  0
LINE
  5
3DA2E
  8
1
  6
CONTINUOUS
 62
     7
 10
34865.5
 20
15425.1500367590906535
 30
0.0
 11
34824.069999999999709
 21
15380.0410367590902752
 31
0.0
  0
LINE
  5
3DA2F
  8
1
  6
CONTINUOUS
 62
     7
 10
36672.5
 20
15187.5410367590902752
 30
0.0
 11
36162.5
 21
15187.5410367590902752
 31
0.0
  0
LINE
  5
3DA30
  8
1
  6
CONTINUOUS
 62
     7
 10
36672.5
 20
15403.5410367590902752
 30
0.0
 11
36162.5
 21
15403.5410367590902752
 31
0.0
  0
LINE
  5
3DA31
  8
1
  6
CONTINUOUS
 62
     7
 10
36162.5
 20
15154.2410367590891838
 30
0.0
 11
36162.5
 21
15295.5410367590902752
 31
0.0
  0
LINE
  5
3DA32
  8
1
  6
CONTINUOUS
 62
     7
 10
36162.5
 20
15436.8410367590895476
 30
0.0
 11
36162.5
 21
15295.5410367590902752
 31
0.0
  0
LINE
  5
3DA33
  8
1
  6
CONTINUOUS
 62
     7
 10
36950.5
 20
15403.5410367590902752
 30
0.0
 11
36813.0100000000020373
 21
15403.5410367590902752
 31
0.0
  0
LINE
  5
3DA34
  8
1
  6
CONTINUOUS
 62
     7
 10
36950.5
 20
15187.5410367590902752
 30
0.0
 11
36813.0100000000020373
 21
15187.5410367590902752
 31
0.0
  0
LINE
  5
3DA35
  8
1
  6
CONTINUOUS
 62
     7
 10
36950.5
 20
15295.5410367590902752
 30
0.0
 11
36950.5
 21
15130.5410367590902752
 31
0.0
  0
LINE
  5
3DA36
  8
1
  6
CONTINUOUS
 62
     7
 10
36972.5
 20
15295.5410367590902752
 30
0.0
 11
36972.5
 21
15130.5410367590902752
 31
0.0
  0
LINE
  5
3DA37
  8
1
  6
CONTINUOUS
 62
     7
 10
36972.5
 20
15130.5410367590902752
 30
0.0
 11
36950.5
 21
15130.5410367590902752
 31
0.0
  0
LINE
  5
3DA38
  8
1
  6
CONTINUOUS
 62
     7
 10
36950.5
 20
15295.5410367590902752
 30
0.0
 11
36950.5
 21
15460.5410367590902752
 31
0.0
  0
LINE
  5
3DA39
  8
1
  6
CONTINUOUS
 62
     7
 10
36972.5
 20
15295.5410367590902752
 30
0.0
 11
36972.5
 21
15460.5410367590902752
 31
0.0
  0
LINE
  5
3DA3A
  8
1
  6
CONTINUOUS
 62
     7
 10
36972.5
 20
15460.5410367590902752
 30
0.0
 11
36950.5
 21
15460.5410367590902752
 31
0.0
  0
LINE
  5
3DA3C
  8
1
  6
CONTINUOUS
 62
     7
 10
36813.0100000000020373
 20
15187.5410367590902752
 30
0.0
 11
36813.0100000000020373
 21
15295.5410367590902752
 31
0.0
  0
LINE
  5
3DA3D
  8
1
  6
CONTINUOUS
 62
     7
 10
36672.5
 20
15165.0410367590902752
 30
0.0
 11
36672.5
 21
15295.5410367590902752
 31
0.0
  0
ARC
  5
3DA3E
  8
1
  6
CONTINUOUS
 62
     7
 10
36727.5
 20
15295.5410367590902752
 30
0.0
 40
137.75
 50
251.3279999999764129
 51
308.3690000000115106
  0
LINE
  5
3DA3F
  8
1
  6
CONTINUOUS
 62
     7
 10
36683.4000000000014552
 20
15165.0410367590902752
 30
0.0
 11
36672.5
 21
15165.0410367590902752
 31
0.0
  0
ARC
  5
3DA40
  8
1
  6
CONTINUOUS
 62
     7
 10
36727.5
 20
15295.5410367590902752
 30
0.0
 40
137.75
 50
51.6309999999884823
 51
108.6716999999890021
  0
LINE
  5
3DA41
  8
1
  6
CONTINUOUS
 62
     7
 10
36813.0100000000020373
 20
15403.5410367590902752
 30
0.0
 11
36813.0100000000020373
 21
15295.5410367590902752
 31
0.0
  0
LINE
  5
3DA42
  8
1
  6
CONTINUOUS
 62
     7
 10
36672.5
 20
15426.0410367590902752
 30
0.0
 11
36672.5
 21
15295.5410367590902752
 31
0.0
  0
LINE
  5
3DA43
  8
1
  6
CONTINUOUS
 62
     7
 10
36683.4000000000014552
 20
15426.0410367590902752
 30
0.0
 11
36672.5
 21
15426.0410367590902752
 31
0.0
  0
LINE
  5
3DA5A
  8
1
  6
CONTINUOUS
 62
     7
 10
34374.5
 20
19490.0192305276286788
 30
0.0
 11
34512.0
 21
19490.0192305276286788
 31
0.0
  0
LINE
  5
3DA5B
  8
CENTER
 10
34812.5
 20
19598.0192305276286788
 30
0.0
 11
34329.5400000000008731
 21
19598.0192305276286788
 31
0.0
  0
LINE
  5
3DA5C
  8
1
  6
CONTINUOUS
 62
     7
 10
34374.5
 20
19706.0192305276286788
 30
0.0
 11
34512.0
 21
19706.0192305276286788
 31
0.0
  0
LINE
  5
3DA5D
  8
1
  6
CONTINUOUS
 62
     7
 10
34352.5
 20
19598.0192305276286788
 30
0.0
 11
34352.5
 21
19763.0192305276286788
 31
0.0
  0
LINE
  5
3DA5E
  8
1
  6
CONTINUOUS
 62
     7
 10
34374.5
 20
19598.0192305276286788
 30
0.0
 11
34374.5
 21
19763.0192305276286788
 31
0.0
  0
LINE
  5
3DA5F
  8
1
  6
CONTINUOUS
 62
     7
 10
34352.5
 20
19433.0192305276286788
 30
0.0
 11
34374.5
 21
19433.0192305276286788
 31
0.0
  0
LINE
  5
3DA60
  8
1
  6
CONTINUOUS
 62
     7
 10
34352.5
 20
19598.0192305276286788
 30
0.0
 11
34352.5
 21
19433.0192305276286788
 31
0.0
  0
LINE
  5
3DA61
  8
1
  6
CONTINUOUS
 62
     7
 10
34374.5
 20
19598.0192305276286788
 30
0.0
 11
34374.5
 21
19433.0192305276286788
 31
0.0
  0
LINE
  5
3DA62
  8
1
  6
CONTINUOUS
 62
     7
 10
34352.5
 20
19763.0192305276286788
 30
0.0
 11
34374.5
 21
19763.0192305276286788
 31
0.0
  0
LINE
  5
3DA63
  8
CENTER
 10
37015.5299999999988358
 20
19598.0192305276286788
 30
0.0
 11
34872.5
 21
19598.0192305276286788
 31
0.0
  0
LINE
  5
3DA64
  8
1
  6
CONTINUOUS
 62
     7
 10
36672.5
 20
19706.0192305276286788
 30
0.0
 11
36162.5
 21
19706.0192305276286788
 31
0.0
  0
LINE
  5
3DA65
  8
1
  6
CONTINUOUS
 62
     7
 10
36672.5
 20
19490.0192305276286788
 30
0.0
 11
36162.5
 21
19490.0192305276286788
 31
0.0
  0
LINE
  5
3DA66
  8
1
  6
CONTINUOUS
 62
     7
 10
36162.5
 20
19739.3192305276206753
 30
0.0
 11
34865.5
 21
19739.3192305276206753
 31
0.0
  0
LINE
  5
3DA67
  8
1
  6
CONTINUOUS
 62
     7
 10
36162.5
 20
19456.7192305276184925
 30
0.0
 11
34865.5
 21
19456.7192305276184925
 31
0.0
  0
LINE
  5
3DA68
  8
1
  6
CONTINUOUS
 62
     7
 10
34865.5
 20
19739.3192305276206753
 30
0.0
 11
34865.5
 21
19595.1602305276210245
 31
0.0
  0
LINE
  5
3DA69
  8
1
  6
CONTINUOUS
 62
     7
 10
34824.069999999999709
 20
19707.0192305276286788
 30
0.0
 11
34808.2200000000011642
 21
19707.0192305276286788
 31
0.0
  0
LINE
  5
3DA6A
  8
1
  6
CONTINUOUS
 62
     7
 10
34512.0
 20
19706.0192305276286788
 30
0.0
 11
34512.0
 21
19598.0192305276286788
 31
0.0
  0
LINE
  5
3DA6B
  8
1
  6
CONTINUOUS
 62
     7
 10
34641.6000000000130967
 20
19728.5192305276286788
 30
0.0
 11
34652.5
 21
19728.5192305276286788
 31
0.0
  0
LINE
  5
3DA6C
  8
1
  6
CONTINUOUS
 62
     7
 10
34702.5
 20
19706.0192305276286788
 30
0.0
 11
34652.5
 21
19706.0192305276286788
 31
0.0
  0
LINE
  5
3DA6D
  8
1
  6
CONTINUOUS
 62
     7
 10
34652.5
 20
19728.5192305276286788
 30
0.0
 11
34652.5
 21
19598.0192305276286788
 31
0.0
  0
LINE
  5
3DA6E
  8
1
  6
CONTINUOUS
 62
     7
 10
34702.5
 20
19713.3692305276308616
 30
0.0
 11
34702.5
 21
19598.0192305276286788
 31
0.0
  0
LINE
  5
3DA6F
  8
1
  6
CONTINUOUS
 62
     7
 10
34808.2200000000011642
 20
19707.0192305276286788
 30
0.0
 11
34783.319999999999709
 21
19713.3692305276308616
 31
0.0
  0
LINE
  5
3DA70
  8
1
  6
CONTINUOUS
 62
     7
 10
34783.319999999999709
 20
19713.3692305276308616
 30
0.0
 11
34783.319999999999709
 21
19598.0192305276286788
 31
0.0
  0
LINE
  5
3DA71
  8
1
  6
CONTINUOUS
 62
     7
 10
34808.2200000000011642
 20
19707.0192305276286788
 30
0.0
 11
34808.2200000000011642
 21
19598.0192305276286788
 31
0.0
  0
LINE
  5
3DA72
  8
1
  6
CONTINUOUS
 62
     7
 10
34783.319999999999709
 20
19713.3692305276308616
 30
0.0
 11
34702.5
 21
19713.3692305276308616
 31
0.0
  0
ARC
  5
3DA73
  8
1
  6
CONTINUOUS
 62
     7
 10
34597.5
 20
19598.0192305276286788
 30
0.0
 40
137.75
 50
71.3279999999763419
 51
128.3690000000115106
  0
LINE
  5
3DA74
  8
CENTER
 10
34872.5
 20
19598.0192305276286788
 30
0.0
 11
34812.5
 21
19598.0192305276286788
 31
0.0
  0
LINE
  5
3DA75
  8
1
  6
CONTINUOUS
 62
     7
 10
34865.5
 20
19727.6282305276290572
 30
0.0
 11
34824.069999999999709
 21
19707.0192305276286788
 31
0.0
  0
LINE
  5
3DA77
  8
1
  6
CONTINUOUS
 62
     7
 10
34641.6000000000130967
 20
19467.5192305276286788
 30
0.0
 11
34652.5
 21
19467.5192305276286788
 31
0.0
  0
LINE
  5
3DA78
  8
1
  6
CONTINUOUS
 62
     7
 10
34702.5
 20
19490.0192305276286788
 30
0.0
 11
34652.5
 21
19490.0192305276286788
 31
0.0
  0
LINE
  5
3DA79
  8
1
  6
CONTINUOUS
 62
     7
 10
34808.2200000000011642
 20
19489.0192305276286788
 30
0.0
 11
34783.319999999999709
 21
19482.669230527630134
 31
0.0
  0
LINE
  5
3DA7A
  8
1
  6
CONTINUOUS
 62
     7
 10
34783.319999999999709
 20
19482.669230527630134
 30
0.0
 11
34702.5
 21
19482.669230527630134
 31
0.0
  0
ARC
  5
3DA7B
  8
1
  6
CONTINUOUS
 62
     7
 10
34597.5
 20
19598.0192305276286788
 30
0.0
 40
137.75
 50
231.6309999999884894
 51
288.6720000000236723
  0
LINE
  5
3DA7C
  8
1
  6
CONTINUOUS
 62
     7
 10
34865.5
 20
19456.7192305276184925
 30
0.0
 11
34865.5
 21
19595.1602305276210245
 31
0.0
  0
LINE
  5
3DA7D
  8
1
  6
CONTINUOUS
 62
     7
 10
34512.0
 20
19490.0192305276286788
 30
0.0
 11
34512.0
 21
19598.0192305276286788
 31
0.0
  0
LINE
  5
3DA7E
  8
1
  6
CONTINUOUS
 62
     7
 10
34652.5
 20
19467.5192305276286788
 30
0.0
 11
34652.5
 21
19598.0192305276286788
 31
0.0
  0
LINE
  5
3DA7F
  8
1
  6
CONTINUOUS
 62
     7
 10
34702.5
 20
19482.669230527630134
 30
0.0
 11
34702.5
 21
19598.0192305276286788
 31
0.0
  0
LINE
  5
3DA80
  8
1
  6
CONTINUOUS
 62
     7
 10
34783.319999999999709
 20
19482.669230527630134
 30
0.0
 11
34783.319999999999709
 21
19598.0192305276286788
 31
0.0
  0
LINE
  5
3DA81
  8
1
  6
CONTINUOUS
 62
     7
 10
34808.2200000000011642
 20
19489.0192305276286788
 30
0.0
 11
34808.2200000000011642
 21
19598.0192305276286788
 31
0.0
  0
LINE
  5
3DA82
  8
1
  6
CONTINUOUS
 62
     7
 10
36162.5
 20
19739.3192305276206753
 30
0.0
 11
36162.5
 21
19598.0192305276286788
 31
0.0
  0
LINE
  5
3DA83
  8
1
  6
CONTINUOUS
 62
     7
 10
36162.5
 20
19456.7192305276184925
 30
0.0
 11
36162.5
 21
19598.0192305276286788
 31
0.0
  0
ARC
  5
3DA84
  8
1
  6
CONTINUOUS
 62
     7
 10
36727.5
 20
19598.0192305276286788
 30
0.0
 40
137.75
 50
51.6309999999884823
 51
108.6716999999890021
  0
LINE
  5
3DA85
  8
1
  6
CONTINUOUS
 62
     7
 10
36950.5
 20
19598.0192305276286788
 30
0.0
 11
36950.5
 21
19763.0192305276286788
 31
0.0
  0
LINE
  5
3DA86
  8
1
  6
CONTINUOUS
 62
     7
 10
36972.5
 20
19598.0192305276286788
 30
0.0
 11
36972.5
 21
19763.0192305276286788
 31
0.0
  0
LINE
  5
3DA87
  8
1
  6
CONTINUOUS
 62
     7
 10
36683.4000000000014552
 20
19728.5192305276286788
 30
0.0
 11
36672.5
 21
19728.5192305276286788
 31
0.0
  0
LINE
  5
3DA88
  8
1
  6
CONTINUOUS
 62
     7
 10
36672.5
 20
19728.5192305276286788
 30
0.0
 11
36672.5
 21
19598.0192305276286788
 31
0.0
  0
LINE
  5
3DA89
  8
1
  6
CONTINUOUS
 62
     7
 10
36813.0100000000020373
 20
19706.0192305276286788
 30
0.0
 11
36813.0100000000020373
 21
19598.0192305276286788
 31
0.0
  0
LINE
  5
3DA8A
  8
1
  6
CONTINUOUS
 62
     7
 10
36813.0100000000020373
 20
19490.0192305276286788
 30
0.0
 11
36813.0100000000020373
 21
19598.0192305276286788
 31
0.0
  0
LINE
  5
3DA8B
  8
1
  6
CONTINUOUS
 62
     7
 10
36950.5
 20
19490.0192305276286788
 30
0.0
 11
36813.0100000000020373
 21
19490.0192305276286788
 31
0.0
  0
LINE
  5
3DA8C
  8
1
  6
CONTINUOUS
 62
     7
 10
36950.5
 20
19706.0192305276286788
 30
0.0
 11
36813.0100000000020373
 21
19706.0192305276286788
 31
0.0
  0
LINE
  5
3DA8D
  8
1
  6
CONTINUOUS
 62
     7
 10
36972.5
 20
19433.0192305276286788
 30
0.0
 11
36950.5
 21
19433.0192305276286788
 31
0.0
  0
LINE
  5
3DA8E
  8
1
  6
CONTINUOUS
 62
     7
 10
36683.4000000000014552
 20
19467.5192305276286788
 30
0.0
 11
36672.5
 21
19467.5192305276286788
 31
0.0
  0
ARC
  5
3DA8F
  8
1
  6
CONTINUOUS
 62
     7
 10
36727.5
 20
19598.0192305276286788
 30
0.0
 40
137.75
 50
251.3279999999764129
 51
308.3690000000115106
  0
LINE
  5
3DA90
  8
1
  6
CONTINUOUS
 62
     7
 10
36672.5
 20
19467.5192305276286788
 30
0.0
 11
36672.5
 21
19598.0192305276286788
 31
0.0
  0
LINE
  5
3DA91
  8
1
  6
CONTINUOUS
 62
     7
 10
36950.5
 20
19598.0192305276286788
 30
0.0
 11
36950.5
 21
19433.0192305276286788
 31
0.0
  0
LINE
  5
3DA92
  8
1
  6
CONTINUOUS
 62
     7
 10
36972.5
 20
19598.0192305276286788
 30
0.0
 11
36972.5
 21
19433.0192305276286788
 31
0.0
  0
LINE
  5
3DA93
  8
1
  6
CONTINUOUS
 62
     7
 10
36972.5
 20
19763.0192305276286788
 30
0.0
 11
36950.5
 21
19763.0192305276286788
 31
0.0
  0
LINE
  5
3DA94
  8
1
  6
CONTINUOUS
 62
     7
 10
34824.069999999999709
 20
19489.0192305276286788
 30
0.0
 11
34808.2200000000011642
 21
19489.0192305276286788
 31
0.0
  0
LINE
  5
3DA95
  8
1
  6
CONTINUOUS
 62
     7
 10
34865.5
 20
19468.4102305276283005
 30
0.0
 11
34824.069999999999709
 21
19489.0192305276286788
 31
0.0
  0
LINE
  5
3DA9D
  8
UL1
 10
33852.5
 20
20363.0192305276286788
 30
0.0
 11
37472.5
 21
20363.0192305276286788
 31
0.0
  0
LINE
  5
3DA9E
  8
UL1
 10
33852.5
 20
18833.0192305276286788
 30
0.0
 11
37472.5
 21
18833.0192305276286788
 31
0.0
  0
LINE
  5
3DA9F
  8
UL1
 10
34352.5
 20
19813.0192305276286788
 30
0.0
 11
34352.5
 21
19383.0192305276286788
 31
0.0
  0
LINE
  5
3DAA0
  8
UL1
 10
36972.5
 20
18833.0192305276286788
 30
0.0
 11
36972.5
 21
20363.0192305276286788
 31
0.0
  0
LINE
  5
3DAA2
  8
UL1
 10
33852.5
 20
20363.0192305276286788
 30
0.0
 11
33852.5
 21
18833.0192305276286788
 31
0.0
  0
LINE
  5
3DAA4
  8
UL1
 10
34352.5
 20
19813.0192305276286788
 30
0.0
 11
36672.5
 21
20363.0192305276286788
 31
0.0
  0
LINE
  5
3DAA5
  8
UL1
 10
34352.5
 20
19383.0192305276286788
 30
0.0
 11
36672.5
 21
18833.0192305276286788
 31
0.0
  0
LINE
  5
3DAA6
  8
UL1
 10
33852.5
 20
15536.0410367590902752
 30
0.0
 11
33852.5
 21
15006.0410367590902752
 31
0.0
  0
LINE
  5
3DAA7
  8
UL1
 10
36972.5
 20
20363.0192305276286788
 30
0.0
 11
36972.5
 21
18833.0192305276286788
 31
0.0
  0
LINE
  5
3DAA8
  8
UL1
 10
37472.5
 20
20363.0192305276286788
 30
0.0
 11
37472.5
 21
18833.0192305276286788
 31
0.0
  0
LINE
  5
3DAA9
  8
UL1
 10
37472.5
 20
15536.0410367590902752
 30
0.0
 11
37472.5
 21
15006.0410367590902752
 31
0.0
  0
LINE
  5
3DAAC
  8
UL1
 10
33852.5
 20
15536.0410367590902752
 30
0.0
 11
37472.5
 21
15536.0410367590902752
 31
0.0
  0
LINE
  5
3DAAD
  8
UL1
 10
37472.5
 20
15006.0410367590902752
 30
0.0
 11
33852.5
 21
15006.0410367590902752
 31
0.0
  0
TEXT
  5
3DB53
  8
SCALE
 10
35335.8333333333430346
 20
18254.6225795925383864
 30
0.0
 40
200.0
  1
平面図
 72
     4
 11
35662.5
 21
18347.955912925870507
 31
0.0
  0
TEXT
  5
3DB54
  8
SCALE
 10
35335.8333333333430346
 20
13983.9703838745008397
 30
0.0
 40
200.0
  1
断面図
 72
     4
 11
35662.5
 21
14083.9703838745008397
 31
0.0
  0
TEXT
  5
3E004
  8
SCALE
 10
29042.6413786299490312
 20
26595.5579263119107054
 30
0.0
 40
500.0
  1
用途例：排水・雨水・通気
  0
TEXT
  5
3E005
  8
SCALE
 10
29042.6413786299490312
 20
25480.7211221088182356
 30
0.0
 40
500.0
  1
使用圧力：大気圧
  0
TEXT
  5
3E006
  8
SCALE
 10
29042.6413786299490312
 20
24375.7230761092687317
 30
0.0
 40
500.0
  1
フレキ：硬質塩ビ
  0
LINE
  5
3E1EE
  8
SCALE
 10
7077.5
 20
20353.0192305276286788
 30
0.0
 11
7077.5
 21
21052.6453493379412976
 31
0.0
  0
LINE
  5
3E1EF
  8
SCALE
 10
6577.5
 20
20353.0192305276286788
 30
0.0
 11
6577.5
 21
21052.6453493379412976
 31
0.0
  0
LINE
  5
3E1F0
  8
SCALE
 10
6977.5
 20
20962.6453493379412976
 30
0.0
 11
6677.5000000000009095
 21
20962.6453493379412976
 31
0.0
  0
LINE
  5
3E1F4
  8
SCALE
 10
6577.5
 20
20353.0192305276286788
 30
0.0
 11
6577.5
 21
21052.6453493379412976
 31
0.0
  0
LINE
  5
3E1F5
  8
SCALE
 10
4297.5
 20
19853.0192305276286788
 30
0.0
 11
4297.5
 21
21052.6453493379412976
 31
0.0
  0
LINE
  5
3E1F6
  8
SCALE
 10
6477.5
 20
20962.6453493379412976
 30
0.0
 11
4397.4999999999990905
 21
20962.6453493379412976
 31
0.0
  0
LINE
  5
3E1FA
  8
SCALE
 10
4297.5
 20
19853.0192305276286788
 30
0.0
 11
4297.5
 21
21052.6453493379412976
 31
0.0
  0
LINE
  5
3E1FB
  8
SCALE
 10
3797.5
 20
20353.0192305276286788
 30
0.0
 11
3797.5
 21
21052.6453493379412976
 31
0.0
  0
LINE
  5
3E1FC
  8
SCALE
 10
4197.5
 20
20962.6453493379412976
 30
0.0
 11
3897.5
 21
20962.6453493379412976
 31
0.0
  0
LINE
  5
3E200
  8
SCALE
 10
3697.500000000001819
 20
20253.0192305276395928
 30
0.0
 11
3126.3544123454357759
 21
20253.0192305276395928
 31
0.0
  0
LINE
  5
3E201
  8
SCALE
 10
4165.0600000000031287
 20
19598.0192305276286788
 30
0.0
 11
3126.3544123454357759
 21
19598.0192305276286788
 31
0.0
  0
LINE
  5
3E202
  8
SCALE
 10
3216.3544123454357759
 20
20153.0192305276395928
 30
0.0
 11
3216.3544123454357759
 21
19698.0192305276286788
 31
0.0
  0
LINE
  5
3E206
  8
SCALE
 10
4165.0600000000031287
 20
19598.0192305276286788
 30
0.0
 11
3126.3544123454348664
 21
19598.0192305276286788
 31
0.0
  0
LINE
  5
3E207
  8
SCALE
 10
3697.500000000001819
 20
18943.0192305276286788
 30
0.0
 11
3126.3544123454357759
 21
18943.0192305276286788
 31
0.0
  0
LINE
  5
3E208
  8
SCALE
 10
3216.3544123454348664
 20
19498.0192305276286788
 30
0.0
 11
3216.3544123454348664
 21
19043.0192305276286788
 31
0.0
  0
LINE
  5
3E20C
  8
SCALE
 10
6400.5
 20
20353.0192305276286788
 30
0.0
 11
6400.5
 21
20763.0520435559010366
 31
0.0
  0
LINE
  5
3E20D
  8
SCALE
 10
6577.5
 20
20353.0192305276286788
 30
0.0
 11
6577.5
 21
20763.0520435559010366
 31
0.0
  0
LINE
  5
3E20E
  8
SCALE
 10
6300.5
 20
20673.0520435559010366
 30
0.0
 11
6200.5
 21
20673.0520435559010366
 31
0.0
  0
LINE
  5
3E20F
  8
SCALE
 10
6677.5000000000009095
 20
20673.0520435559010366
 30
0.0
 11
6777.5
 21
20673.0520435559010366
 31
0.0
  0
LINE
  5
3E210
  8
SCALE
 10
6400.5
 20
20673.0520435559010366
 30
0.0
 11
6577.5
 21
20673.0520435559010366
 31
0.0
  0
LINE
  5
3E214
  8
SCALE
 10
4197.5000000000009095
 20
19753.0192305276286788
 30
0.0
 11
3416.4218909603378052
 21
19753.0192305276286788
 31
0.0
  0
LINE
  5
3E215
  8
SCALE
 10
4197.5000000000009095
 20
19443.0192305276286788
 30
0.0
 11
3416.4218909603378052
 21
19443.0192305276286788
 31
0.0
  0
LINE
  5
3E216
  8
SCALE
 10
3506.4218909603378052
 20
19653.0192305276395928
 30
0.0
 11
3506.4218909603378052
 21
19543.0192305276286788
 31
0.0
  0
LINE
  5
3E21A
  8
SCALE
 10
4397.227547864459666
 20
15488.5410367590993701
 30
0.0
 11
4498.9105951267138153
 21
15488.5410367590993701
 31
0.0
  0
LINE
  5
3E21B
  8
SCALE
 10
4415.500000000001819
 20
15388.5410367590993701
 30
0.0
 11
4498.9105951267138153
 21
15388.5410367590993701
 31
0.0
  0
LINE
  5
3E21C
  8
SCALE
 10
4408.9105951267129058
 20
15588.5410367590993701
 30
0.0
 11
4408.9105951267129058
 21
15688.5410367590993701
 31
0.0
  0
LINE
  5
3E21D
  8
SCALE
 10
4408.9105951267129058
 20
15288.5410367590993701
 30
0.0
 11
4408.9105951267129058
 21
15188.5410367590993701
 31
0.0
  0
LINE
  5
3E21F
  8
SCALE
 10
4408.9105951267129058
 20
15488.5410367590993701
 30
0.0
 11
4408.9105951267129058
 21
15388.5410367590993701
 31
0.0
  0
LINE
  5
3E222
  8
SCALE
 10
4397.5000000000009095
 20
15178.5410367590993701
 30
0.0
 11
4498.9105951267138153
 21
15178.5410367590993701
 31
0.0
  0
LINE
  5
3E223
  8
SCALE
 10
4397.5000000000009095
 20
15078.5410367590993701
 30
0.0
 11
4498.9105951267138153
 21
15078.5410367590993701
 31
0.0
  0
LINE
  5
3E224
  8
SCALE
 10
4408.9105951267129058
 20
15278.5410367590993701
 30
0.0
 11
4408.9105951267129058
 21
15378.5410367590993701
 31
0.0
  0
LINE
  5
3E225
  8
SCALE
 10
4408.9105951267129058
 20
14978.5410367590993701
 30
0.0
 11
4408.9105951267129058
 21
14878.5410367590993701
 31
0.0
  0
LINE
  5
3E227
  8
SCALE
 10
4408.9105951267129058
 20
15178.5410367590993701
 30
0.0
 11
4408.9105951267129058
 21
15078.5410367590993701
 31
0.0
  0
LINE
  5
3E22A
  8
SCALE
 10
4165.0600000000031287
 20
15283.5410367590993701
 30
0.0
 11
4038.65033533329688
 21
15283.5410367590993701
 31
0.0
  0
LINE
  5
3E22B
  8
SCALE
 10
4494.500000000001819
 20
15295.5410367590993701
 30
0.0
 11
4038.65033533329688
 21
15295.5410367590993701
 31
0.0
  0
LINE
  5
3E22C
  8
SCALE
 10
4128.6503353332973347
 20
15183.5410367590993701
 30
0.0
 11
4128.6503353332973347
 21
15083.5410367590993701
 31
0.0
  0
LINE
  5
3E22D
  8
SCALE
 10
4128.6503353332973347
 20
15395.5410367590993701
 30
0.0
 11
4128.6503353332973347
 21
15495.5410367590993701
 31
0.0
  0
LINE
  5
3E22F
  8
SCALE
 10
4128.6503353332973347
 20
15283.5410367590993701
 30
0.0
 11
4128.6503353332973347
 21
15295.5410367590993701
 31
0.0
  0
LINE
  5
3E232
  8
SCALE
 10
17177.5
 20
20373.0192305276286788
 30
0.0
 11
17177.5
 21
21148.4774845128995366
 31
0.0
  0
LINE
  5
3E233
  8
SCALE
 10
16677.5
 20
20373.0192305276286788
 30
0.0
 11
16677.5
 21
21148.4774845128995366
 31
0.0
  0
LINE
  5
3E234
  8
SCALE
 10
17077.5
 20
21058.4774845128995366
 30
0.0
 11
16777.5
 21
21058.4774845128995366
 31
0.0
  0
LINE
  5
3E238
  8
SCALE
 10
16677.5
 20
20373.0192305276286788
 30
0.0
 11
16677.5
 21
21148.4774845128995366
 31
0.0
  0
LINE
  5
3E239
  8
SCALE
 10
14347.5
 20
19873.0192305276286788
 30
0.0
 11
14347.5
 21
21148.4774845128995366
 31
0.0
  0
LINE
  5
3E23A
  8
SCALE
 10
16577.5
 20
21058.4774845128995366
 30
0.0
 11
14447.5
 21
21058.4774845128995366
 31
0.0
  0
LINE
  5
3E23E
  8
SCALE
 10
14347.5
 20
19873.0192305276286788
 30
0.0
 11
14347.5
 21
21148.4774845128995366
 31
0.0
  0
LINE
  5
3E23F
  8
SCALE
 10
13847.5
 20
20373.0192305276286788
 30
0.0
 11
13847.5
 21
21148.4774845128995366
 31
0.0
  0
LINE
  5
3E240
  8
SCALE
 10
14247.5
 20
21058.4774845128995366
 30
0.0
 11
13947.5
 21
21058.4774845128995366
 31
0.0
  0
LINE
  5
3E244
  8
SCALE
 10
16677.5
 20
20373.0192305276286788
 30
0.0
 11
16677.5
 21
20841.7694780409401574
 31
0.0
  0
LINE
  5
3E245
  8
SCALE
 10
16479.5
 20
20373.0192305276286788
 30
0.0
 11
16479.5
 21
20841.7694780409401574
 31
0.0
  0
LINE
  5
3E246
  8
SCALE
 10
16777.5
 20
20751.7694780409401574
 30
0.0
 11
16877.5
 21
20751.7694780409401574
 31
0.0
  0
LINE
  5
3E247
  8
SCALE
 10
16379.5
 20
20751.7694780409401574
 30
0.0
 11
16279.5
 21
20751.7694780409401574
 31
0.0
  0
LINE
  5
3E248
  8
SCALE
 10
16677.5
 20
20751.7694780409401574
 30
0.0
 11
16479.5
 21
20751.7694780409401574
 31
0.0
  0
LINE
  5
3E24C
  8
SCALE
 10
13747.5000000000090949
 20
20273.0192305276395928
 30
0.0
 11
13034.4162999622803909
 21
20273.0192305276395928
 31
0.0
  0
LINE
  5
3E24D
  8
SCALE
 10
14225.6600000000107684
 20
19598.0192305276286788
 30
0.0
 11
13034.4162999622803909
 21
19598.0192305276286788
 31
0.0
  0
LINE
  5
3E24E
  8
SCALE
 10
13124.4162999622803909
 20
20173.0192305276395928
 30
0.0
 11
13124.4162999622803909
 21
19698.0192305276286788
 31
0.0
  0
LINE
  5
3E252
  8
SCALE
 10
14225.6600000000107684
 20
19598.0192305276286788
 30
0.0
 11
13034.4162999622803909
 21
19598.0192305276286788
 31
0.0
  0
LINE
  5
3E253
  8
SCALE
 10
13747.5000000000090949
 20
18923.0192305276286788
 30
0.0
 11
13034.4162999622803909
 21
18923.0192305276286788
 31
0.0
  0
LINE
  5
3E254
  8
SCALE
 10
13124.4162999622803909
 20
19498.0192305276286788
 30
0.0
 11
13124.4162999622803909
 21
19023.0192305276286788
 31
0.0
  0
LINE
  5
3E258
  8
SCALE
 10
14247.5000000000090949
 20
19773.0192305276286788
 30
0.0
 11
13354.8956440991805721
 21
19773.0192305276286788
 31
0.0
  0
LINE
  5
3E259
  8
SCALE
 10
14247.5000000000090949
 20
19423.0192305276286788
 30
0.0
 11
13354.8956440991805721
 21
19423.0192305276286788
 31
0.0
  0
LINE
  5
3E25A
  8
SCALE
 10
13444.8956440991805721
 20
19673.0192305276286788
 30
0.0
 11
13444.8956440991805721
 21
19523.0192305276286788
 31
0.0
  0
LINE
  5
3E25E
  8
SCALE
 10
14471.3256766199101548
 20
15509.0410367590993701
 30
0.0
 11
14708.9755800124294183
 21
15509.0410367590993701
 31
0.0
  0
LINE
  5
3E25F
  8
SCALE
 10
14471.3256766199101548
 20
15409.0410367590993701
 30
0.0
 11
14708.9755800124294183
 21
15409.0410367590993701
 31
0.0
  0
LINE
  5
3E260
  8
SCALE
 10
14618.9755800124294183
 20
15609.0410367590993701
 30
0.0
 11
14618.9755800124294183
 21
15709.0410367590993701
 31
0.0
  0
LINE
  5
3E261
  8
SCALE
 10
14618.9755800124294183
 20
15309.0410367590993701
 30
0.0
 11
14618.9755800124294183
 21
15209.0410367590993701
 31
0.0
  0
LINE
  5
3E263
  8
SCALE
 10
14618.9755800124294183
 20
15509.0410367590993701
 30
0.0
 11
14618.9755800124294183
 21
15409.0410367590993701
 31
0.0
  0
LINE
  5
3E266
  8
SCALE
 10
14467.5000000000090949
 20
15159.0410367590993701
 30
0.0
 11
14708.9755800124294183
 21
15159.0410367590993701
 31
0.0
  0
LINE
  5
3E267
  8
SCALE
 10
14467.5000000000090949
 20
15059.0410367590993701
 30
0.0
 11
14708.9755800124294183
 21
15059.0410367590993701
 31
0.0
  0
LINE
  5
3E268
  8
SCALE
 10
14618.9755800124294183
 20
15259.0410367590993701
 30
0.0
 11
14618.9755800124294183
 21
15359.0410367590993701
 31
0.0
  0
LINE
  5
3E269
  8
SCALE
 10
14618.9755800124294183
 20
14959.0410367590993701
 30
0.0
 11
14618.9755800124294183
 21
14859.0410367590993701
 31
0.0
  0
LINE
  5
3E26B
  8
SCALE
 10
14618.9755800124294183
 20
15159.0410367590993701
 30
0.0
 11
14618.9755800124294183
 21
15059.0410367590993701
 31
0.0
  0
LINE
  5
3E26E
  8
SCALE
 10
14225.6600000000107684
 20
15284.0410367590993701
 30
0.0
 11
14079.7898037645300064
 21
15284.0410367590993701
 31
0.0
  0
LINE
  5
3E26F
  8
SCALE
 10
14225.6600000000107684
 20
15295.5410367590993701
 30
0.0
 11
14079.7898037645300064
 21
15295.5410367590993701
 31
0.0
  0
LINE
  5
3E270
  8
SCALE
 10
14169.7898037645300064
 20
15184.0410367590993701
 30
0.0
 11
14169.7898037645300064
 21
15084.0410367590993701
 31
0.0
  0
LINE
  5
3E271
  8
SCALE
 10
14169.7898037645300064
 20
15395.5410367590993701
 30
0.0
 11
14169.7898037645300064
 21
15495.5410367590993701
 31
0.0
  0
LINE
  5
3E273
  8
SCALE
 10
14169.7898037645300064
 20
15284.0410367590993701
 30
0.0
 11
14169.7898037645300064
 21
15295.5410367590993701
 31
0.0
  0
LINE
  5
3E276
  8
SCALE
 10
27312.5
 20
20388.0192305276286788
 30
0.0
 11
27312.5
 21
21190.7245014385407558
 31
0.0
  0
LINE
  5
3E277
  8
SCALE
 10
26812.5
 20
20388.0192305276286788
 30
0.0
 11
26812.5
 21
21190.7245014385407558
 31
0.0
  0
LINE
  5
3E278
  8
SCALE
 10
27212.5
 20
21100.7245014385407558
 30
0.0
 11
26912.5
 21
21100.7245014385407558
 31
0.0
  0
LINE
  5
3E27C
  8
SCALE
 10
26812.5
 20
20388.0192305276286788
 30
0.0
 11
26812.5
 21
21190.7245014385407558
 31
0.0
  0
LINE
  5
3E27D
  8
SCALE
 10
24362.5
 20
19888.0192305276286788
 30
0.0
 11
24362.5
 21
21190.7245014385407558
 31
0.0
  0
LINE
  5
3E27E
  8
SCALE
 10
26712.5
 20
21100.7245014385407558
 30
0.0
 11
24462.5
 21
21100.7245014385407558
 31
0.0
  0
LINE
  5
3E282
  8
SCALE
 10
24362.5
 20
19888.0192305276286788
 30
0.0
 11
24362.5
 21
21190.7245014385407558
 31
0.0
  0
LINE
  5
3E283
  8
SCALE
 10
23862.5
 20
20388.0192305276286788
 30
0.0
 11
23862.5
 21
21190.7245014385407558
 31
0.0
  0
LINE
  5
3E284
  8
SCALE
 10
24262.5
 20
21100.7245014385407558
 30
0.0
 11
23962.5
 21
21100.7245014385407558
 31
0.0
  0
LINE
  5
3E288
  8
SCALE
 10
26572.5
 20
19698.0192305276286788
 30
0.0
 11
26572.5
 21
20881.25683398469846
 31
0.0
  0
LINE
  5
3E289
  8
SCALE
 10
26812.5
 20
19698.0192305276286788
 30
0.0
 11
26812.5
 21
20881.25683398469846
 31
0.0
  0
LINE
  5
3E28A
  8
SCALE
 10
26672.5
 20
20791.2568339847093739
 30
0.0
 11
26712.5
 21
20791.2568339847093739
 31
0.0
  0
LINE
  5
3E28E
  8
SCALE
 10
23762.5000000000109139
 20
20288.0192305276395928
 30
0.0
 11
22958.3239714215706044
 21
20288.0192305276395928
 31
0.0
  0
LINE
  5
3E28F
  8
SCALE
 10
24227.7300000000104774
 20
19598.0192305276286788
 30
0.0
 11
22958.3239714215706044
 21
19598.0192305276286788
 31
0.0
  0
LINE
  5
3E290
  8
SCALE
 10
23048.3239714215706044
 20
20188.0192305276395928
 30
0.0
 11
23048.3239714215706044
 21
19698.0192305276286788
 31
0.0
  0
LINE
  5
3E294
  8
SCALE
 10
24227.7300000000104774
 20
19598.0192305276286788
 30
0.0
 11
22958.3239714215706044
 21
19598.0192305276286788
 31
0.0
  0
LINE
  5
3E295
  8
SCALE
 10
23762.5000000000109139
 20
18908.0192305276286788
 30
0.0
 11
22958.3239714215706044
 21
18908.0192305276286788
 31
0.0
  0
LINE
  5
3E296
  8
SCALE
 10
23048.3239714215706044
 20
19498.0192305276286788
 30
0.0
 11
23048.3239714215706044
 21
19008.0192305276395928
 31
0.0
  0
LINE
  5
3E29A
  8
SCALE
 10
24262.5000000000109139
 20
19788.0192305276286788
 30
0.0
 11
23295.5210418772985577
 21
19788.0192305276286788
 31
0.0
  0
LINE
  5
3E29B
  8
SCALE
 10
24262.5000000000109139
 20
19408.0192305276286788
 30
0.0
 11
23295.5210418772985577
 21
19408.0192305276286788
 31
0.0
  0
LINE
  5
3E29C
  8
SCALE
 10
23385.5210418772985577
 20
19688.0192305276286788
 30
0.0
 11
23385.5210418772985577
 21
19508.0192305276395928
 31
0.0
  0
LINE
  5
3E2A0
  8
SCALE
 10
24459.3899473479505104
 20
15511.5410367590993701
 30
0.0
 11
24673.3562349529784115
 21
15511.5410367590993701
 31
0.0
  0
LINE
  5
3E2A1
  8
SCALE
 10
24459.3899473479505104
 20
15411.5410367590993701
 30
0.0
 11
24673.3562349529784115
 21
15411.5410367590993701
 31
0.0
  0
LINE
  5
3E2A2
  8
SCALE
 10
24583.3562349529784115
 20
15611.5410367590993701
 30
0.0
 11
24583.3562349529784115
 21
15711.5410367590993701
 31
0.0
  0
LINE
  5
3E2A3
  8
SCALE
 10
24583.3562349529784115
 20
15311.5410367590993701
 30
0.0
 11
24583.3562349529784115
 21
15211.5410367590993701
 31
0.0
  0
LINE
  5
3E2A5
  8
SCALE
 10
24583.3562349529784115
 20
15511.5410367590993701
 30
0.0
 11
24583.3562349529784115
 21
15411.5410367590993701
 31
0.0
  0
LINE
  5
3E2A8
  8
SCALE
 10
24484.5000000000109139
 20
15131.5410367590993701
 30
0.0
 11
24673.3562349529784115
 21
15131.5410367590993701
 31
0.0
  0
LINE
  5
3E2A9
  8
SCALE
 10
24484.5000000000109139
 20
15031.5410367590993701
 30
0.0
 11
24673.3562349529784115
 21
15031.5410367590993701
 31
0.0
  0
LINE
  5
3E2AA
  8
SCALE
 10
24583.3562349529784115
 20
15231.5410367590993701
 30
0.0
 11
24583.3562349529784115
 21
15331.5410367590993701
 31
0.0
  0
LINE
  5
3E2AB
  8
SCALE
 10
24583.3562349529784115
 20
14931.5410367590993701
 30
0.0
 11
24583.3562349529784115
 21
14831.5410367590993701
 31
0.0
  0
LINE
  5
3E2AD
  8
SCALE
 10
24583.3562349529784115
 20
15131.5410367590993701
 30
0.0
 11
24583.3562349529784115
 21
15031.5410367590993701
 31
0.0
  0
LINE
  5
3E2B0
  8
SCALE
 10
24227.7300000000104774
 20
15271.5410367590993701
 30
0.0
 11
23970.7681206800116342
 21
15271.5410367590993701
 31
0.0
  0
LINE
  5
3E2B1
  8
SCALE
 10
24227.7300000000104774
 20
15295.5410367590993701
 30
0.0
 11
23970.7681206800116342
 21
15295.5410367590993701
 31
0.0
  0
LINE
  5
3E2B2
  8
SCALE
 10
24060.7681206800116342
 20
15171.5410367590993701
 30
0.0
 11
24060.7681206800116342
 21
15071.5410367590993701
 31
0.0
  0
LINE
  5
3E2B3
  8
SCALE
 10
24060.7681206800116342
 20
15395.5410367590993701
 30
0.0
 11
24060.7681206800116342
 21
15495.5410367590993701
 31
0.0
  0
LINE
  5
3E2B5
  8
SCALE
 10
24060.7681206800116342
 20
15271.5410367590993701
 30
0.0
 11
24060.7681206800116342
 21
15295.5410367590993701
 31
0.0
  0
LINE
  5
3E2B8
  8
SCALE
 10
37472.5
 20
20463.0192305276286788
 30
0.0
 11
37472.5
 21
21373.3929109456985316
 31
0.0
  0
LINE
  5
3E2B9
  8
SCALE
 10
36972.5
 20
20463.0192305276286788
 30
0.0
 11
36972.5
 21
21373.3929109456985316
 31
0.0
  0
LINE
  5
3E2BA
  8
SCALE
 10
37372.5
 20
21283.3929109456985316
 30
0.0
 11
37072.5
 21
21283.3929109456985316
 31
0.0
  0
LINE
  5
3E2BE
  8
SCALE
 10
36972.5
 20
20463.0192305276286788
 30
0.0
 11
36972.5
 21
21373.3929109456985316
 31
0.0
  0
LINE
  5
3E2BF
  8
SCALE
 10
34352.5
 20
19913.0192305276286788
 30
0.0
 11
34352.5
 21
21373.3929109456985316
 31
0.0
  0
LINE
  5
3E2C0
  8
SCALE
 10
36872.5
 20
21283.3929109456985316
 30
0.0
 11
34452.5
 21
21283.3929109456985316
 31
0.0
  0
LINE
  5
3E2C4
  8
SCALE
 10
34352.5
 20
19913.0192305276286788
 30
0.0
 11
34352.5
 21
21373.3929109456985316
 31
0.0
  0
LINE
  5
3E2C5
  8
SCALE
 10
33852.5
 20
20463.0192305276286788
 30
0.0
 11
33852.5
 21
21373.3929109456985316
 31
0.0
  0
LINE
  5
3E2C6
  8
SCALE
 10
34252.5
 20
21283.3929109456985316
 30
0.0
 11
33952.5
 21
21283.3929109456985316
 31
0.0
  0
LINE
  5
3E2CA
  8
SCALE
 10
33752.5000000000218279
 20
20363.0192305276286788
 30
0.0
 11
32662.0746556600897748
 21
20363.0192305276286788
 31
0.0
  0
LINE
  5
3E2CB
  8
SCALE
 10
33752.5000000000218279
 20
19598.0192305276286788
 30
0.0
 11
32662.0746556600897748
 21
19598.0192305276286788
 31
0.0
  0
LINE
  5
3E2CC
  8
SCALE
 10
32752.0746556600897748
 20
20263.0192305276395928
 30
0.0
 11
32752.0746556600897748
 21
19698.0192305276286788
 31
0.0
  0
LINE
  5
3E2D0
  8
SCALE
 10
33752.5000000000218279
 20
19598.0192305276286788
 30
0.0
 11
32662.0746556600897748
 21
19598.0192305276286788
 31
0.0
  0
LINE
  5
3E2D1
  8
SCALE
 10
33752.5000000000218279
 20
18833.0192305276286788
 30
0.0
 11
32662.0746556600897748
 21
18833.0192305276286788
 31
0.0
  0
LINE
  5
3E2D2
  8
SCALE
 10
32752.0746556600897748
 20
19498.0192305276286788
 30
0.0
 11
32752.0746556600897748
 21
18933.0192305276286788
 31
0.0
  0
LINE
  5
3E2D6
  8
SCALE
 10
34229.540000000022701
 20
15271.0410367590993701
 30
0.0
 11
34239.5400000000081491
 21
15271.0410367590993701
 31
0.0
  0
LINE
  5
3E2D7
  8
SCALE
 10
34229.540000000022701
 20
15295.5410367590993701
 30
0.0
 11
34239.5400000000081491
 21
15295.5410367590993701
 31
0.0
  0
LINE
  5
3E2D8
  8
SCALE
 10
34329.540000000022701
 20
15171.0410367590993701
 30
0.0
 11
34329.540000000022701
 21
15071.0410367590993701
 31
0.0
  0
LINE
  5
3E2D9
  8
SCALE
 10
34329.540000000022701
 20
15395.5410367590993701
 30
0.0
 11
34329.540000000022701
 21
15495.5410367590993701
 31
0.0
  0
LINE
  5
3E2DB
  8
SCALE
 10
34329.540000000022701
 20
15271.0410367590993701
 30
0.0
 11
34329.540000000022701
 21
15295.5410367590993701
 31
0.0
  0
LINE
  5
3E2DE
  8
SCALE
 10
34515.746288728681975
 20
15536.0410367590993701
 30
0.0
 11
34610.3405507767020026
 21
15536.0410367590993701
 31
0.0
  0
LINE
  5
3E2DF
  8
SCALE
 10
34474.5000000000218279
 20
15436.0410367590993701
 30
0.0
 11
34610.3405507767020026
 21
15436.0410367590993701
 31
0.0
  0
LINE
  5
3E2E0
  8
SCALE
 10
34520.3405507767020026
 20
15636.0410367590993701
 30
0.0
 11
34520.3405507767020026
 21
15736.0410367590993701
 31
0.0
  0
LINE
  5
3E2E1
  8
SCALE
 10
34520.3405507767020026
 20
15336.0410367590993701
 30
0.0
 11
34520.3405507767020026
 21
15236.0410367590993701
 31
0.0
  0
LINE
  5
3E2E3
  8
SCALE
 10
34520.3405507767020026
 20
15536.0410367590993701
 30
0.0
 11
34520.3405507767020026
 21
15436.0410367590993701
 31
0.0
  0
LINE
  5
3E2E6
  8
SCALE
 10
34474.5000000000218279
 20
15106.0410367590993701
 30
0.0
 11
34610.3405507767020026
 21
15106.0410367590993701
 31
0.0
  0
LINE
  5
3E2E7
  8
SCALE
 10
34474.5000000000218279
 20
15006.0410367590993701
 30
0.0
 11
34610.3405507767020026
 21
15006.0410367590993701
 31
0.0
  0
LINE
  5
3E2E8
  8
SCALE
 10
34520.3405507767020026
 20
15206.0410367590993701
 30
0.0
 11
34520.3405507767020026
 21
15306.0410367590993701
 31
0.0
  0
LINE
  5
3E2E9
  8
SCALE
 10
34520.3405507767020026
 20
14906.0410367590993701
 30
0.0
 11
34520.3405507767020026
 21
14806.0410367590993701
 31
0.0
  0
LINE
  5
3E2EB
  8
SCALE
 10
34520.3405507767020026
 20
15106.0410367590993701
 30
0.0
 11
34520.3405507767020026
 21
15006.0410367590993701
 31
0.0
  0
LINE
  5
3E2EE
  8
SCALE
 10
36972.5
 20
20463.0192305276286788
 30
0.0
 11
36972.5
 21
20962.0682212532410631
 31
0.0
  0
LINE
  5
3E2EF
  8
SCALE
 10
36672.5
 20
20463.0192305276286788
 30
0.0
 11
36672.5
 21
20962.0682212532410631
 31
0.0
  0
LINE
  5
3E2F0
  8
SCALE
 10
36872.5
 20
20872.0682212532410631
 30
0.0
 11
36772.5
 21
20872.0682212532410631
 31
0.0
  0
LINE
  5
3E2F4
  8
SCALE
 10
34252.500000000007276
 20
19813.0192305276395928
 30
0.0
 11
33305.1105566453625215
 21
19813.0192305276395928
 31
0.0
  0
LINE
  5
3E2F5
  8
SCALE
 10
34252.500000000007276
 20
19383.0192305276286788
 30
0.0
 11
33305.1105566453625215
 21
19383.0192305276286788
 31
0.0
  0
LINE
  5
3E2F6
  8
SCALE
 10
33395.1105566453625215
 20
19713.0192305276286788
 30
0.0
 11
33395.1105566453625215
 21
19483.0192305276286788
 31
0.0
  0
LINE
  5
3E2FA
  8
0
 10
7077.5
 20
20962.6453493379412976
 30
0.0
 11
6977.5
 21
20935.8504300948297896
 31
0.0
  0
LINE
  5
3E2FB
  8
0
 10
7077.5
 20
20962.6453493379412976
 30
0.0
 11
6977.5
 21
20989.4402685810491676
 31
0.0
  0
LINE
  5
3E2FC
  8
0
 10
6977.5
 20
20962.6453493379412976
 30
0.0
 11
7077.5
 21
20962.6453493379412976
 31
0.0
  0
LINE
  5
3E2FD
  8
0
 10
6577.5
 20
20962.6453493379412976
 30
0.0
 11
6677.5000000000009095
 21
20989.4402685810491676
 31
0.0
  0
LINE
  5
3E2FE
  8
0
 10
6577.5
 20
20962.6453493379412976
 30
0.0
 11
6677.5000000000009095
 21
20935.8504300948297896
 31
0.0
  0
LINE
  5
3E2FF
  8
0
 10
6677.5000000000009095
 20
20962.6453493379412976
 30
0.0
 11
6577.5
 21
20962.6453493379412976
 31
0.0
  0
TEXT
  5
3E300
  8
SCALE
 10
6740.0
 20
21000.1453493379412976
 30
0.0
 40
75.0
  1
500
  0
LINE
  5
3E301
  8
0
 10
6577.5
 20
20962.6453493379412976
 30
0.0
 11
6477.5
 21
20935.8504300948297896
 31
0.0
  0
LINE
  5
3E302
  8
0
 10
6577.5
 20
20962.6453493379412976
 30
0.0
 11
6477.5
 21
20989.4402685810491676
 31
0.0
  0
LINE
  5
3E303
  8
0
 10
6477.5
 20
20962.6453493379412976
 30
0.0
 11
6577.5
 21
20962.6453493379412976
 31
0.0
  0
LINE
  5
3E304
  8
0
 10
4297.5
 20
20962.6453493379412976
 30
0.0
 11
4397.4999999999990905
 21
20989.4402685810491676
 31
0.0
  0
LINE
  5
3E305
  8
0
 10
4297.5
 20
20962.6453493379412976
 30
0.0
 11
4397.4999999999990905
 21
20935.8504300948297896
 31
0.0
  0
LINE
  5
3E306
  8
0
 10
4397.4999999999990905
 20
20962.6453493379412976
 30
0.0
 11
4297.5
 21
20962.6453493379412976
 31
0.0
  0
TEXT
  5
3E307
  8
SCALE
 10
5113.75
 20
21000.1453493379412976
 30
0.0
 40
75.0
  1
取付面間:2280
  0
LINE
  5
3E308
  8
0
 10
4297.5
 20
20962.6453493379412976
 30
0.0
 11
4197.5
 21
20935.8504300948297896
 31
0.0
  0
LINE
  5
3E309
  8
0
 10
4297.5
 20
20962.6453493379412976
 30
0.0
 11
4197.5
 21
20989.4402685810491676
 31
0.0
  0
LINE
  5
3E30A
  8
0
 10
4197.5
 20
20962.6453493379412976
 30
0.0
 11
4297.5
 21
20962.6453493379412976
 31
0.0
  0
LINE
  5
3E30B
  8
0
 10
3797.5
 20
20962.6453493379412976
 30
0.0
 11
3897.5
 21
20989.4402685810491676
 31
0.0
  0
LINE
  5
3E30C
  8
0
 10
3797.5
 20
20962.6453493379412976
 30
0.0
 11
3897.5
 21
20935.8504300948297896
 31
0.0
  0
LINE
  5
3E30D
  8
0
 10
3897.5
 20
20962.6453493379412976
 30
0.0
 11
3797.5
 21
20962.6453493379412976
 31
0.0
  0
TEXT
  5
3E30E
  8
SCALE
 10
3960.0
 20
21000.1453493379412976
 30
0.0
 40
75.0
  1
500
  0
LINE
  5
3E30F
  8
0
 10
3216.3544123454357759
 20
20253.0192305276395928
 30
0.0
 11
3243.1493315885459197
 21
20153.0192305276395928
 31
0.0
  0
LINE
  5
3E310
  8
0
 10
3216.3544123454357759
 20
20253.0192305276395928
 30
0.0
 11
3189.559493102326087
 21
20153.0192305276395928
 31
0.0
  0
LINE
  5
3E311
  8
0
 10
3216.3544123454357759
 20
20153.0192305276395928
 30
0.0
 11
3216.3544123454357759
 21
20253.0192305276395928
 31
0.0
  0
LINE
  5
3E312
  8
0
 10
3216.3544123454357759
 20
19598.0192305276286788
 30
0.0
 11
3189.559493102326087
 21
19698.0192305276286788
 31
0.0
  0
LINE
  5
3E313
  8
0
 10
3216.3544123454357759
 20
19598.0192305276286788
 30
0.0
 11
3243.1493315885459197
 21
19698.0192305276286788
 31
0.0
  0
LINE
  5
3E314
  8
0
 10
3216.3544123454357759
 20
19698.0192305276286788
 30
0.0
 11
3216.3544123454357759
 21
19598.0192305276286788
 31
0.0
  0
TEXT
  5
3E315
  8
SCALE
 10
3178.8544123454407782
 20
19825.5192305276286788
 30
0.0
 40
75.0
  1
655
 50
90.0
  0
LINE
  5
3E316
  8
0
 10
3216.3544123454348664
 20
19598.0192305276286788
 30
0.0
 11
3243.1493315885459197
 21
19498.0192305276286788
 31
0.0
  0
LINE
  5
3E317
  8
0
 10
3216.3544123454348664
 20
19598.0192305276286788
 30
0.0
 11
3189.5594931023251775
 21
19498.0192305276286788
 31
0.0
  0
LINE
  5
3E318
  8
0
 10
3216.3544123454348664
 20
19498.0192305276286788
 30
0.0
 11
3216.3544123454348664
 21
19598.0192305276286788
 31
0.0
  0
LINE
  5
3E319
  8
0
 10
3216.3544123454348664
 20
18943.0192305276286788
 30
0.0
 11
3189.559493102326087
 21
19043.0192305276286788
 31
0.0
  0
LINE
  5
3E31A
  8
0
 10
3216.3544123454348664
 20
18943.0192305276286788
 30
0.0
 11
3243.1493315885459197
 21
19043.0192305276286788
 31
0.0
  0
LINE
  5
3E31B
  8
0
 10
3216.3544123454348664
 20
19043.0192305276286788
 30
0.0
 11
3216.3544123454348664
 21
18943.0192305276286788
 31
0.0
  0
TEXT
  5
3E31C
  8
SCALE
 10
3178.8544123454398687
 20
19170.5192305276286788
 30
0.0
 40
75.0
  1
655
 50
90.0
  0
LINE
  5
3E31D
  8
0
 10
6400.5
 20
20673.0520435559010366
 30
0.0
 11
6300.5
 21
20646.2571243127895286
 31
0.0
  0
LINE
  5
3E31E
  8
0
 10
6400.5
 20
20673.0520435559010366
 30
0.0
 11
6300.5
 21
20699.8469627990198205
 31
0.0
  0
LINE
  5
3E31F
  8
0
 10
6300.5
 20
20673.0520435559010366
 30
0.0
 11
6400.5
 21
20673.0520435559010366
 31
0.0
  0
LINE
  5
3E320
  8
0
 10
6577.5
 20
20673.0520435559010366
 30
0.0
 11
6677.5000000000009095
 21
20699.8469627990198205
 31
0.0
  0
LINE
  5
3E321
  8
0
 10
6577.5
 20
20673.0520435559010366
 30
0.0
 11
6677.5000000000009095
 21
20646.2571243127895286
 31
0.0
  0
LINE
  5
3E322
  8
0
 10
6677.5000000000009095
 20
20673.0520435559010366
 30
0.0
 11
6577.5
 21
20673.0520435559010366
 31
0.0
  0
TEXT
  5
3E323
  8
SCALE
 10
6401.5
 20
20710.5520435559010366
 30
0.0
 40
75.0
  1
177
  0
LINE
  5
3E324
  8
0
 10
3506.4218909603378052
 20
19753.0192305276286788
 30
0.0
 11
3533.2168102034488584
 21
19653.0192305276395928
 31
0.0
  0
LINE
  5
3E325
  8
0
 10
3506.4218909603378052
 20
19753.0192305276286788
 30
0.0
 11
3479.6269717172281162
 21
19653.0192305276395928
 31
0.0
  0
LINE
  5
3E326
  8
0
 10
3506.4218909603378052
 20
19653.0192305276395928
 30
0.0
 11
3506.4218909603378052
 21
19753.0192305276286788
 31
0.0
  0
LINE
  5
3E327
  8
0
 10
3506.4218909603378052
 20
19443.0192305276286788
 30
0.0
 11
3479.6269717172281162
 21
19543.0192305276286788
 31
0.0
  0
LINE
  5
3E328
  8
0
 10
3506.4218909603378052
 20
19443.0192305276286788
 30
0.0
 11
3533.2168102034488584
 21
19543.0192305276286788
 31
0.0
  0
LINE
  5
3E329
  8
0
 10
3506.4218909603378052
 20
19543.0192305276286788
 30
0.0
 11
3506.4218909603378052
 21
19443.0192305276286788
 31
0.0
  0
TEXT
  5
3E32A
  8
SCALE
 10
3468.9218909603428074
 20
19516.7692305276286788
 30
0.0
 40
75.0
  1
310
 50
90.0
  0
TEXT
  5
3E32B
  8
SCALE
 10
4648.9105951267174532
 20
15363.5410367590902752
 30
0.0
 40
75.0
  1
100
 50
90.0
  0
LINE
  5
3E32C
  8
0
 10
4408.9105951267129058
 20
15488.5410367590993701
 30
0.0
 11
4382.1156758836032168
 21
15588.5410367590993701
 31
0.0
  0
LINE
  5
3E32D
  8
0
 10
4408.9105951267129058
 20
15488.5410367590993701
 30
0.0
 11
4435.7055143698244137
 21
15588.5410367590993701
 31
0.0
  0
LINE
  5
3E32E
  8
0
 10
4408.9105951267129058
 20
15588.5410367590993701
 30
0.0
 11
4408.9105951267129058
 21
15488.5410367590993701
 31
0.0
  0
LINE
  5
3E32F
  8
0
 10
4408.9105951267129058
 20
15388.5410367590993701
 30
0.0
 11
4435.7055143698244137
 21
15288.5410367590993701
 31
0.0
  0
LINE
  5
3E330
  8
0
 10
4408.9105951267129058
 20
15388.5410367590993701
 30
0.0
 11
4382.1156758836032168
 21
15288.5410367590993701
 31
0.0
  0
LINE
  5
3E331
  8
0
 10
4408.9105951267129058
 20
15288.5410367590993701
 30
0.0
 11
4408.9105951267129058
 21
15388.5410367590993701
 31
0.0
  0
TEXT
  5
3E332
  8
SCALE
 10
4648.9105951267174532
 20
15053.5410367590902752
 30
0.0
 40
75.0
  1
100
 50
90.0
  0
LINE
  5
3E333
  8
0
 10
4408.9105951267129058
 20
15178.5410367590993701
 30
0.0
 11
4382.1156758836032168
 21
15278.5410367590993701
 31
0.0
  0
LINE
  5
3E334
  8
0
 10
4408.9105951267129058
 20
15178.5410367590993701
 30
0.0
 11
4435.7055143698244137
 21
15278.5410367590993701
 31
0.0
  0
LINE
  5
3E335
  8
0
 10
4408.9105951267129058
 20
15278.5410367590993701
 30
0.0
 11
4408.9105951267129058
 21
15178.5410367590993701
 31
0.0
  0
LINE
  5
3E336
  8
0
 10
4408.9105951267129058
 20
15078.5410367590993701
 30
0.0
 11
4435.7055143698244137
 21
14978.5410367590993701
 31
0.0
  0
LINE
  5
3E337
  8
0
 10
4408.9105951267129058
 20
15078.5410367590993701
 30
0.0
 11
4382.1156758836032168
 21
14978.5410367590993701
 31
0.0
  0
LINE
  5
3E338
  8
0
 10
4408.9105951267129058
 20
14978.5410367590993701
 30
0.0
 11
4408.9105951267129058
 21
15078.5410367590993701
 31
0.0
  0
TEXT
  5
3E339
  8
SCALE
 10
4038.6503353333009727
 20
15239.5410367590902752
 30
0.0
 40
75.0
  1
12
 50
90.0
  0
LINE
  5
3E33A
  8
0
 10
4128.6503353332973347
 20
15283.5410367590993701
 30
0.0
 11
4155.4452545764079332
 21
15183.5410367590993701
 31
0.0
  0
LINE
  5
3E33B
  8
0
 10
4128.6503353332973347
 20
15283.5410367590993701
 30
0.0
 11
4101.8554160901867363
 21
15183.5410367590993701
 31
0.0
  0
LINE
  5
3E33C
  8
0
 10
4128.6503353332973347
 20
15183.5410367590993701
 30
0.0
 11
4128.6503353332973347
 21
15283.5410367590993701
 31
0.0
  0
LINE
  5
3E33D
  8
0
 10
4128.6503353332973347
 20
15295.5410367590993701
 30
0.0
 11
4101.8554160901867363
 21
15395.5410367590993701
 31
0.0
  0
LINE
  5
3E33E
  8
0
 10
4128.6503353332973347
 20
15295.5410367590993701
 30
0.0
 11
4155.4452545764079332
 21
15395.5410367590993701
 31
0.0
  0
LINE
  5
3E33F
  8
0
 10
4128.6503353332973347
 20
15395.5410367590993701
 30
0.0
 11
4128.6503353332973347
 21
15295.5410367590993701
 31
0.0
  0
LINE
  5
3E340
  8
0
 10
17177.5
 20
21058.4774845128995366
 30
0.0
 11
17077.5
 21
21031.6825652697916667
 31
0.0
  0
LINE
  5
3E341
  8
0
 10
17177.5
 20
21058.4774845128995366
 30
0.0
 11
17077.5
 21
21085.2724037560110446
 31
0.0
  0
LINE
  5
3E342
  8
0
 10
17077.5
 20
21058.4774845128995366
 30
0.0
 11
17177.5
 21
21058.4774845128995366
 31
0.0
  0
LINE
  5
3E343
  8
0
 10
16677.5
 20
21058.4774845128995366
 30
0.0
 11
16777.5
 21
21085.2724037560110446
 31
0.0
  0
LINE
  5
3E344
  8
0
 10
16677.5
 20
21058.4774845128995366
 30
0.0
 11
16777.5
 21
21031.6825652697916667
 31
0.0
  0
LINE
  5
3E345
  8
0
 10
16777.5
 20
21058.4774845128995366
 30
0.0
 11
16677.5
 21
21058.4774845128995366
 31
0.0
  0
TEXT
  5
3E346
  8
SCALE
 10
16840.0
 20
21095.9774845128995366
 30
0.0
 40
75.0
  1
500
  0
LINE
  5
3E347
  8
0
 10
16677.5
 20
21058.4774845128995366
 30
0.0
 11
16577.5
 21
21031.6825652697916667
 31
0.0
  0
LINE
  5
3E348
  8
0
 10
16677.5
 20
21058.4774845128995366
 30
0.0
 11
16577.5
 21
21085.2724037560110446
 31
0.0
  0
LINE
  5
3E349
  8
0
 10
16577.5
 20
21058.4774845128995366
 30
0.0
 11
16677.5
 21
21058.4774845128995366
 31
0.0
  0
LINE
  5
3E34A
  8
0
 10
14347.5
 20
21058.4774845128995366
 30
0.0
 11
14447.5
 21
21085.2724037560110446
 31
0.0
  0
LINE
  5
3E34B
  8
0
 10
14347.5
 20
21058.4774845128995366
 30
0.0
 11
14447.5
 21
21031.6825652697916667
 31
0.0
  0
LINE
  5
3E34C
  8
0
 10
14447.5
 20
21058.4774845128995366
 30
0.0
 11
14347.5
 21
21058.4774845128995366
 31
0.0
  0
TEXT
  5
3E34D
  8
SCALE
 10
15188.75
 20
21095.9774845128995366
 30
0.0
 40
75.0
  1
取付面間:2330
  0
LINE
  5
3E34E
  8
0
 10
14347.5
 20
21058.4774845128995366
 30
0.0
 11
14247.5
 21
21031.6825652697916667
 31
0.0
  0
LINE
  5
3E34F
  8
0
 10
14347.5
 20
21058.4774845128995366
 30
0.0
 11
14247.5
 21
21085.2724037560110446
 31
0.0
  0
LINE
  5
3E350
  8
0
 10
14247.5
 20
21058.4774845128995366
 30
0.0
 11
14347.5
 21
21058.4774845128995366
 31
0.0
  0
LINE
  5
3E351
  8
0
 10
13847.5
 20
21058.4774845128995366
 30
0.0
 11
13947.5
 21
21085.2724037560110446
 31
0.0
  0
LINE
  5
3E352
  8
0
 10
13847.5
 20
21058.4774845128995366
 30
0.0
 11
13947.5
 21
21031.6825652697916667
 31
0.0
  0
LINE
  5
3E353
  8
0
 10
13947.5
 20
21058.4774845128995366
 30
0.0
 11
13847.5
 21
21058.4774845128995366
 31
0.0
  0
TEXT
  5
3E354
  8
SCALE
 10
14010.0
 20
21095.9774845128995366
 30
0.0
 40
75.0
  1
500
  0
LINE
  5
3E355
  8
0
 10
16677.5
 20
20751.7694780409401574
 30
0.0
 11
16777.5
 21
20778.5643972840516653
 31
0.0
  0
LINE
  5
3E356
  8
0
 10
16677.5
 20
20751.7694780409401574
 30
0.0
 11
16777.5
 21
20724.9745587978286494
 31
0.0
  0
LINE
  5
3E357
  8
0
 10
16777.5
 20
20751.7694780409401574
 30
0.0
 11
16677.5
 21
20751.7694780409401574
 31
0.0
  0
LINE
  5
3E358
  8
0
 10
16479.5
 20
20751.7694780409401574
 30
0.0
 11
16379.5
 21
20724.9745587978286494
 31
0.0
  0
LINE
  5
3E359
  8
0
 10
16479.5
 20
20751.7694780409401574
 30
0.0
 11
16379.5
 21
20778.5643972840516653
 31
0.0
  0
LINE
  5
3E35A
  8
0
 10
16379.5
 20
20751.7694780409401574
 30
0.0
 11
16479.5
 21
20751.7694780409401574
 31
0.0
  0
TEXT
  5
3E35B
  8
SCALE
 10
16491.0
 20
20789.2694780409401574
 30
0.0
 40
75.0
  1
198
  0
LINE
  5
3E35C
  8
0
 10
13124.4162999622803909
 20
20273.0192305276395928
 30
0.0
 11
13151.2112192053900799
 21
20173.0192305276395928
 31
0.0
  0
LINE
  5
3E35D
  8
0
 10
13124.4162999622803909
 20
20273.0192305276395928
 30
0.0
 11
13097.6213807191707019
 21
20173.0192305276395928
 31
0.0
  0
LINE
  5
3E35E
  8
0
 10
13124.4162999622803909
 20
20173.0192305276395928
 30
0.0
 11
13124.4162999622803909
 21
20273.0192305276395928
 31
0.0
  0
LINE
  5
3E35F
  8
0
 10
13124.4162999622803909
 20
19598.0192305276286788
 30
0.0
 11
13097.6213807191707019
 21
19698.0192305276286788
 31
0.0
  0
LINE
  5
3E360
  8
0
 10
13124.4162999622803909
 20
19598.0192305276286788
 30
0.0
 11
13151.2112192053900799
 21
19698.0192305276286788
 31
0.0
  0
LINE
  5
3E361
  8
0
 10
13124.4162999622803909
 20
19698.0192305276286788
 30
0.0
 11
13124.4162999622803909
 21
19598.0192305276286788
 31
0.0
  0
TEXT
  5
3E362
  8
SCALE
 10
13086.9162999622894858
 20
19835.5192305276286788
 30
0.0
 40
75.0
  1
675
 50
90.0
  0
LINE
  5
3E363
  8
0
 10
13124.4162999622803909
 20
19598.0192305276286788
 30
0.0
 11
13151.2112192053900799
 21
19498.0192305276286788
 31
0.0
  0
LINE
  5
3E364
  8
0
 10
13124.4162999622803909
 20
19598.0192305276286788
 30
0.0
 11
13097.6213807191707019
 21
19498.0192305276286788
 31
0.0
  0
LINE
  5
3E365
  8
0
 10
13124.4162999622803909
 20
19498.0192305276286788
 30
0.0
 11
13124.4162999622803909
 21
19598.0192305276286788
 31
0.0
  0
LINE
  5
3E366
  8
0
 10
13124.4162999622803909
 20
18923.0192305276286788
 30
0.0
 11
13097.6213807191707019
 21
19023.0192305276286788
 31
0.0
  0
LINE
  5
3E367
  8
0
 10
13124.4162999622803909
 20
18923.0192305276286788
 30
0.0
 11
13151.2112192053900799
 21
19023.0192305276286788
 31
0.0
  0
LINE
  5
3E368
  8
0
 10
13124.4162999622803909
 20
19023.0192305276286788
 30
0.0
 11
13124.4162999622803909
 21
18923.0192305276286788
 31
0.0
  0
TEXT
  5
3E369
  8
SCALE
 10
13086.9162999622894858
 20
19160.5192305276286788
 30
0.0
 40
75.0
  1
675
 50
90.0
  0
LINE
  5
3E36A
  8
0
 10
13444.8956440991805721
 20
19773.0192305276286788
 30
0.0
 11
13471.6905633422902611
 21
19673.0192305276286788
 31
0.0
  0
LINE
  5
3E36B
  8
0
 10
13444.8956440991805721
 20
19773.0192305276286788
 30
0.0
 11
13418.1007248560708831
 21
19673.0192305276286788
 31
0.0
  0
LINE
  5
3E36C
  8
0
 10
13444.8956440991805721
 20
19673.0192305276286788
 30
0.0
 11
13444.8956440991805721
 21
19773.0192305276286788
 31
0.0
  0
LINE
  5
3E36D
  8
0
 10
13444.8956440991805721
 20
19423.0192305276286788
 30
0.0
 11
13418.1007248560708831
 21
19523.0192305276286788
 31
0.0
  0
LINE
  5
3E36E
  8
0
 10
13444.8956440991805721
 20
19423.0192305276286788
 30
0.0
 11
13471.6905633422902611
 21
19523.0192305276286788
 31
0.0
  0
LINE
  5
3E36F
  8
0
 10
13444.8956440991805721
 20
19523.0192305276286788
 30
0.0
 11
13444.8956440991805721
 21
19423.0192305276286788
 31
0.0
  0
TEXT
  5
3E370
  8
SCALE
 10
13407.3956440991805721
 20
19504.2692305276286788
 30
0.0
 40
75.0
  1
350
 50
90.0
  0
TEXT
  5
3E371
  8
SCALE
 10
14858.9755800124294183
 20
15384.0410367590902752
 30
0.0
 40
75.0
  1
100
 50
90.0
  0
LINE
  5
3E372
  8
0
 10
14618.9755800124294183
 20
15509.0410367590993701
 30
0.0
 11
14592.1806607693197293
 21
15609.0410367590993701
 31
0.0
  0
LINE
  5
3E373
  8
0
 10
14618.9755800124294183
 20
15509.0410367590993701
 30
0.0
 11
14645.7704992555391073
 21
15609.0410367590993701
 31
0.0
  0
LINE
  5
3E374
  8
0
 10
14618.9755800124294183
 20
15609.0410367590993701
 30
0.0
 11
14618.9755800124294183
 21
15509.0410367590993701
 31
0.0
  0
LINE
  5
3E375
  8
0
 10
14618.9755800124294183
 20
15409.0410367590993701
 30
0.0
 11
14645.7704992555391073
 21
15309.0410367590993701
 31
0.0
  0
LINE
  5
3E376
  8
0
 10
14618.9755800124294183
 20
15409.0410367590993701
 30
0.0
 11
14592.1806607693197293
 21
15309.0410367590993701
 31
0.0
  0
LINE
  5
3E377
  8
0
 10
14618.9755800124294183
 20
15309.0410367590993701
 30
0.0
 11
14618.9755800124294183
 21
15409.0410367590993701
 31
0.0
  0
TEXT
  5
3E378
  8
SCALE
 10
14858.9755800124294183
 20
15034.0410367590902752
 30
0.0
 40
75.0
  1
100
 50
90.0
  0
LINE
  5
3E379
  8
0
 10
14618.9755800124294183
 20
15159.0410367590993701
 30
0.0
 11
14592.1806607693197293
 21
15259.0410367590993701
 31
0.0
  0
LINE
  5
3E37A
  8
0
 10
14618.9755800124294183
 20
15159.0410367590993701
 30
0.0
 11
14645.7704992555391073
 21
15259.0410367590993701
 31
0.0
  0
LINE
  5
3E37B
  8
0
 10
14618.9755800124294183
 20
15259.0410367590993701
 30
0.0
 11
14618.9755800124294183
 21
15159.0410367590993701
 31
0.0
  0
LINE
  5
3E37C
  8
0
 10
14618.9755800124294183
 20
15059.0410367590993701
 30
0.0
 11
14645.7704992555391073
 21
14959.0410367590993701
 31
0.0
  0
LINE
  5
3E37D
  8
0
 10
14618.9755800124294183
 20
15059.0410367590993701
 30
0.0
 11
14592.1806607693197293
 21
14959.0410367590993701
 31
0.0
  0
LINE
  5
3E37E
  8
0
 10
14618.9755800124294183
 20
14959.0410367590993701
 30
0.0
 11
14618.9755800124294183
 21
15059.0410367590993701
 31
0.0
  0
TEXT
  5
3E37F
  8
SCALE
 10
14079.7898037645300064
 20
15202.2910367590902752
 30
0.0
 40
75.0
  1
11.5
 50
90.0
  0
LINE
  5
3E380
  8
0
 10
14169.7898037645300064
 20
15284.0410367590993701
 30
0.0
 11
14196.5847230076396954
 21
15184.0410367590993701
 31
0.0
  0
LINE
  5
3E381
  8
0
 10
14169.7898037645300064
 20
15284.0410367590993701
 30
0.0
 11
14142.9948845214203175
 21
15184.0410367590993701
 31
0.0
  0
LINE
  5
3E382
  8
0
 10
14169.7898037645300064
 20
15184.0410367590993701
 30
0.0
 11
14169.7898037645300064
 21
15284.0410367590993701
 31
0.0
  0
LINE
  5
3E383
  8
0
 10
14169.7898037645300064
 20
15295.5410367590993701
 30
0.0
 11
14142.9948845214203175
 21
15395.5410367590993701
 31
0.0
  0
LINE
  5
3E384
  8
0
 10
14169.7898037645300064
 20
15295.5410367590993701
 30
0.0
 11
14196.5847230076396954
 21
15395.5410367590993701
 31
0.0
  0
LINE
  5
3E385
  8
0
 10
14169.7898037645300064
 20
15395.5410367590993701
 30
0.0
 11
14169.7898037645300064
 21
15295.5410367590993701
 31
0.0
  0
LINE
  5
3E386
  8
0
 10
27312.5
 20
21100.7245014385407558
 30
0.0
 11
27212.5
 21
21073.9295821954292478
 31
0.0
  0
LINE
  5
3E387
  8
0
 10
27312.5
 20
21100.7245014385407558
 30
0.0
 11
27212.5
 21
21127.5194206816486258
 31
0.0
  0
LINE
  5
3E388
  8
0
 10
27212.5
 20
21100.7245014385407558
 30
0.0
 11
27312.5
 21
21100.7245014385407558
 31
0.0
  0
LINE
  5
3E389
  8
0
 10
26812.5
 20
21100.7245014385407558
 30
0.0
 11
26912.5
 21
21127.5194206816486258
 31
0.0
  0
LINE
  5
3E38A
  8
0
 10
26812.5
 20
21100.7245014385407558
 30
0.0
 11
26912.5
 21
21073.9295821954292478
 31
0.0
  0
LINE
  5
3E38B
  8
0
 10
26912.5
 20
21100.7245014385407558
 30
0.0
 11
26812.5
 21
21100.7245014385407558
 31
0.0
  0
TEXT
  5
3E38C
  8
SCALE
 10
26975.0
 20
21138.2245014385407558
 30
0.0
 40
75.0
  1
500
  0
LINE
  5
3E38D
  8
0
 10
26812.5
 20
21100.7245014385407558
 30
0.0
 11
26712.5
 21
21073.9295821954292478
 31
0.0
  0
LINE
  5
3E38E
  8
0
 10
26812.5
 20
21100.7245014385407558
 30
0.0
 11
26712.5
 21
21127.5194206816486258
 31
0.0
  0
LINE
  5
3E38F
  8
0
 10
26712.5
 20
21100.7245014385407558
 30
0.0
 11
26812.5
 21
21100.7245014385407558
 31
0.0
  0
LINE
  5
3E390
  8
0
 10
24362.5
 20
21100.7245014385407558
 30
0.0
 11
24462.5
 21
21127.5194206816486258
 31
0.0
  0
LINE
  5
3E391
  8
0
 10
24362.5
 20
21100.7245014385407558
 30
0.0
 11
24462.5
 21
21073.9295821954292478
 31
0.0
  0
LINE
  5
3E392
  8
0
 10
24462.5
 20
21100.7245014385407558
 30
0.0
 11
24362.5
 21
21100.7245014385407558
 31
0.0
  0
TEXT
  5
3E393
  8
SCALE
 10
25263.75
 20
21138.2245014385407558
 30
0.0
 40
75.0
  1
取付面間:2450
  0
LINE
  5
3E394
  8
0
 10
24362.5
 20
21100.7245014385407558
 30
0.0
 11
24262.5
 21
21073.9295821954292478
 31
0.0
  0
LINE
  5
3E395
  8
0
 10
24362.5
 20
21100.7245014385407558
 30
0.0
 11
24262.5
 21
21127.5194206816486258
 31
0.0
  0
LINE
  5
3E396
  8
0
 10
24262.5
 20
21100.7245014385407558
 30
0.0
 11
24362.5
 21
21100.7245014385407558
 31
0.0
  0
LINE
  5
3E397
  8
0
 10
23862.5
 20
21100.7245014385407558
 30
0.0
 11
23962.5
 21
21127.5194206816486258
 31
0.0
  0
LINE
  5
3E398
  8
0
 10
23862.5
 20
21100.7245014385407558
 30
0.0
 11
23962.5
 21
21073.9295821954292478
 31
0.0
  0
LINE
  5
3E399
  8
0
 10
23962.5
 20
21100.7245014385407558
 30
0.0
 11
23862.5
 21
21100.7245014385407558
 31
0.0
  0
TEXT
  5
3E39A
  8
SCALE
 10
24025.0
 20
21138.2245014385407558
 30
0.0
 40
75.0
  1
500
  0
LINE
  5
3E39B
  8
0
 10
26572.5
 20
20791.2568339847093739
 30
0.0
 11
26672.5
 21
20818.0517532278208819
 31
0.0
  0
LINE
  5
3E39C
  8
0
 10
26572.5
 20
20791.2568339847093739
 30
0.0
 11
26672.5
 21
20764.46191474159059
 31
0.0
  0
LINE
  5
3E39D
  8
0
 10
26672.5
 20
20791.2568339847093739
 30
0.0
 11
26572.5
 21
20791.2568339847093739
 31
0.0
  0
LINE
  5
3E39E
  8
0
 10
26812.5
 20
20791.2568339847093739
 30
0.0
 11
26712.5
 21
20764.46191474159059
 31
0.0
  0
LINE
  5
3E39F
  8
0
 10
26812.5
 20
20791.2568339847093739
 30
0.0
 11
26712.5
 21
20818.0517532278208819
 31
0.0
  0
LINE
  5
3E3A0
  8
0
 10
26712.5
 20
20791.2568339847093739
 30
0.0
 11
26812.5
 21
20791.2568339847093739
 31
0.0
  0
TEXT
  5
3E3A1
  8
SCALE
 10
26598.75
 20
20828.7568339847093739
 30
0.0
 40
75.0
  1
240
  0
LINE
  5
3E3A2
  8
0
 10
23048.3239714215706044
 20
20288.0192305276395928
 30
0.0
 11
23075.1188906646784744
 21
20188.0192305276395928
 31
0.0
  0
LINE
  5
3E3A3
  8
0
 10
23048.3239714215706044
 20
20288.0192305276395928
 30
0.0
 11
23021.5290521784481825
 21
20188.0192305276395928
 31
0.0
  0
LINE
  5
3E3A4
  8
0
 10
23048.3239714215706044
 20
20188.0192305276395928
 30
0.0
 11
23048.3239714215706044
 21
20288.0192305276395928
 31
0.0
  0
LINE
  5
3E3A5
  8
0
 10
23048.3239714215706044
 20
19598.0192305276286788
 30
0.0
 11
23021.5290521784481825
 21
19698.0192305276286788
 31
0.0
  0
LINE
  5
3E3A6
  8
0
 10
23048.3239714215706044
 20
19598.0192305276286788
 30
0.0
 11
23075.1188906646784744
 21
19698.0192305276286788
 31
0.0
  0
LINE
  5
3E3A7
  8
0
 10
23048.3239714215706044
 20
19698.0192305276286788
 30
0.0
 11
23048.3239714215706044
 21
19598.0192305276286788
 31
0.0
  0
TEXT
  5
3E3A8
  8
SCALE
 10
23010.8239714215706044
 20
19849.2692305276286788
 30
0.0
 40
75.0
  1
690
 50
90.0
  0
LINE
  5
3E3A9
  8
0
 10
23048.3239714215706044
 20
19598.0192305276286788
 30
0.0
 11
23075.1188906646784744
 21
19498.0192305276286788
 31
0.0
  0
LINE
  5
3E3AA
  8
0
 10
23048.3239714215706044
 20
19598.0192305276286788
 30
0.0
 11
23021.5290521784481825
 21
19498.0192305276286788
 31
0.0
  0
LINE
  5
3E3AB
  8
0
 10
23048.3239714215706044
 20
19498.0192305276286788
 30
0.0
 11
23048.3239714215706044
 21
19598.0192305276286788
 31
0.0
  0
LINE
  5
3E3AC
  8
0
 10
23048.3239714215706044
 20
18908.0192305276286788
 30
0.0
 11
23021.5290521784481825
 21
19008.0192305276395928
 31
0.0
  0
LINE
  5
3E3AD
  8
0
 10
23048.3239714215706044
 20
18908.0192305276286788
 30
0.0
 11
23075.1188906646784744
 21
19008.0192305276395928
 31
0.0
  0
LINE
  5
3E3AE
  8
0
 10
23048.3239714215706044
 20
19008.0192305276395928
 30
0.0
 11
23048.3239714215706044
 21
18908.0192305276286788
 31
0.0
  0
TEXT
  5
3E3AF
  8
SCALE
 10
23010.8239714215706044
 20
19159.2692305276286788
 30
0.0
 40
75.0
  1
690
 50
90.0
  0
LINE
  5
3E3B0
  8
0
 10
23385.5210418772985577
 20
19788.0192305276286788
 30
0.0
 11
23412.3159611204100656
 21
19688.0192305276286788
 31
0.0
  0
LINE
  5
3E3B1
  8
0
 10
23385.5210418772985577
 20
19788.0192305276286788
 30
0.0
 11
23358.7261226341906877
 21
19688.0192305276286788
 31
0.0
  0
LINE
  5
3E3B2
  8
0
 10
23385.5210418772985577
 20
19688.0192305276286788
 30
0.0
 11
23385.5210418772985577
 21
19788.0192305276286788
 31
0.0
  0
LINE
  5
3E3B3
  8
0
 10
23385.5210418772985577
 20
19408.0192305276286788
 30
0.0
 11
23358.7261226341906877
 21
19508.0192305276395928
 31
0.0
  0
LINE
  5
3E3B4
  8
0
 10
23385.5210418772985577
 20
19408.0192305276286788
 30
0.0
 11
23412.3159611204100656
 21
19508.0192305276395928
 31
0.0
  0
LINE
  5
3E3B5
  8
0
 10
23385.5210418772985577
 20
19508.0192305276395928
 30
0.0
 11
23385.5210418772985577
 21
19408.0192305276286788
 31
0.0
  0
TEXT
  5
3E3B6
  8
SCALE
 10
23348.0210418772985577
 20
19504.2692305276286788
 30
0.0
 40
75.0
  1
380
 50
90.0
  0
TEXT
  5
3E3B7
  8
SCALE
 10
24823.3562349529784115
 20
15386.5410367590902752
 30
0.0
 40
75.0
  1
100
 50
90.0
  0
LINE
  5
3E3B8
  8
0
 10
24583.3562349529784115
 20
15511.5410367590993701
 30
0.0
 11
24556.5613157098705415
 21
15611.5410367590993701
 31
0.0
  0
LINE
  5
3E3B9
  8
0
 10
24583.3562349529784115
 20
15511.5410367590993701
 30
0.0
 11
24610.1511541961008334
 21
15611.5410367590993701
 31
0.0
  0
LINE
  5
3E3BA
  8
0
 10
24583.3562349529784115
 20
15611.5410367590993701
 30
0.0
 11
24583.3562349529784115
 21
15511.5410367590993701
 31
0.0
  0
LINE
  5
3E3BB
  8
0
 10
24583.3562349529784115
 20
15411.5410367590993701
 30
0.0
 11
24610.1511541961008334
 21
15311.5410367590993701
 31
0.0
  0
LINE
  5
3E3BC
  8
0
 10
24583.3562349529784115
 20
15411.5410367590993701
 30
0.0
 11
24556.5613157098705415
 21
15311.5410367590993701
 31
0.0
  0
LINE
  5
3E3BD
  8
0
 10
24583.3562349529784115
 20
15311.5410367590993701
 30
0.0
 11
24583.3562349529784115
 21
15411.5410367590993701
 31
0.0
  0
TEXT
  5
3E3BE
  8
SCALE
 10
24823.3562349529784115
 20
15006.5410367590902752
 30
0.0
 40
75.0
  1
100
 50
90.0
  0
LINE
  5
3E3BF
  8
0
 10
24583.3562349529784115
 20
15131.5410367590993701
 30
0.0
 11
24556.5613157098705415
 21
15231.5410367590993701
 31
0.0
  0
LINE
  5
3E3C0
  8
0
 10
24583.3562349529784115
 20
15131.5410367590993701
 30
0.0
 11
24610.1511541961008334
 21
15231.5410367590993701
 31
0.0
  0
LINE
  5
3E3C1
  8
0
 10
24583.3562349529784115
 20
15231.5410367590993701
 30
0.0
 11
24583.3562349529784115
 21
15131.5410367590993701
 31
0.0
  0
LINE
  5
3E3C2
  8
0
 10
24583.3562349529784115
 20
15031.5410367590993701
 30
0.0
 11
24610.1511541961008334
 21
14931.5410367590993701
 31
0.0
  0
LINE
  5
3E3C3
  8
0
 10
24583.3562349529784115
 20
15031.5410367590993701
 30
0.0
 11
24556.5613157098705415
 21
14931.5410367590993701
 31
0.0
  0
LINE
  5
3E3C4
  8
0
 10
24583.3562349529784115
 20
14931.5410367590993701
 30
0.0
 11
24583.3562349529784115
 21
15031.5410367590993701
 31
0.0
  0
TEXT
  5
3E3C5
  8
SCALE
 10
24058.2681206800007203
 20
15221.0410367590993701
 30
0.0
 40
75.0
  1
24
 50
90.0
  0
LINE
  5
3E3C6
  8
0
 10
24060.7681206800116342
 20
15271.5410367590993701
 30
0.0
 11
24087.5630399231195042
 21
15171.5410367590993701
 31
0.0
  0
LINE
  5
3E3C7
  8
0
 10
24060.7681206800116342
 20
15271.5410367590993701
 30
0.0
 11
24033.9732014369001263
 21
15171.5410367590993701
 31
0.0
  0
LINE
  5
3E3C8
  8
0
 10
24060.7681206800116342
 20
15171.5410367590993701
 30
0.0
 11
24060.7681206800116342
 21
15271.5410367590993701
 31
0.0
  0
LINE
  5
3E3C9
  8
0
 10
24060.7681206800116342
 20
15295.5410367590993701
 30
0.0
 11
24033.9732014369001263
 21
15395.5410367590993701
 31
0.0
  0
LINE
  5
3E3CA
  8
0
 10
24060.7681206800116342
 20
15295.5410367590993701
 30
0.0
 11
24087.5630399231195042
 21
15395.5410367590993701
 31
0.0
  0
LINE
  5
3E3CB
  8
0
 10
24060.7681206800116342
 20
15395.5410367590993701
 30
0.0
 11
24060.7681206800116342
 21
15295.5410367590993701
 31
0.0
  0
LINE
  5
3E3CC
  8
0
 10
37472.5
 20
21283.3929109456985316
 30
0.0
 11
37372.5
 21
21256.5979917025906616
 31
0.0
  0
LINE
  5
3E3CD
  8
0
 10
37472.5
 20
21283.3929109456985316
 30
0.0
 11
37372.5
 21
21310.1878301888100395
 31
0.0
  0
LINE
  5
3E3CE
  8
0
 10
37372.5
 20
21283.3929109456985316
 30
0.0
 11
37472.5
 21
21283.3929109456985316
 31
0.0
  0
LINE
  5
3E3CF
  8
0
 10
36972.5
 20
21283.3929109456985316
 30
0.0
 11
37072.5
 21
21310.1878301888100395
 31
0.0
  0
LINE
  5
3E3D0
  8
0
 10
36972.5
 20
21283.3929109456985316
 30
0.0
 11
37072.5
 21
21256.5979917025906616
 31
0.0
  0
LINE
  5
3E3D1
  8
0
 10
37072.5
 20
21283.3929109456985316
 30
0.0
 11
36972.5
 21
21283.3929109456985316
 31
0.0
  0
TEXT
  5
3E3D2
  8
SCALE
 10
37135.0
 20
21320.8929109456912556
 30
0.0
 40
75.0
  1
500
  0
LINE
  5
3E3D3
  8
0
 10
36972.5
 20
21283.3929109456985316
 30
0.0
 11
36872.5
 21
21256.5979917025906616
 31
0.0
  0
LINE
  5
3E3D4
  8
0
 10
36972.5
 20
21283.3929109456985316
 30
0.0
 11
36872.5
 21
21310.1878301888100395
 31
0.0
  0
LINE
  5
3E3D5
  8
0
 10
36872.5
 20
21283.3929109456985316
 30
0.0
 11
36972.5
 21
21283.3929109456985316
 31
0.0
  0
LINE
  5
3E3D6
  8
0
 10
34352.5
 20
21283.3929109456985316
 30
0.0
 11
34452.5
 21
21310.1878301888100395
 31
0.0
  0
LINE
  5
3E3D7
  8
0
 10
34352.5
 20
21283.3929109456985316
 30
0.0
 11
34452.5
 21
21256.5979917025906616
 31
0.0
  0
LINE
  5
3E3D8
  8
0
 10
34452.5
 20
21283.3929109456985316
 30
0.0
 11
34352.5
 21
21283.3929109456985316
 31
0.0
  0
TEXT
  5
3E3D9
  8
SCALE
 10
35338.75
 20
21320.8929109456912556
 30
0.0
 40
75.0
  1
取付面間:2620
  0
LINE
  5
3E3DA
  8
0
 10
34352.5
 20
21283.3929109456985316
 30
0.0
 11
34252.5
 21
21256.5979917025906616
 31
0.0
  0
LINE
  5
3E3DB
  8
0
 10
34352.5
 20
21283.3929109456985316
 30
0.0
 11
34252.5
 21
21310.1878301888100395
 31
0.0
  0
LINE
  5
3E3DC
  8
0
 10
34252.5
 20
21283.3929109456985316
 30
0.0
 11
34352.5
 21
21283.3929109456985316
 31
0.0
  0
LINE
  5
3E3DD
  8
0
 10
33852.5
 20
21283.3929109456985316
 30
0.0
 11
33952.5
 21
21310.1878301888100395
 31
0.0
  0
LINE
  5
3E3DE
  8
0
 10
33852.5
 20
21283.3929109456985316
 30
0.0
 11
33952.5
 21
21256.5979917025906616
 31
0.0
  0
LINE
  5
3E3DF
  8
0
 10
33952.5
 20
21283.3929109456985316
 30
0.0
 11
33852.5
 21
21283.3929109456985316
 31
0.0
  0
TEXT
  5
3E3E0
  8
SCALE
 10
34015.0
 20
21320.8929109456912556
 30
0.0
 40
75.0
  1
500
  0
LINE
  5
3E3E1
  8
0
 10
32752.0746556600897748
 20
20363.0192305276286788
 30
0.0
 11
32778.8695749031976447
 21
20263.0192305276395928
 31
0.0
  0
LINE
  5
3E3E2
  8
0
 10
32752.0746556600897748
 20
20363.0192305276286788
 30
0.0
 11
32725.2797364169891807
 21
20263.0192305276395928
 31
0.0
  0
LINE
  5
3E3E3
  8
0
 10
32752.0746556600897748
 20
20263.0192305276395928
 30
0.0
 11
32752.0746556600897748
 21
20363.0192305276286788
 31
0.0
  0
LINE
  5
3E3E4
  8
0
 10
32752.0746556600897748
 20
19598.0192305276286788
 30
0.0
 11
32725.2797364169891807
 21
19698.0192305276286788
 31
0.0
  0
LINE
  5
3E3E5
  8
0
 10
32752.0746556600897748
 20
19598.0192305276286788
 30
0.0
 11
32778.8695749031976447
 21
19698.0192305276286788
 31
0.0
  0
LINE
  5
3E3E6
  8
0
 10
32752.0746556600897748
 20
19698.0192305276286788
 30
0.0
 11
32752.0746556600897748
 21
19598.0192305276286788
 31
0.0
  0
TEXT
  5
3E3E7
  8
SCALE
 10
32714.5746556600897748
 20
19880.5192305276214029
 30
0.0
 40
75.0
  1
765
 50
90.0
  0
LINE
  5
3E3E8
  8
0
 10
32752.0746556600897748
 20
19598.0192305276286788
 30
0.0
 11
32778.8695749031976447
 21
19498.0192305276286788
 31
0.0
  0
LINE
  5
3E3E9
  8
0
 10
32752.0746556600897748
 20
19598.0192305276286788
 30
0.0
 11
32725.2797364169891807
 21
19498.0192305276286788
 31
0.0
  0
LINE
  5
3E3EA
  8
0
 10
32752.0746556600897748
 20
19498.0192305276286788
 30
0.0
 11
32752.0746556600897748
 21
19598.0192305276286788
 31
0.0
  0
LINE
  5
3E3EB
  8
0
 10
32752.0746556600897748
 20
18833.0192305276286788
 30
0.0
 11
32725.2797364169891807
 21
18933.0192305276286788
 31
0.0
  0
LINE
  5
3E3EC
  8
0
 10
32752.0746556600897748
 20
18833.0192305276286788
 30
0.0
 11
32778.8695749031976447
 21
18933.0192305276286788
 31
0.0
  0
LINE
  5
3E3ED
  8
0
 10
32752.0746556600897748
 20
18933.0192305276286788
 30
0.0
 11
32752.0746556600897748
 21
18833.0192305276286788
 31
0.0
  0
TEXT
  5
3E3EE
  8
SCALE
 10
32714.5746556600897748
 20
19115.5192305276214029
 30
0.0
 40
75.0
  1
765
 50
90.0
  0
TEXT
  5
3E3EF
  8
SCALE
 10
34164.5400000000081491
 20
15170.7910367590902752
 30
0.0
 40
75.0
  1
24.5
 50
90.0
  0
LINE
  5
3E3F0
  8
0
 10
34329.540000000022701
 20
15271.0410367590993701
 30
0.0
 11
34356.334919243126933
 21
15171.0410367590993701
 31
0.0
  0
LINE
  5
3E3F1
  8
0
 10
34329.540000000022701
 20
15271.0410367590993701
 30
0.0
 11
34302.745080756911193
 21
15171.0410367590993701
 31
0.0
  0
LINE
  5
3E3F2
  8
0
 10
34329.540000000022701
 20
15171.0410367590993701
 30
0.0
 11
34329.540000000022701
 21
15271.0410367590993701
 31
0.0
  0
LINE
  5
3E3F3
  8
0
 10
34329.540000000022701
 20
15295.5410367590993701
 30
0.0
 11
34302.745080756911193
 21
15395.5410367590993701
 31
0.0
  0
LINE
  5
3E3F4
  8
0
 10
34329.540000000022701
 20
15295.5410367590993701
 30
0.0
 11
34356.334919243126933
 21
15395.5410367590993701
 31
0.0
  0
LINE
  5
3E3F5
  8
0
 10
34329.540000000022701
 20
15395.5410367590993701
 30
0.0
 11
34329.540000000022701
 21
15295.5410367590993701
 31
0.0
  0
TEXT
  5
3E3F6
  8
SCALE
 10
34760.3405507767020026
 20
15411.0410367590902752
 30
0.0
 40
75.0
  1
100
 50
90.0
  0
LINE
  5
3E3F7
  8
0
 10
34520.3405507767020026
 20
15536.0410367590993701
 30
0.0
 11
34493.5456315335904947
 21
15636.0410367590993701
 31
0.0
  0
LINE
  5
3E3F8
  8
0
 10
34520.3405507767020026
 20
15536.0410367590993701
 30
0.0
 11
34547.1354700198135106
 21
15636.0410367590993701
 31
0.0
  0
LINE
  5
3E3F9
  8
0
 10
34520.3405507767020026
 20
15636.0410367590993701
 30
0.0
 11
34520.3405507767020026
 21
15536.0410367590993701
 31
0.0
  0
LINE
  5
3E3FA
  8
0
 10
34520.3405507767020026
 20
15436.0410367590993701
 30
0.0
 11
34547.1354700198135106
 21
15336.0410367590993701
 31
0.0
  0
LINE
  5
3E3FB
  8
0
 10
34520.3405507767020026
 20
15436.0410367590993701
 30
0.0
 11
34493.5456315335904947
 21
15336.0410367590993701
 31
0.0
  0
LINE
  5
3E3FC
  8
0
 10
34520.3405507767020026
 20
15336.0410367590993701
 30
0.0
 11
34520.3405507767020026
 21
15436.0410367590993701
 31
0.0
  0
TEXT
  5
3E3FD
  8
SCALE
 10
34760.3405507767020026
 20
14981.0410367590902752
 30
0.0
 40
75.0
  1
100
 50
90.0
  0
LINE
  5
3E3FE
  8
0
 10
34520.3405507767020026
 20
15106.0410367590993701
 30
0.0
 11
34493.5456315335904947
 21
15206.0410367590993701
 31
0.0
  0
LINE
  5
3E3FF
  8
0
 10
34520.3405507767020026
 20
15106.0410367590993701
 30
0.0
 11
34547.1354700198135106
 21
15206.0410367590993701
 31
0.0
  0
LINE
  5
3E400
  8
0
 10
34520.3405507767020026
 20
15206.0410367590993701
 30
0.0
 11
34520.3405507767020026
 21
15106.0410367590993701
 31
0.0
  0
LINE
  5
3E401
  8
0
 10
34520.3405507767020026
 20
15006.0410367590993701
 30
0.0
 11
34547.1354700198135106
 21
14906.0410367590993701
 31
0.0
  0
LINE
  5
3E402
  8
0
 10
34520.3405507767020026
 20
15006.0410367590993701
 30
0.0
 11
34493.5456315335904947
 21
14906.0410367590993701
 31
0.0
  0
LINE
  5
3E403
  8
0
 10
34520.3405507767020026
 20
14906.0410367590993701
 30
0.0
 11
34520.3405507767020026
 21
15006.0410367590993701
 31
0.0
  0
LINE
  5
3E404
  8
0
 10
36972.5
 20
20872.0682212532410631
 30
0.0
 11
36872.5
 21
20845.2733020101295551
 31
0.0
  0
LINE
  5
3E405
  8
0
 10
36972.5
 20
20872.0682212532410631
 30
0.0
 11
36872.5
 21
20898.8631404963489331
 31
0.0
  0
LINE
  5
3E406
  8
0
 10
36872.5
 20
20872.0682212532410631
 30
0.0
 11
36972.5
 21
20872.0682212532410631
 31
0.0
  0
LINE
  5
3E407
  8
0
 10
36672.5
 20
20872.0682212532410631
 30
0.0
 11
36772.5
 21
20898.8631404963489331
 31
0.0
  0
LINE
  5
3E408
  8
0
 10
36672.5
 20
20872.0682212532410631
 30
0.0
 11
36772.5
 21
20845.2733020101295551
 31
0.0
  0
LINE
  5
3E409
  8
0
 10
36772.5
 20
20872.0682212532410631
 30
0.0
 11
36672.5
 21
20872.0682212532410631
 31
0.0
  0
TEXT
  5
3E40A
  8
SCALE
 10
36735.0
 20
20909.5682212532410631
 30
0.0
 40
75.0
  1
300
  0
LINE
  5
3E40B
  8
0
 10
33395.1105566453625215
 20
19813.0192305276395928
 30
0.0
 11
33421.9054758884813054
 21
19713.0192305276286788
 31
0.0
  0
LINE
  5
3E40C
  8
0
 10
33395.1105566453625215
 20
19813.0192305276395928
 30
0.0
 11
33368.3156374022510136
 21
19713.0192305276286788
 31
0.0
  0
LINE
  5
3E40D
  8
0
 10
33395.1105566453625215
 20
19713.0192305276286788
 30
0.0
 11
33395.1105566453625215
 21
19813.0192305276395928
 31
0.0
  0
LINE
  5
3E40E
  8
0
 10
33395.1105566453625215
 20
19383.0192305276286788
 30
0.0
 11
33368.3156374022510136
 21
19483.0192305276286788
 31
0.0
  0
LINE
  5
3E40F
  8
0
 10
33395.1105566453625215
 20
19383.0192305276286788
 30
0.0
 11
33421.9054758884813054
 21
19483.0192305276286788
 31
0.0
  0
LINE
  5
3E410
  8
0
 10
33395.1105566453625215
 20
19483.0192305276286788
 30
0.0
 11
33395.1105566453625215
 21
19383.0192305276286788
 31
0.0
  0
TEXT
  5
3E411
  8
SCALE
 10
33357.6105566453625215
 20
19504.2692305276214029
 30
0.0
 40
75.0
  1
430
 50
90.0
  0
ENDSEC
  0
EOF
