  0
SECTION
  2
HEADER
  9
$ACADVER
  1
AC1009
  9
$INSBASE
 10
0.0
 20
0.0
 30
0.0
  9
$EXTMIN
 10
207.4316672912391084
 20
-0.9107231880479957
 30
-0.0015258207003583
  9
$EXTMAX
 10
40701.8311635564023163
 20
27750.9420802864115103
 30
0.0000000349246037
  9
$LIMMIN
 10
0.0
 20
0.0
  9
$LIMMAX
 10
42050.0
 20
29700.0
  9
$ORTHOMODE
 70
     1
  9
$REGENMODE
 70
     1
  9
$FILLMODE
 70
     1
  9
$QTEXTMODE
 70
     0
  9
$MIRRTEXT
 70
     0
  9
$DRAGMODE
 70
     2
  9
$LTSCALE
 40
400.0
  9
$OSMODE
 70
   487
  9
$ATTMODE
 70
     1
  9
$TEXTSIZE
 40
150.0
  9
$TRACEWID
 40
0.05
  9
$TEXTSTYLE
  7
STANDARD
  9
$CLAYER
  8
UL1
  9
$CELTYPE
  6
BYLAYER
  9
$CECOLOR
 62
   256
  9
$DIMSCALE
 40
50.0
  9
$DIMASZ
 40
2.0
  9
$DIMEXO
 40
2.0
  9
$DIMDLI
 40
7.0
  9
$DIMRND
 40
0.0
  9
$DIMDLE
 40
0.0
  9
$DIMEXE
 40
1.8
  9
$DIMTP
 40
0.0
  9
$DIMTM
 40
0.0
  9
$DIMTXT
 40
2.0
  9
$DIMCEN
 40
0.1
  9
$DIMTSZ
 40
0.0
  9
$DIMTOL
 70
     0
  9
$DIMLIM
 70
     0
  9
$DIMTIH
 70
     0
  9
$DIMTOH
 70
     0
  9
$DIMSE1
 70
     0
  9
$DIMSE2
 70
     0
  9
$DIMTAD
 70
     0
  9
$DIMZIN
 70
     9
  9
$DIMBLK
  1

  9
$DIMASO
 70
     1
  9
$DIMSHO
 70
     1
  9
$DIMPOST
  1

  9
$DIMAPOST
  1

  9
$DIMALT
 70
     0
  9
$DIMALTD
 70
     2
  9
$DIMALTF
 40
25.3999999999999986
  9
$DIMLFAC
 40
1.0
  9
$DIMTOFL
 70
     1
  9
$DIMTVP
 40
1.0
  9
$DIMTIX
 70
     0
  9
$DIMSOXD
 70
     0
  9
$DIMSAH
 70
     1
  9
$DIMBLK1
  1
YAZ1
  9
$DIMBLK2
  1
YAZ1
  9
$DIMSTYLE
  2
YAZ1
  9
$DIMCLRD
 70
   256
  9
$DIMCLRE
 70
   256
  9
$DIMCLRT
 70
   256
  9
$DIMTFAC
 40
1.0
  9
$DIMGAP
 40
0.0
  9
$LUNITS
 70
     2
  9
$LUPREC
 70
     3
  9
$SKETCHINC
 40
0.1
  9
$FILLETRAD
 40
0.0
  9
$AUNITS
 70
     0
  9
$AUPREC
 70
     2
  9
$MENU
  1
amecex
  9
$ELEVATION
 40
0.0
  9
$PELEVATION
 40
0.0
  9
$THICKNESS
 40
0.0
  9
$LIMCHECK
 70
     0
  9
$BLIPMODE
 70
     0
  9
$CHAMFERA
 40
0.0
  9
$CHAMFERB
 40
0.0
  9
$SKPOLY
 70
     0
  9
$TDCREATE
 40
2453896.4658333328552544
  9
$TDUPDATE
 40
2459657.5399884260259569
  9
$TDINDWG
 40
1.4877316204
  9
$TDUSRTIMER
 40
1.4877316204
  9
$USRTIMER
 70
     1
  9
$ANGBASE
 50
0.0
  9
$ANGDIR
 70
     0
  9
$PDMODE
 70
     0
  9
$PDSIZE
 40
0.0
  9
$PLINEWID
 40
0.0
  9
$COORDS
 70
     1
  9
$SPLFRAME
 70
     0
  9
$SPLINETYPE
 70
     6
  9
$SPLINESEGS
 70
     8
  9
$ATTDIA
 70
     1
  9
$ATTREQ
 70
     1
  9
$HANDLING
 70
     1
  9
$HANDSEED
  5
3F476
  9
$SURFTAB1
 70
     6
  9
$SURFTAB2
 70
     6
  9
$SURFTYPE
 70
     6
  9
$SURFU
 70
     6
  9
$SURFV
 70
     6
  9
$UCSNAME
  2

  9
$UCSORG
 10
0.0
 20
0.0
 30
0.0
  9
$UCSXDIR
 10
1.0
 20
0.0
 30
0.0
  9
$UCSYDIR
 10
0.0
 20
1.0
 30
0.0
  9
$PUCSNAME
  2

  9
$PUCSORG
 10
0.0
 20
0.0
 30
0.0
  9
$PUCSXDIR
 10
1.0
 20
0.0
 30
0.0
  9
$PUCSYDIR
 10
0.0
 20
1.0
 30
0.0
  9
$USERI1
 70
     0
  9
$USERI2
 70
     0
  9
$USERI3
 70
     0
  9
$USERI4
 70
     0
  9
$USERI5
 70
     0
  9
$USERR1
 40
30.0
  9
$USERR2
 40
0.0
  9
$USERR3
 40
0.0
  9
$USERR4
 40
0.0
  9
$USERR5
 40
0.0
  9
$WORLDVIEW
 70
     1
  9
$SHADEDGE
 70
     3
  9
$SHADEDIF
 70
    70
  9
$TILEMODE
 70
     1
  9
$MAXACTVP
 70
    16
  9
$PLIMCHECK
 70
     0
  9
$PEXTMIN
 10
1.0000000000000000E+20
 20
1.0000000000000000E+20
 30
1.0000000000000000E+20
  9
$PEXTMAX
 10
-1.0000000000000000E+20
 20
-1.0000000000000000E+20
 30
-1.0000000000000000E+20
  9
$PLIMMIN
 10
0.0
 20
0.0
  9
$PLIMMAX
 10
12.0
 20
9.0
  9
$UNITMODE
 70
     0
  9
$VISRETAIN
 70
     0
  9
$PLINEGEN
 70
     0
  9
$PSLTSCALE
 70
     0
  0
ENDSEC
  0
SECTION
  2
TABLES
  0
TABLE
  2
VPORT
 70
     1
  0
VPORT
  2
*ACTIVE
 70
     0
 10
0.0
 20
0.0
 11
1.0
 21
1.0
 12
20454.6314154238207266
 22
13875.0156785491799383
 13
0.0
 23
0.0
 14
1.0
 24
1.0
 15
0.0
 25
0.0
 16
0.0
 26
0.0
 36
1.0
 17
0.0
 27
0.0
 37
0.0
 40
27958.4422784382804821
 41
1.885714285714285
 42
50.0
 43
0.0
 44
0.0
 50
0.0
 51
0.0
 71
     0
 72
   100
 73
     1
 74
     1
 75
     0
 76
     0
 77
     0
 78
     0
  0
ENDTAB
  0
TABLE
  2
LTYPE
 70
    16
  0
LTYPE
  2
CONTINUOUS
 70
     0
  3
実線
 72
    65
 73
     0
 40
0.0
  0
LTYPE
  2
CENTER
 70
     0
  3
____ _ ____ _ ____ _ ____ _ ____ _ ____ _ ____
 72
    65
 73
     4
 40
2.0
 49
1.25
 49
-0.25
 49
0.25
 49
-0.25
  0
LTYPE
  2
DASHED
 70
     0
  3
__ __ __ __ __ __ __ __ __ __ __ __ __ __ __
 72
    65
 73
     2
 40
0.75
 49
0.5
 49
-0.25
  0
LTYPE
  2
PHANTOM
 70
     0
  3
______  __  __  ______  __  __  ______  __  __ 
 72
    65
 73
     6
 40
2.5
 49
1.25
 49
-0.25
 49
0.25
 49
-0.25
 49
0.25
 49
-0.25
  0
LTYPE
  2
HIDDEN
 70
     0
  3
Hidden __ __ __ __ __ __ __ __ __ __ __ __ __ _
 72
    65
 73
     2
 40
9.5249999999999986
 49
6.3499999999999988
 49
-3.1749999999999989
  0
LTYPE
  2
PHANTOM2
 70
     0
  3
Phantom (.5x) ___ _ _ ___ _ _ ___ _ _ ___ _ _
 72
    65
 73
     6
 40
31.75
 49
15.875
 49
-3.1749999999999989
 49
3.1749999999999989
 49
-3.1749999999999989
 49
3.1749999999999989
 49
-3.1749999999999989
  0
LTYPE
  2
AM_ISO02W050
 70
     0
  3
__ __ __ __ __ __ __ __ __ __ __ __ __ __ __
 72
    65
 73
     2
 40
7.5
 49
6.0
 49
-1.5
  0
LTYPE
  2
AM_ISO08W050
 70
     0
  3
____ . ____ . ____ . ____ . ____ . ____ . ____
 72
    65
 73
     4
 40
18.0
 49
12.0
 49
-1.5
 49
3.0
 49
-1.5
  0
LTYPE
  2
AM_ISO09W050
 70
     0
  3
_____ . . _____ . . _____ . . ____ .. ____
 72
    65
 73
     6
 40
22.5
 49
12.0
 49
-1.5
 49
3.0
 49
-1.5
 49
3.0
 49
-1.5
  0
LTYPE
  2
AMCONSTR
 70
     0
  3
_______________________
 72
    65
 73
     2
 40
9999.0
 49
9999.0
 49
0.0
  0
LTYPE
  2
AM_ISO08W050X2
 70
     0
  3
__ . __ . __ . __ . __ . __
 72
    65
 73
     4
 40
9.0
 49
6.0
 49
-0.75
 49
1.5
 49
-0.75
  0
LTYPE
  2
AM_ISO02W050X2
 70
     0
  3
 _ _ _ _ _ _ _ _ _ _ _ _
 72
    65
 73
     2
 40
3.75
 49
3.0
 49
-0.75
  0
LTYPE
  2
AMZIGZAG
 70
     0
  3
/\/-/\/-/\/-/\/-/\/-/\/
 72
    65
 73
     2
 40
11.0000999999999998
 49
0.0001
 49
-11.0
  0
LTYPE
  2
ACISOWELD
 70
     0
  3
_ _ _ _ _
 72
    65
 73
     2
 40
2.0
 49
2.0
 49
-1.0
  0
LTYPE
  2
ACISOTGL
 70
     0
  3
_ _ _ _ _
 72
    65
 73
     2
 40
3.0
 49
2.0
 49
-1.0
  0
LTYPE
  2
ACISOTGB
 70
     0
  3
__ . . __ . .
 72
    65
 73
     6
 40
9.0
 49
4.0
 49
-1.0
 49
1.0
 49
-1.0
 49
1.0
 49
-1.0
  0
ENDTAB
  0
TABLE
  2
LAYER
 70
     9
  0
LAYER
  2
0
 70
     0
 62
     7
  6
CONTINUOUS
  0
LAYER
  2
1
 70
     0
 62
     4
  6
CONTINUOUS
  0
LAYER
  2
CENTER
 70
     0
 62
     1
  6
CENTER
  0
LAYER
  2
GAWA
 70
     0
 62
     2
  6
CONTINUOUS
  0
LAYER
  2
SCALE
 70
     0
 62
     4
  6
CONTINUOUS
  0
LAYER
  2
UL1
 70
     0
 62
     3
  6
PHANTOM
  0
LAYER
  2
KARISEN
 70
     0
 62
     5
  6
DASHED
  0
LAYER
  2
AM_5
 70
     0
 62
     3
  6
CONTINUOUS
  0
LAYER
  2
DEFPOINTS
 70
     0
 62
     7
  6
CONTINUOUS
  0
ENDTAB
  0
TABLE
  2
STYLE
 70
     4
  0
STYLE
  2
STANDARD
 70
     0
 40
0.0
 41
1.0
 50
0.0
 71
     0
 42
150.0
  3
TXT
  4
BIGFONT
  0
STYLE
  2

 70
     1
 40
0.0
 41
1.0
 50
0.0
 71
     0
 42
150.0
  3
genltshp.shx
  4

  0
STYLE
  2
ACISOTS
 70
     0
 40
0.0
 41
1.0
 50
0.0
 71
     0
 42
150.0
  3
isocp.shx
  4

  0
STYLE
  2
ACISOGDT
 70
     0
 40
0.0
 41
1.0
 50
0.0
 71
     0
 42
150.0
  3
amgdt.shx
  4

  0
ENDTAB
  0
TABLE
  2
VIEW
 70
     0
  0
ENDTAB
  0
TABLE
  2
UCS
 70
     0
  0
ENDTAB
  0
TABLE
  2
APPID
 70
    16
  0
APPID
  2
ACAD
 70
     0
  0
APPID
  2
ACE-LT__COPYRIGHT_TRIALSOFT-JPN
 70
     0
  0
APPID
  2
MCAD_NO_VIS
 70
     0
  0
APPID
  2
ACAD_TEMP_GRAPHIC
 70
     0
  0
APPID
  2
ACATTRIBSERVICES
 70
     0
  0
APPID
  2
DESIGNERASSEMBLIES
 70
     0
  0
APPID
  2
ACAD_DSTYLE_DIMJAG
 70
     0
  0
APPID
  2
ACAD_DSTYLE_DIMBREAK
 70
     0
  0
APPID
  2
ACAD_NAV_VCDISPLAY
 70
     0
  0
APPID
  2
ACAECLAYERSTANDARD
 70
     0
  0
APPID
  2
GENIUS_GENDTOL_13
 70
     0
  0
APPID
  2
ACAD_DSTYLE_DIMINSPECT
 70
     0
  0
APPID
  2
ACADANNOMONITORALERTICONDI
 70
     0
  0
APPID
  2
ACAD_EXEMPT_FROM_CAD_STANDARDS
 70
     0
  0
APPID
  2
GENIUS_GENDIMSH_14
 70
     0
  0
APPID
  2
ACAD_MLEADERVER
 70
     0
  0
ENDTAB
  0
TABLE
  2
DIMSTYLE
 70
    11
  0
DIMSTYLE
  2
YAZ1
 70
     0
  3

  4

  5

  6
YAZ1
  7
YAZ1
 40
50.0
 41
2.0
 42
0.1
 43
7.0
 44
1.8
 45
0.0
 46
0.0
 47
0.0
 48
0.0
140
2.5
141
0.1
142
0.0
143
25.3999999999999986
144
1.0
145
1.0
146
1.0
147
0.0
 71
     0
 72
     0
 73
     0
 74
     0
 75
     0
 76
     0
 77
     0
 78
     9
170
     0
171
     2
172
     1
173
     1
174
     0
175
     0
176
   256
177
   256
178
   256
  0
DIMSTYLE
  2
AM_ISO
 70
     0
  3

  4
"
  5

  6

  7

 40
1.0
 41
3.5
 42
1.0
 43
10.0
 44
1.0
 45
0.0
 46
0.0
 47
0.1
 48
0.1
140
3.5
141
0.0
142
0.0
143
0.0393701
144
1.0
145
0.0
146
0.71
147
1.5
 71
     0
 72
     0
 73
     0
 74
     0
 75
     0
 76
     0
 77
     1
 78
     8
170
     0
171
     2
172
     1
173
     0
174
     0
175
     0
176
   256
177
   256
178
     2
  0
DIMSTYLE
  2
AM_ISO$3
 70
     0
  3

  4
"
  5

  6

  7

 40
1.0
 41
3.5
 42
1.0
 43
10.0
 44
1.0
 45
0.0
 46
0.0
 47
0.1
 48
0.1
140
3.5
141
0.0
142
0.0
143
0.0393701
144
1.0
145
0.0
146
0.71
147
1.5
 71
     0
 72
     0
 73
     0
 74
     1
 75
     0
 76
     0
 77
     1
 78
     8
170
     0
171
     2
172
     0
173
     0
174
     0
175
     0
176
   256
177
   256
178
     2
  0
DIMSTYLE
  2
AM_ISO$4
 70
     0
  3

  4
"
  5

  6

  7

 40
1.0
 41
3.5
 42
1.0
 43
10.0
 44
1.0
 45
0.0
 46
0.0
 47
0.1
 48
0.1
140
3.5
141
0.0
142
0.0
143
0.0393701
144
1.0
145
0.0
146
0.71
147
1.5
 71
     0
 72
     0
 73
     0
 74
     1
 75
     0
 76
     0
 77
     1
 78
     8
170
     0
171
     2
172
     0
173
     0
174
     0
175
     0
176
   256
177
   256
178
     2
  0
DIMSTYLE
  2
AM_ISO$6
 70
     0
  3

  4
"
  5

  6

  7

 40
1.0
 41
3.5
 42
1.0
 43
10.0
 44
1.0
 45
0.0
 46
0.0
 47
0.1
 48
0.1
140
3.5
141
0.0
142
0.0
143
0.0393701
144
1.0
145
0.0
146
0.71
147
1.5
 71
     0
 72
     0
 73
     0
 74
     0
 75
     0
 76
     0
 77
     0
 78
     8
170
     0
171
     2
172
     1
173
     0
174
     0
175
     0
176
   256
177
   256
178
     2
  0
DIMSTYLE
  2
AM_ISO$7
 70
     0
  3

  4
"
  5

  6

  7

 40
1.0
 41
3.5
 42
1.0
 43
10.0
 44
1.0
 45
0.0
 46
0.0
 47
0.1
 48
0.1
140
3.5
141
0.0
142
0.0
143
0.0393701
144
1.0
145
0.0
146
0.71
147
1.5
 71
     0
 72
     0
 73
     0
 74
     0
 75
     0
 76
     0
 77
     1
 78
     8
170
     0
171
     2
172
     1
173
     0
174
     0
175
     0
176
   256
177
   256
178
     2
  0
DIMSTYLE
  2
AM_ISO$SF
 70
     0
  3

  4
"
  5

  6

  7

 40
1.0
 41
3.5
 42
1.0
 43
10.0
 44
1.0
 45
0.0
 46
0.0
 47
0.1
 48
0.1
140
3.5
141
0.0
142
0.0
143
0.0393701
144
1.0
145
0.0
146
0.71
147
1.5
 71
     0
 72
     0
 73
     0
 74
     0
 75
     1
 76
     1
 77
     1
 78
     8
170
     0
171
     2
172
     1
173
     0
174
     0
175
     0
176
   256
177
   256
178
     2
  0
DIMSTYLE
  2
AM_ISO$SH
 70
     0
  3

  4
"
  5

  6
GENAXEH
  7

 40
1.0
 41
3.5
 42
1.0
 43
10.0
 44
1.0
 45
0.0
 46
0.0
 47
0.1
 48
0.1
140
3.5
141
0.0
142
0.0
143
0.0393701
144
2.0
145
0.0
146
0.71
147
1.5
 71
     0
 72
     0
 73
     0
 74
     0
 75
     1
 76
     1
 77
     1
 78
     8
170
     0
171
     2
172
     1
173
     1
174
     0
175
     0
176
   256
177
   256
178
     2
  0
DIMSTYLE
  2
DOT1
 70
     0
  3

  4

  5
DOT1
  6
DOT1
  7
DOT1
 40
50.0
 41
2.0
 42
0.1
 43
7.0
 44
1.8
 45
0.0
 46
0.0
 47
0.0
 48
0.0
140
3.0
141
0.1
142
0.0
143
25.3999999999999986
144
1.0
145
1.0
146
1.0
147
0.0
 71
     0
 72
     0
 73
     0
 74
     0
 75
     0
 76
     0
 77
     0
 78
     9
170
     0
171
     2
172
     1
173
     1
174
     0
175
     0
176
   256
177
   256
178
   256
  0
DIMSTYLE
  2
YAZ3
 70
     0
  3

  4

  5

  6
YAZ3
  7
YAZ3
 40
50.0
 41
2.0
 42
0.1
 43
7.0
 44
1.8
 45
0.0
 46
0.0
 47
0.0
 48
0.0
140
3.0
141
0.1
142
0.0
143
25.3999999999999986
144
1.0
145
1.0
146
1.0
147
0.0
 71
     0
 72
     0
 73
     0
 74
     0
 75
     0
 76
     0
 77
     0
 78
     9
170
     0
171
     2
172
     1
173
     1
174
     0
175
     0
176
   256
177
   256
178
   256
  0
DIMSTYLE
  2
YAZ1$0
 70
     0
  3

  4

  5

  6
YAZ1
  7
YAZ1
 40
50.0
 41
2.0
 42
0.1
 43
7.0
 44
1.8
 45
0.0
 46
0.0
 47
0.0
 48
0.0
140
2.5
141
0.1
142
0.0
143
25.3999999999999986
144
1.0
145
1.0
146
1.0
147
0.0
 71
     0
 72
     0
 73
     0
 74
     0
 75
     0
 76
     0
 77
     0
 78
     9
170
     0
171
     2
172
     1
173
     1
174
     0
175
     0
176
   256
177
   256
178
   256
  0
ENDTAB
  0
ENDSEC
  0
SECTION
  2
BLOCKS
  0
BLOCK
  8
0
  2
$MODEL_SPACE
 70
     0
 10
0.0
 20
0.0
 30
0.0
  3
$MODEL_SPACE
  1

  0
ENDBLK
  5
20B
  8
0
  0
BLOCK
 67
     1
  8
0
  2
$PAPER_SPACE
 70
     0
 10
0.0
 20
0.0
 30
0.0
  3
$PAPER_SPACE
  1

  0
ENDBLK
  5
209
 67
     1
  8
0
  0
BLOCK
  8
0
  2
YAZ1
 70
     0
 10
0.0
 20
0.0
 30
0.0
  3
YAZ1
  1

  0
LINE
  5
255
  8
0
 10
0.0
 20
0.0
 30
0.0
 11
-1.0
 21
-0.2679491924311037
 31
0.0
  0
LINE
  5
256
  8
0
 10
0.0
 20
0.0
 30
0.0
 11
-1.0
 21
0.2679491924311037
 31
0.0
  0
LINE
  5
257
  8
0
 10
-1.0
 20
0.0
 30
0.0
 11
0.0
 21
0.0
 31
0.0
  0
ENDBLK
  5
259
  8
0
  0
BLOCK
  8
0
  2
INSLYTXT
 70
     0
 10
0.0
 20
0.0
 30
0.0
  3
INSLYTXT
  1

  0
ENDBLK
  5
2F2
  8
0
  0
BLOCK
  8
0
  2
GENAXEH
 70
     0
 10
0.0
 20
0.0
 30
0.0
  3
GENAXEH
  1

  0
LINE
  5
3E214
  8
0
 10
-1.0
 20
0.0
 30
0.0
 11
1.0
 21
0.0
 31
0.0
  0
ENDBLK
  5
3E216
  8
0
  0
BLOCK
  8
0
  2
DOT1
 70
     0
 10
184.0
 20
131.0
 30
0.0
  3
DOT1
  1

  0
LINE
  5
3E243
  8
0
 10
183.0
 20
131.0
 30
0.0
 11
184.0
 21
131.0
 31
0.0
  0
POLYLINE
  5
3E244
  8
0
 66
     1
 10
0.0
 20
0.0
 30
0.0
 70
     1
 40
0.25
 41
0.25
  0
VERTEX
  5
3F3CC
  8
0
 10
183.875
 20
131.0
 30
0.0
 42
1.0
  0
VERTEX
  5
3F3CD
  8
0
 10
184.125
 20
131.0
 30
0.0
 42
1.0
  0
SEQEND
  5
3F3CE
  8
0
  0
ENDBLK
  5
3E245
  8
0
  0
BLOCK
  8
0
  2
YAZ3
 70
     0
 10
0.0
 20
0.0
 30
0.0
  3
YAZ3
  1

  0
SOLID
  5
3E248
  8
0
 10
0.0
 20
0.0
 30
0.0
 11
-1.0
 21
0.2679491924311037
 31
0.0
 12
-1.0
 22
-0.2679491924311037
 32
0.0
 13
-1.0
 23
-0.2679491924311037
 33
0.0
  0
LINE
  5
3E249
  8
0
 10
0.0
 20
0.0
 30
0.0
 11
-1.0
 21
-0.2679491924311037
 31
0.0
  0
LINE
  5
3E24A
  8
0
 10
0.0
 20
0.0
 30
0.0
 11
-1.0
 21
0.2679491924311037
 31
0.0
  0
LINE
  5
3E24B
  8
0
 10
-1.0
 20
0.0
 30
0.0
 11
0.0
 21
0.0
 31
0.0
  0
ENDBLK
  5
3E24C
  8
0
  0
BLOCK
  8
0
  2
*D7
 70
     1
 10
0.0
 20
0.0
 30
0.0
  3
*D7
  1

  0
LINE
  5
3F10D
  8
SCALE
 10
3797.5
 20
20353.0192305276286788
 30
0.0
 11
3797.5
 21
21043.0192305276286788
 31
0.0
  0
LINE
  5
3F10E
  8
SCALE
 10
4297.5
 20
19853.0192305276286788
 30
0.0
 11
4297.5
 21
21043.0192305276286788
 31
0.0
  0
LINE
  5
3F10F
  8
SCALE
 10
3897.5
 20
20953.0192305276286788
 30
0.0
 11
4197.5
 21
20953.0192305276286788
 31
0.0
  0
INSERT
  5
3F110
  8
SCALE
  2
YAZ1
 10
3797.5
 20
20953.0192305276286788
 30
0.0
 41
100.0
 42
100.0
 43
100.0
 50
180.0
  0
INSERT
  5
3F111
  8
SCALE
  2
YAZ1
 10
4297.5
 20
20953.0192305276286788
 30
0.0
 41
100.0
 42
100.0
 43
100.0
  0
INSERT
  5
3F112
  8
UL1
  2
*U85
 10
0.0
 20
0.0
 30
0.0
  0
POINT
  5
3F113
  8
DEFPOINTS
 62
     0
 10
3797.5
 20
20253.0192305276286788
 30
0.0
  0
POINT
  5
3F114
  8
DEFPOINTS
 62
     0
 10
4297.5
 20
19753.0192305276286788
 30
0.0
  0
POINT
  5
3F115
  8
DEFPOINTS
 62
     0
 10
4297.5
 20
20953.0192305276286788
 30
0.0
  0
ENDBLK
  5
3E2B2
  8
0
  0
BLOCK
  8
0
  2
*D8
 70
     1
 10
0.0
 20
0.0
 30
0.0
  3
*D8
  1

  0
LINE
  5
3F116
  8
SCALE
 10
6577.5
 20
20260.8315276306602755
 30
0.0
 11
6577.5
 21
21043.0192305276214029
 31
0.0
  0
LINE
  5
3F117
  8
SCALE
 10
4297.5
 20
19853.0192305276214029
 30
0.0
 11
4297.5
 21
21043.0192305276214029
 31
0.0
  0
LINE
  5
3F118
  8
SCALE
 10
6477.5
 20
20953.0192305276214029
 30
0.0
 11
4397.4999999999990905
 21
20953.0192305276214029
 31
0.0
  0
INSERT
  5
3F119
  8
SCALE
  2
YAZ1
 10
6577.5
 20
20953.0192305276214029
 30
0.0
 41
100.0
 42
100.0
 43
100.0
  0
INSERT
  5
3F11A
  8
SCALE
  2
YAZ1
 10
4297.5
 20
20953.0192305276214029
 30
0.0
 41
100.0
 42
100.0
 43
100.0
 50
180.0
  0
INSERT
  5
3F11B
  8
UL1
  2
*U86
 10
0.0
 20
0.0
 30
0.0
  0
POINT
  5
3F11C
  8
DEFPOINTS
 62
     0
 10
6577.5
 20
20160.8315276306602755
 30
0.0
  0
POINT
  5
3F11D
  8
DEFPOINTS
 62
     0
 10
4297.5
 20
19753.0192305276214029
 30
0.0
  0
POINT
  5
3F11E
  8
DEFPOINTS
 62
     0
 10
4297.5
 20
20953.0192305276214029
 30
0.0
  0
ENDBLK
  5
3E2FE
  8
0
  0
BLOCK
  8
0
  2
*D9
 70
     1
 10
0.0
 20
0.0
 30
0.0
  3
*D9
  1

  0
LINE
  5
3F11F
  8
SCALE
 10
7077.5
 20
20353.0192305276286788
 30
0.0
 11
7077.5
 21
21043.0192305276214029
 31
0.0
  0
LINE
  5
3F120
  8
SCALE
 10
6577.5
 20
20260.8315276306602755
 30
0.0
 11
6577.5
 21
21043.0192305276214029
 31
0.0
  0
LINE
  5
3F121
  8
SCALE
 10
6977.5
 20
20953.0192305276214029
 30
0.0
 11
6677.5000000000009095
 21
20953.0192305276214029
 31
0.0
  0
INSERT
  5
3F122
  8
SCALE
  2
YAZ1
 10
7077.5
 20
20953.0192305276214029
 30
0.0
 41
100.0
 42
100.0
 43
100.0
  0
INSERT
  5
3F123
  8
SCALE
  2
YAZ1
 10
6577.5
 20
20953.0192305276214029
 30
0.0
 41
100.0
 42
100.0
 43
100.0
 50
180.0
  0
INSERT
  5
3F124
  8
UL1
  2
*U87
 10
0.0
 20
0.0
 30
0.0
  0
POINT
  5
3F125
  8
DEFPOINTS
 62
     0
 10
7077.5
 20
20253.0192305276214029
 30
0.0
  0
POINT
  5
3F126
  8
DEFPOINTS
 62
     0
 10
6577.5
 20
20160.8315276306602755
 30
0.0
  0
POINT
  5
3F127
  8
DEFPOINTS
 62
     0
 10
6577.5
 20
20953.0192305276214029
 30
0.0
  0
ENDBLK
  5
3E31E
  8
0
  0
BLOCK
  8
0
  2
*D10
 70
     1
 10
0.0
 20
0.0
 30
0.0
  3
*D10
  1

  0
LINE
  5
3F102
  8
SCALE
 10
6577.5
 20
20353.0192305276286788
 30
0.0
 11
6577.5
 21
20693.0192305276214029
 31
0.0
  0
LINE
  5
3F103
  8
SCALE
 10
6400.5
 20
20353.0192305276286788
 30
0.0
 11
6400.5
 21
20693.0192305276214029
 31
0.0
  0
LINE
  5
3F104
  8
SCALE
 10
6677.5000000000009095
 20
20603.0192305276214029
 30
0.0
 11
6777.5
 21
20603.0192305276214029
 31
0.0
  0
LINE
  5
3F105
  8
SCALE
 10
6300.5
 20
20603.0192305276214029
 30
0.0
 11
6200.5
 21
20603.0192305276214029
 31
0.0
  0
LINE
  5
3F106
  8
SCALE
 10
6577.5
 20
20603.0192305276214029
 30
0.0
 11
6400.5
 21
20603.0192305276214029
 31
0.0
  0
INSERT
  5
3F107
  8
SCALE
  2
YAZ1
 10
6577.5
 20
20603.0192305276214029
 30
0.0
 41
100.0
 42
100.0
 43
100.0
 50
180.0
  0
INSERT
  5
3F108
  8
SCALE
  2
YAZ1
 10
6400.5
 20
20603.0192305276214029
 30
0.0
 41
100.0
 42
100.0
 43
100.0
  0
INSERT
  5
3F109
  8
UL1
  2
*U84
 10
0.0
 20
0.0
 30
0.0
  0
POINT
  5
3F10A
  8
DEFPOINTS
 62
     0
 10
6577.5
 20
20253.0192305276286788
 30
0.0
  0
POINT
  5
3F10B
  8
DEFPOINTS
 62
     0
 10
6400.5
 20
20253.0192305276286788
 30
0.0
  0
POINT
  5
3F10C
  8
DEFPOINTS
 62
     0
 10
6400.5
 20
20603.0192305276214029
 30
0.0
  0
ENDBLK
  5
3E33D
  8
0
  0
BLOCK
  8
0
  2
*D11
 70
     1
 10
0.0
 20
0.0
 30
0.0
  3
*D11
  1

  0
LINE
  5
3EE6F
  8
SCALE
 10
3697.500000000001819
 20
20253.0192305276395928
 30
0.0
 11
3107.5000000000190994
 21
20253.0192305276395928
 31
0.0
  0
LINE
  5
3EE70
  8
SCALE
 10
4165.0600000000031287
 20
19598.0192305276286788
 30
0.0
 11
3107.5000000000190994
 21
19598.0192305276286788
 31
0.0
  0
LINE
  5
3EE71
  8
SCALE
 10
3197.5000000000181899
 20
20153.0192305276395928
 30
0.0
 11
3197.5000000000181899
 21
19698.0192305276286788
 31
0.0
  0
INSERT
  5
3EE72
  8
SCALE
  2
YAZ1
 10
3197.5000000000181899
 20
20253.0192305276395928
 30
0.0
 41
100.0
 42
100.0
 43
100.0
 50
90.0
  0
INSERT
  5
3EE73
  8
SCALE
  2
YAZ1
 10
3197.5000000000181899
 20
19598.0192305276286788
 30
0.0
 41
100.0
 42
100.0
 43
100.0
 50
270.0
  0
INSERT
  5
3EE74
  8
UL1
  2
*U49
 10
0.0
 20
0.0
 30
0.0
  0
POINT
  5
3EE75
  8
DEFPOINTS
 62
     0
 10
3797.500000000001819
 20
20253.0192305276395928
 30
0.0
  0
POINT
  5
3EE76
  8
DEFPOINTS
 62
     0
 10
4265.0600000000022192
 20
19598.0192305276286788
 30
0.0
  0
POINT
  5
3EE77
  8
DEFPOINTS
 62
     0
 10
3197.5000000000181899
 20
19598.0192305276286788
 30
0.0
  0
ENDBLK
  5
3E38E
  8
0
  0
BLOCK
  8
0
  2
*D12
 70
     1
 10
0.0
 20
0.0
 30
0.0
  3
*D12
  1

  0
LINE
  5
3EE78
  8
SCALE
 10
4165.0600000000031287
 20
19598.0192305276286788
 30
0.0
 11
3107.5000000000241016
 21
19598.0192305276286788
 31
0.0
  0
LINE
  5
3EE79
  8
SCALE
 10
3697.500000000001819
 20
18943.0192305276286788
 30
0.0
 11
3107.5000000000241016
 21
18943.0192305276286788
 31
0.0
  0
LINE
  5
3EE7A
  8
SCALE
 10
3197.5000000000241016
 20
19498.0192305276286788
 30
0.0
 11
3197.5000000000250111
 21
19043.0192305276286788
 31
0.0
  0
INSERT
  5
3EE7B
  8
SCALE
  2
YAZ1
 10
3197.5000000000241016
 20
19598.0192305276286788
 30
0.0
 41
100.0
 42
100.0
 43
100.0
 50
90.0
  0
INSERT
  5
3EE7C
  8
SCALE
  2
YAZ1
 10
3197.5000000000250111
 20
18943.0192305276286788
 30
0.0
 41
100.0
 42
100.0
 43
100.0
 50
270.0
  0
INSERT
  5
3EE7D
  8
UL1
  2
*U50
 10
0.0
 20
0.0
 30
0.0
  0
POINT
  5
3EE7E
  8
DEFPOINTS
 62
     0
 10
4265.0600000000022192
 20
19598.0192305276286788
 30
0.0
  0
POINT
  5
3EE7F
  8
DEFPOINTS
 62
     0
 10
3797.500000000001819
 20
18943.0192305276286788
 30
0.0
  0
POINT
  5
3EE80
  8
DEFPOINTS
 62
     0
 10
3197.5000000000250111
 20
18943.0192305276286788
 30
0.0
  0
ENDBLK
  5
3E3DA
  8
0
  0
BLOCK
  8
0
  2
*D13
 70
     1
 10
0.0
 20
0.0
 30
0.0
  3
*D13
  1

  0
LINE
  5
3EE81
  8
SCALE
 10
4197.5000000000009095
 20
19443.0192305276286788
 30
0.0
 11
3457.5000000000400178
 21
19443.0192305276286788
 31
0.0
  0
LINE
  5
3EE82
  8
SCALE
 10
4197.5000000000009095
 20
19753.0192305276286788
 30
0.0
 11
3457.5000000000391083
 21
19753.0192305276286788
 31
0.0
  0
LINE
  5
3EE83
  8
SCALE
 10
3547.5000000000400178
 20
19543.0192305276286788
 30
0.0
 11
3547.5000000000400178
 21
19653.0192305276395928
 31
0.0
  0
INSERT
  5
3EE84
  8
SCALE
  2
YAZ1
 10
3547.5000000000400178
 20
19443.0192305276286788
 30
0.0
 41
100.0
 42
100.0
 43
100.0
 50
270.0
  0
INSERT
  5
3EE85
  8
SCALE
  2
YAZ1
 10
3547.5000000000400178
 20
19753.0192305276286788
 30
0.0
 41
100.0
 42
100.0
 43
100.0
 50
90.0
  0
INSERT
  5
3EE86
  8
UL1
  2
*U51
 10
0.0
 20
0.0
 30
0.0
  0
POINT
  5
3EE87
  8
DEFPOINTS
 62
     0
 10
4297.500000000001819
 20
19443.0192305276286788
 30
0.0
  0
POINT
  5
3EE88
  8
DEFPOINTS
 62
     0
 10
4297.500000000001819
 20
19753.0192305276286788
 30
0.0
  0
POINT
  5
3EE89
  8
DEFPOINTS
 62
     0
 10
3547.5000000000400178
 20
19753.0192305276286788
 30
0.0
  0
ENDBLK
  5
3E3F9
  8
0
  0
BLOCK
  8
0
  2
*D14
 70
     1
 10
0.0
 20
0.0
 30
0.0
  3
*D14
  1

  0
LINE
  5
3F128
  8
SCALE
 10
13847.5
 20
20373.0192305276286788
 30
0.0
 11
13847.5
 21
21063.0192305276286788
 31
0.0
  0
LINE
  5
3F129
  8
SCALE
 10
14347.5
 20
19873.0192305276286788
 30
0.0
 11
14347.5
 21
21063.0192305276286788
 31
0.0
  0
LINE
  5
3F12A
  8
SCALE
 10
13947.5
 20
20973.0192305276286788
 30
0.0
 11
14247.5
 21
20973.0192305276286788
 31
0.0
  0
INSERT
  5
3F12B
  8
SCALE
  2
YAZ1
 10
13847.5
 20
20973.0192305276286788
 30
0.0
 41
100.0
 42
100.0
 43
100.0
 50
180.0
  0
INSERT
  5
3F12C
  8
SCALE
  2
YAZ1
 10
14347.5
 20
20973.0192305276286788
 30
0.0
 41
100.0
 42
100.0
 43
100.0
  0
INSERT
  5
3F12D
  8
UL1
  2
*U88
 10
0.0
 20
0.0
 30
0.0
  0
POINT
  5
3F12E
  8
DEFPOINTS
 62
     0
 10
13847.5
 20
20273.0192305276286788
 30
0.0
  0
POINT
  5
3F12F
  8
DEFPOINTS
 62
     0
 10
14347.5
 20
19773.0192305276286788
 30
0.0
  0
POINT
  5
3F130
  8
DEFPOINTS
 62
     0
 10
14347.5
 20
20973.0192305276286788
 30
0.0
  0
ENDBLK
  5
3E48D
  8
0
  0
BLOCK
  8
0
  2
*D15
 70
     1
 10
0.0
 20
0.0
 30
0.0
  3
*D15
  1

  0
LINE
  5
3F0B8
  8
SCALE
 10
16677.5
 20
20373.0192305276286788
 30
0.0
 11
16677.5
 21
21063.0192305276286788
 31
0.0
  0
LINE
  5
3F0B9
  8
SCALE
 10
14347.5
 20
19873.0192305276286788
 30
0.0
 11
14347.5
 21
21063.0192305276286788
 31
0.0
  0
LINE
  5
3F0BA
  8
SCALE
 10
16577.5
 20
20973.0192305276286788
 30
0.0
 11
14447.5
 21
20973.0192305276286788
 31
0.0
  0
INSERT
  5
3F0BB
  8
SCALE
  2
YAZ1
 10
16677.5
 20
20973.0192305276286788
 30
0.0
 41
100.0
 42
100.0
 43
100.0
  0
INSERT
  5
3F0BC
  8
SCALE
  2
YAZ1
 10
14347.5
 20
20973.0192305276286788
 30
0.0
 41
100.0
 42
100.0
 43
100.0
 50
180.0
  0
INSERT
  5
3F0BD
  8
UL1
  2
*U76
 10
0.0
 20
0.0
 30
0.0
  0
POINT
  5
3F0BE
  8
DEFPOINTS
 62
     0
 10
16677.5
 20
20273.0192305276286788
 30
0.0
  0
POINT
  5
3F0BF
  8
DEFPOINTS
 62
     0
 10
14347.5
 20
19773.0192305276286788
 30
0.0
  0
POINT
  5
3F0C0
  8
DEFPOINTS
 62
     0
 10
14347.5
 20
20973.0192305276286788
 30
0.0
  0
ENDBLK
  5
3E4D9
  8
0
  0
BLOCK
  8
0
  2
*D16
 70
     1
 10
0.0
 20
0.0
 30
0.0
  3
*D16
  1

  0
LINE
  5
3F0C1
  8
SCALE
 10
17177.5
 20
20373.0192305276286788
 30
0.0
 11
17177.5
 21
21063.0192305276286788
 31
0.0
  0
LINE
  5
3F0C2
  8
SCALE
 10
16677.5
 20
20373.0192305276286788
 30
0.0
 11
16677.5
 21
21063.0192305276286788
 31
0.0
  0
LINE
  5
3F0C3
  8
SCALE
 10
17077.5
 20
20973.0192305276286788
 30
0.0
 11
16777.5
 21
20973.0192305276286788
 31
0.0
  0
INSERT
  5
3F0C4
  8
SCALE
  2
YAZ1
 10
17177.5
 20
20973.0192305276286788
 30
0.0
 41
100.0
 42
100.0
 43
100.0
  0
INSERT
  5
3F0C5
  8
SCALE
  2
YAZ1
 10
16677.5
 20
20973.0192305276286788
 30
0.0
 41
100.0
 42
100.0
 43
100.0
 50
180.0
  0
INSERT
  5
3F0C6
  8
UL1
  2
*U77
 10
0.0
 20
0.0
 30
0.0
  0
POINT
  5
3F0C7
  8
DEFPOINTS
 62
     0
 10
17177.5
 20
20273.0192305276286788
 30
0.0
  0
POINT
  5
3F0C8
  8
DEFPOINTS
 62
     0
 10
16677.5
 20
20273.0192305276286788
 30
0.0
  0
POINT
  5
3F0C9
  8
DEFPOINTS
 62
     0
 10
16677.5
 20
20973.0192305276286788
 30
0.0
  0
ENDBLK
  5
3E4F8
  8
0
  0
BLOCK
  8
0
  2
*D17
 70
     1
 10
0.0
 20
0.0
 30
0.0
  3
*D17
  1

  0
LINE
  5
3F0CA
  8
SCALE
 10
16677.5
 20
20373.0192305276286788
 30
0.0
 11
16677.5
 21
20713.0192305276214029
 31
0.0
  0
LINE
  5
3F0CB
  8
SCALE
 10
16479.5
 20
20373.0192305276286788
 30
0.0
 11
16479.5
 21
20713.0192305276214029
 31
0.0
  0
LINE
  5
3F0CC
  8
SCALE
 10
16777.5
 20
20623.0192305276214029
 30
0.0
 11
16877.5
 21
20623.0192305276214029
 31
0.0
  0
LINE
  5
3F0CD
  8
SCALE
 10
16379.5
 20
20623.0192305276214029
 30
0.0
 11
16279.5
 21
20623.0192305276214029
 31
0.0
  0
LINE
  5
3F0CE
  8
SCALE
 10
16677.5
 20
20623.0192305276214029
 30
0.0
 11
16479.5
 21
20623.0192305276214029
 31
0.0
  0
INSERT
  5
3F0CF
  8
SCALE
  2
YAZ1
 10
16677.5
 20
20623.0192305276214029
 30
0.0
 41
100.0
 42
100.0
 43
100.0
 50
180.0
  0
INSERT
  5
3F0D0
  8
SCALE
  2
YAZ1
 10
16479.5
 20
20623.0192305276214029
 30
0.0
 41
100.0
 42
100.0
 43
100.0
  0
INSERT
  5
3F0D1
  8
UL1
  2
*U78
 10
0.0
 20
0.0
 30
0.0
  0
POINT
  5
3F0D2
  8
DEFPOINTS
 62
     0
 10
16677.5
 20
20273.0192305276286788
 30
0.0
  0
POINT
  5
3F0D3
  8
DEFPOINTS
 62
     0
 10
16479.5
 20
20273.0192305276286788
 30
0.0
  0
POINT
  5
3F0D4
  8
DEFPOINTS
 62
     0
 10
16479.5
 20
20623.0192305276214029
 30
0.0
  0
ENDBLK
  5
3E517
  8
0
  0
BLOCK
  8
0
  2
*D18
 70
     1
 10
0.0
 20
0.0
 30
0.0
  3
*D18
  1

  0
LINE
  5
3EEB0
  8
SCALE
 10
13747.5000000000090949
 20
20273.0192305276395928
 30
0.0
 11
13157.5000000000691216
 21
20273.0192305276395928
 31
0.0
  0
LINE
  5
3EEB1
  8
SCALE
 10
14225.6600000000107684
 20
19598.0192305276286788
 30
0.0
 11
13157.5000000000691216
 21
19598.0192305276286788
 31
0.0
  0
LINE
  5
3EEB2
  8
SCALE
 10
13247.5000000000691216
 20
20173.0192305276395928
 30
0.0
 11
13247.5000000000691216
 21
19698.0192305276286788
 31
0.0
  0
INSERT
  5
3EEB3
  8
SCALE
  2
YAZ1
 10
13247.5000000000691216
 20
20273.0192305276395928
 30
0.0
 41
100.0
 42
100.0
 43
100.0
 50
90.0
  0
INSERT
  5
3EEB4
  8
SCALE
  2
YAZ1
 10
13247.5000000000691216
 20
19598.0192305276286788
 30
0.0
 41
100.0
 42
100.0
 43
100.0
 50
270.0
  0
INSERT
  5
3EEB5
  8
UL1
  2
*U52
 10
0.0
 20
0.0
 30
0.0
  0
POINT
  5
3EEB6
  8
DEFPOINTS
 62
     0
 10
13847.5000000000090949
 20
20273.0192305276395928
 30
0.0
  0
POINT
  5
3EEB7
  8
DEFPOINTS
 62
     0
 10
14325.6599999999998545
 20
19598.0192305276286788
 30
0.0
  0
POINT
  5
3EEB8
  8
DEFPOINTS
 62
     0
 10
13247.5000000000691216
 20
19598.0192305276286788
 30
0.0
  0
ENDBLK
  5
3E568
  8
0
  0
BLOCK
  8
0
  2
*D19
 70
     1
 10
0.0
 20
0.0
 30
0.0
  3
*D19
  1

  0
LINE
  5
3EEB9
  8
SCALE
 10
14225.6599999999998545
 20
19598.0192305276286788
 30
0.0
 11
13157.5000000000891305
 21
19598.0192305276286788
 31
0.0
  0
LINE
  5
3EEBA
  8
SCALE
 10
13747.5000000000090949
 20
18923.0192305276286788
 30
0.0
 11
13157.5000000000891305
 21
18923.0192305276286788
 31
0.0
  0
LINE
  5
3EEBB
  8
SCALE
 10
13247.5000000000891305
 20
19498.0192305276286788
 30
0.0
 11
13247.5000000000891305
 21
19023.0192305276286788
 31
0.0
  0
INSERT
  5
3EEBC
  8
SCALE
  2
YAZ1
 10
13247.5000000000891305
 20
19598.0192305276286788
 30
0.0
 41
100.0
 42
100.0
 43
100.0
 50
90.0
  0
INSERT
  5
3EEBD
  8
SCALE
  2
YAZ1
 10
13247.5000000000891305
 20
18923.0192305276286788
 30
0.0
 41
100.0
 42
100.0
 43
100.0
 50
270.0
  0
INSERT
  5
3EEBE
  8
UL1
  2
*U53
 10
0.0
 20
0.0
 30
0.0
  0
POINT
  5
3EEBF
  8
DEFPOINTS
 62
     0
 10
14325.6599999999998545
 20
19598.0192305276286788
 30
0.0
  0
POINT
  5
3EEC0
  8
DEFPOINTS
 62
     0
 10
13847.5000000000090949
 20
18923.0192305276286788
 30
0.0
  0
POINT
  5
3EEC1
  8
DEFPOINTS
 62
     0
 10
13247.5000000000891305
 20
18923.0192305276286788
 30
0.0
  0
ENDBLK
  5
3E5B4
  8
0
  0
BLOCK
  8
0
  2
*D20
 70
     1
 10
0.0
 20
0.0
 30
0.0
  3
*D20
  1

  0
LINE
  5
3EEC2
  8
SCALE
 10
14247.5000000000090949
 20
19423.0192305276286788
 30
0.0
 11
13657.5000000000600267
 21
19423.0192305276286788
 31
0.0
  0
LINE
  5
3EEC3
  8
SCALE
 10
14247.5000000000090949
 20
19773.0192305276286788
 30
0.0
 11
13657.5000000000600267
 21
19773.0192305276286788
 31
0.0
  0
LINE
  5
3EEC4
  8
SCALE
 10
13747.5000000000600267
 20
19523.0192305276286788
 30
0.0
 11
13747.5000000000600267
 21
19673.0192305276286788
 31
0.0
  0
INSERT
  5
3EEC5
  8
SCALE
  2
YAZ1
 10
13747.5000000000600267
 20
19423.0192305276286788
 30
0.0
 41
100.0
 42
100.0
 43
100.0
 50
270.0
  0
INSERT
  5
3EEC6
  8
SCALE
  2
YAZ1
 10
13747.5000000000600267
 20
19773.0192305276286788
 30
0.0
 41
100.0
 42
100.0
 43
100.0
 50
90.0
  0
INSERT
  5
3EEC7
  8
UL1
  2
*U54
 10
0.0
 20
0.0
 30
0.0
  0
POINT
  5
3EEC8
  8
DEFPOINTS
 62
     0
 10
14347.5000000000090949
 20
19423.0192305276286788
 30
0.0
  0
POINT
  5
3EEC9
  8
DEFPOINTS
 62
     0
 10
14347.5000000000090949
 20
19773.0192305276286788
 30
0.0
  0
POINT
  5
3EECA
  8
DEFPOINTS
 62
     0
 10
13747.5000000000600267
 20
19773.0192305276286788
 30
0.0
  0
ENDBLK
  5
3E5D3
  8
0
  0
BLOCK
  8
0
  2
*D21
 70
     1
 10
0.0
 20
0.0
 30
0.0
  3
*D21
  1

  0
LINE
  5
3F0AF
  8
SCALE
 10
23862.5
 20
20388.0192305276286788
 30
0.0
 11
23862.5
 21
21078.0192305276286788
 31
0.0
  0
LINE
  5
3F0B0
  8
SCALE
 10
24362.5
 20
19888.0192305276286788
 30
0.0
 11
24362.5
 21
21078.0192305276286788
 31
0.0
  0
LINE
  5
3F0B1
  8
SCALE
 10
23962.5
 20
20988.0192305276286788
 30
0.0
 11
24262.5
 21
20988.0192305276286788
 31
0.0
  0
INSERT
  5
3F0B2
  8
SCALE
  2
YAZ1
 10
23862.5
 20
20988.0192305276286788
 30
0.0
 41
100.0
 42
100.0
 43
100.0
 50
180.0
  0
INSERT
  5
3F0B3
  8
SCALE
  2
YAZ1
 10
24362.5
 20
20988.0192305276286788
 30
0.0
 41
100.0
 42
100.0
 43
100.0
  0
INSERT
  5
3F0B4
  8
UL1
  2
*U75
 10
0.0
 20
0.0
 30
0.0
  0
POINT
  5
3F0B5
  8
DEFPOINTS
 62
     0
 10
23862.5
 20
20288.0192305276286788
 30
0.0
  0
POINT
  5
3F0B6
  8
DEFPOINTS
 62
     0
 10
24362.5
 20
19788.0192305276286788
 30
0.0
  0
POINT
  5
3F0B7
  8
DEFPOINTS
 62
     0
 10
24362.5
 20
20988.0192305276286788
 30
0.0
  0
ENDBLK
  5
3E67E
  8
0
  0
BLOCK
  8
0
  2
*D22
 70
     1
 10
0.0
 20
0.0
 30
0.0
  3
*D22
  1

  0
LINE
  5
3F09D
  8
SCALE
 10
26812.5
 20
20388.0192305276286788
 30
0.0
 11
26812.5
 21
21078.0192305276286788
 31
0.0
  0
LINE
  5
3F09E
  8
SCALE
 10
24362.5
 20
19888.0192305276286788
 30
0.0
 11
24362.5
 21
21078.0192305276286788
 31
0.0
  0
LINE
  5
3F09F
  8
SCALE
 10
26712.5
 20
20988.0192305276286788
 30
0.0
 11
24462.5
 21
20988.0192305276286788
 31
0.0
  0
INSERT
  5
3F0A0
  8
SCALE
  2
YAZ1
 10
26812.5
 20
20988.0192305276286788
 30
0.0
 41
100.0
 42
100.0
 43
100.0
  0
INSERT
  5
3F0A1
  8
SCALE
  2
YAZ1
 10
24362.5
 20
20988.0192305276286788
 30
0.0
 41
100.0
 42
100.0
 43
100.0
 50
180.0
  0
INSERT
  5
3F0A2
  8
UL1
  2
*U73
 10
0.0
 20
0.0
 30
0.0
  0
POINT
  5
3F0A3
  8
DEFPOINTS
 62
     0
 10
26812.5
 20
20288.0192305276286788
 30
0.0
  0
POINT
  5
3F0A4
  8
DEFPOINTS
 62
     0
 10
24362.5
 20
19788.0192305276286788
 30
0.0
  0
POINT
  5
3F0A5
  8
DEFPOINTS
 62
     0
 10
24362.5
 20
20988.0192305276286788
 30
0.0
  0
ENDBLK
  5
3E6CA
  8
0
  0
BLOCK
  8
0
  2
*D23
 70
     1
 10
0.0
 20
0.0
 30
0.0
  3
*D23
  1

  0
LINE
  5
3F0A6
  8
SCALE
 10
27312.5
 20
20388.0192305276286788
 30
0.0
 11
27312.5
 21
21078.0192305276286788
 31
0.0
  0
LINE
  5
3F0A7
  8
SCALE
 10
26812.5
 20
20388.0192305276286788
 30
0.0
 11
26812.5
 21
21078.0192305276286788
 31
0.0
  0
LINE
  5
3F0A8
  8
SCALE
 10
27212.5
 20
20988.0192305276286788
 30
0.0
 11
26912.5
 21
20988.0192305276286788
 31
0.0
  0
INSERT
  5
3F0A9
  8
SCALE
  2
YAZ1
 10
27312.5
 20
20988.0192305276286788
 30
0.0
 41
100.0
 42
100.0
 43
100.0
  0
INSERT
  5
3F0AA
  8
SCALE
  2
YAZ1
 10
26812.5
 20
20988.0192305276286788
 30
0.0
 41
100.0
 42
100.0
 43
100.0
 50
180.0
  0
INSERT
  5
3F0AB
  8
UL1
  2
*U74
 10
0.0
 20
0.0
 30
0.0
  0
POINT
  5
3F0AC
  8
DEFPOINTS
 62
     0
 10
27312.5
 20
20288.0192305276286788
 30
0.0
  0
POINT
  5
3F0AD
  8
DEFPOINTS
 62
     0
 10
26812.5
 20
20288.0192305276286788
 30
0.0
  0
POINT
  5
3F0AE
  8
DEFPOINTS
 62
     0
 10
26812.5
 20
20988.0192305276286788
 30
0.0
  0
ENDBLK
  5
3E6E9
  8
0
  0
BLOCK
  8
0
  2
*D24
 70
     1
 10
0.0
 20
0.0
 30
0.0
  3
*D24
  1

  0
LINE
  5
3F0F9
  8
SCALE
 10
26572.5
 20
20388.0192305276286788
 30
0.0
 11
26572.5
 21
20728.0192305276286788
 31
0.0
  0
LINE
  5
3F0FA
  8
SCALE
 10
26812.5
 20
20388.0192305276286788
 30
0.0
 11
26812.5
 21
20728.0192305276286788
 31
0.0
  0
LINE
  5
3F0FB
  8
SCALE
 10
26672.5
 20
20638.0192305276286788
 30
0.0
 11
26712.5
 21
20638.0192305276286788
 31
0.0
  0
INSERT
  5
3F0FC
  8
SCALE
  2
YAZ1
 10
26572.5
 20
20638.0192305276286788
 30
0.0
 41
100.0
 42
100.0
 43
100.0
 50
180.0
  0
INSERT
  5
3F0FD
  8
SCALE
  2
YAZ1
 10
26812.5
 20
20638.0192305276286788
 30
0.0
 41
100.0
 42
100.0
 43
100.0
  0
INSERT
  5
3F0FE
  8
UL1
  2
*U83
 10
0.0
 20
0.0
 30
0.0
  0
POINT
  5
3F0FF
  8
DEFPOINTS
 62
     0
 10
26572.5
 20
20288.0192305276286788
 30
0.0
  0
POINT
  5
3F100
  8
DEFPOINTS
 62
     0
 10
26812.5
 20
20288.0192305276286788
 30
0.0
  0
POINT
  5
3F101
  8
DEFPOINTS
 62
     0
 10
26812.5
 20
20638.0192305276286788
 30
0.0
  0
ENDBLK
  5
3E708
  8
0
  0
BLOCK
  8
0
  2
*D25
 70
     1
 10
0.0
 20
0.0
 30
0.0
  3
*D25
  1

  0
LINE
  5
3EEEF
  8
SCALE
 10
23762.5000000000109139
 20
20288.0192305276395928
 30
0.0
 11
23172.5000000000800355
 21
20288.0192305276395928
 31
0.0
  0
LINE
  5
3EEF0
  8
SCALE
 10
24227.7300000000104774
 20
19598.0192305276286788
 30
0.0
 11
23172.5000000000800355
 21
19598.0192305276286788
 31
0.0
  0
LINE
  5
3EEF1
  8
SCALE
 10
23262.5000000000691216
 20
20188.0192305276395928
 30
0.0
 11
23262.5000000000691216
 21
19698.0192305276286788
 31
0.0
  0
INSERT
  5
3EEF2
  8
SCALE
  2
YAZ1
 10
23262.5000000000691216
 20
20288.0192305276395928
 30
0.0
 41
100.0
 42
100.0
 43
100.0
 50
90.0
  0
INSERT
  5
3EEF3
  8
SCALE
  2
YAZ1
 10
23262.5000000000691216
 20
19598.0192305276286788
 30
0.0
 41
100.0
 42
100.0
 43
100.0
 50
270.0
  0
INSERT
  5
3EEF4
  8
UL1
  2
*U55
 10
0.0
 20
0.0
 30
0.0
  0
POINT
  5
3EEF5
  8
DEFPOINTS
 62
     0
 10
23862.5000000000109139
 20
20288.0192305276395928
 30
0.0
  0
POINT
  5
3EEF6
  8
DEFPOINTS
 62
     0
 10
24327.7300000000104774
 20
19598.0192305276286788
 30
0.0
  0
POINT
  5
3EEF7
  8
DEFPOINTS
 62
     0
 10
23262.5000000000691216
 20
19598.0192305276286788
 30
0.0
  0
ENDBLK
  5
3E74B
  8
0
  0
BLOCK
  8
0
  2
*D26
 70
     1
 10
0.0
 20
0.0
 30
0.0
  3
*D26
  1

  0
LINE
  5
3EEF8
  8
SCALE
 10
24227.7300000000104774
 20
19598.0192305276286788
 30
0.0
 11
23172.5000000000909495
 21
19598.0192305276286788
 31
0.0
  0
LINE
  5
3EEF9
  8
SCALE
 10
23762.5000000000109139
 20
18908.0192305276286788
 30
0.0
 11
23172.5000000000909495
 21
18908.0192305276286788
 31
0.0
  0
LINE
  5
3EEFA
  8
SCALE
 10
23262.5000000000982254
 20
19498.0192305276286788
 30
0.0
 11
23262.5000000000982254
 21
19008.0192305276395928
 31
0.0
  0
INSERT
  5
3EEFB
  8
SCALE
  2
YAZ1
 10
23262.5000000000982254
 20
19598.0192305276286788
 30
0.0
 41
100.0
 42
100.0
 43
100.0
 50
90.0
  0
INSERT
  5
3EEFC
  8
SCALE
  2
YAZ1
 10
23262.5000000000982254
 20
18908.0192305276286788
 30
0.0
 41
100.0
 42
100.0
 43
100.0
 50
270.0
  0
INSERT
  5
3EEFD
  8
UL1
  2
*U56
 10
0.0
 20
0.0
 30
0.0
  0
POINT
  5
3EEFE
  8
DEFPOINTS
 62
     0
 10
24327.7300000000104774
 20
19598.0192305276286788
 30
0.0
  0
POINT
  5
3EEFF
  8
DEFPOINTS
 62
     0
 10
23862.5000000000109139
 20
18908.0192305276286788
 30
0.0
  0
POINT
  5
3EF00
  8
DEFPOINTS
 62
     0
 10
23262.5000000000982254
 20
18908.0192305276286788
 30
0.0
  0
ENDBLK
  5
3E797
  8
0
  0
BLOCK
  8
0
  2
*D27
 70
     1
 10
0.0
 20
0.0
 30
0.0
  3
*D27
  1

  0
LINE
  5
3EF01
  8
SCALE
 10
24262.5000000000109139
 20
19408.0192305276286788
 30
0.0
 11
23522.5000000001309672
 21
19408.0192305276286788
 31
0.0
  0
LINE
  5
3EF02
  8
SCALE
 10
24262.5000000000109139
 20
19788.0192305276286788
 30
0.0
 11
23522.5000000001309672
 21
19788.0192305276286788
 31
0.0
  0
LINE
  5
3EF03
  8
SCALE
 10
23612.5000000001309672
 20
19508.0192305276395928
 30
0.0
 11
23612.5000000001309672
 21
19688.0192305276286788
 31
0.0
  0
INSERT
  5
3EF04
  8
SCALE
  2
YAZ1
 10
23612.5000000001309672
 20
19408.0192305276286788
 30
0.0
 41
100.0
 42
100.0
 43
100.0
 50
270.0
  0
INSERT
  5
3EF05
  8
SCALE
  2
YAZ1
 10
23612.5000000001309672
 20
19788.0192305276286788
 30
0.0
 41
100.0
 42
100.0
 43
100.0
 50
90.0
  0
INSERT
  5
3EF06
  8
UL1
  2
*U57
 10
0.0
 20
0.0
 30
0.0
  0
POINT
  5
3EF07
  8
DEFPOINTS
 62
     0
 10
24362.5000000000109139
 20
19408.0192305276286788
 30
0.0
  0
POINT
  5
3EF08
  8
DEFPOINTS
 62
     0
 10
24362.5000000000109139
 20
19788.0192305276286788
 30
0.0
  0
POINT
  5
3EF09
  8
DEFPOINTS
 62
     0
 10
23612.5000000001309672
 20
19788.0192305276286788
 30
0.0
  0
ENDBLK
  5
3E7B6
  8
0
  0
BLOCK
  8
0
  2
*D28
 70
     1
 10
0.0
 20
0.0
 30
0.0
  3
*D28
  1

  0
LINE
  5
3F0E7
  8
SCALE
 10
33852.5
 20
20463.0192305276286788
 30
0.0
 11
33852.5
 21
21153.0192305276286788
 31
0.0
  0
LINE
  5
3F0E8
  8
SCALE
 10
34352.5
 20
19913.0192305276286788
 30
0.0
 11
34352.5
 21
21153.0192305276286788
 31
0.0
  0
LINE
  5
3F0E9
  8
SCALE
 10
33952.5
 20
21063.0192305276286788
 30
0.0
 11
34252.5
 21
21063.0192305276286788
 31
0.0
  0
INSERT
  5
3F0EA
  8
SCALE
  2
YAZ1
 10
33852.5
 20
21063.0192305276286788
 30
0.0
 41
100.0
 42
100.0
 43
100.0
 50
180.0
  0
INSERT
  5
3F0EB
  8
SCALE
  2
YAZ1
 10
34352.5
 20
21063.0192305276286788
 30
0.0
 41
100.0
 42
100.0
 43
100.0
  0
INSERT
  5
3F0EC
  8
UL1
  2
*U81
 10
0.0
 20
0.0
 30
0.0
  0
POINT
  5
3F0ED
  8
DEFPOINTS
 62
     0
 10
33852.5
 20
20363.0192305276286788
 30
0.0
  0
POINT
  5
3F0EE
  8
DEFPOINTS
 62
     0
 10
34352.5
 20
19813.0192305276286788
 30
0.0
  0
POINT
  5
3F0EF
  8
DEFPOINTS
 62
     0
 10
34352.5
 20
21063.0192305276286788
 30
0.0
  0
ENDBLK
  5
3E7F9
  8
0
  0
BLOCK
  8
0
  2
*D29
 70
     1
 10
0.0
 20
0.0
 30
0.0
  3
*D29
  1

  0
LINE
  5
3F0F0
  8
SCALE
 10
36972.5
 20
20463.0192305276286788
 30
0.0
 11
36972.5
 21
21153.0192305276286788
 31
0.0
  0
LINE
  5
3F0F1
  8
SCALE
 10
34352.5
 20
19913.0192305276286788
 30
0.0
 11
34352.5
 21
21153.0192305276286788
 31
0.0
  0
LINE
  5
3F0F2
  8
SCALE
 10
36872.5
 20
21063.0192305276286788
 30
0.0
 11
34452.5
 21
21063.0192305276286788
 31
0.0
  0
INSERT
  5
3F0F3
  8
SCALE
  2
YAZ1
 10
36972.5
 20
21063.0192305276286788
 30
0.0
 41
100.0
 42
100.0
 43
100.0
  0
INSERT
  5
3F0F4
  8
SCALE
  2
YAZ1
 10
34352.5
 20
21063.0192305276286788
 30
0.0
 41
100.0
 42
100.0
 43
100.0
 50
180.0
  0
INSERT
  5
3F0F5
  8
UL1
  2
*U82
 10
0.0
 20
0.0
 30
0.0
  0
POINT
  5
3F0F6
  8
DEFPOINTS
 62
     0
 10
36972.5
 20
20363.0192305276286788
 30
0.0
  0
POINT
  5
3F0F7
  8
DEFPOINTS
 62
     0
 10
34352.5
 20
19813.0192305276286788
 30
0.0
  0
POINT
  5
3F0F8
  8
DEFPOINTS
 62
     0
 10
34352.5
 20
21063.0192305276286788
 30
0.0
  0
ENDBLK
  5
3E845
  8
0
  0
BLOCK
  8
0
  2
*D30
 70
     1
 10
0.0
 20
0.0
 30
0.0
  3
*D30
  1

  0
LINE
  5
3F0D5
  8
SCALE
 10
37472.5
 20
20463.0192305276286788
 30
0.0
 11
37472.5
 21
21153.0192305276286788
 31
0.0
  0
LINE
  5
3F0D6
  8
SCALE
 10
36972.5
 20
20463.0192305276286788
 30
0.0
 11
36972.5
 21
21153.0192305276286788
 31
0.0
  0
LINE
  5
3F0D7
  8
SCALE
 10
37372.5
 20
21063.0192305276214029
 30
0.0
 11
37072.5
 21
21063.0192305276214029
 31
0.0
  0
INSERT
  5
3F0D8
  8
SCALE
  2
YAZ1
 10
37472.5
 20
21063.0192305276214029
 30
0.0
 41
100.0
 42
100.0
 43
100.0
  0
INSERT
  5
3F0D9
  8
SCALE
  2
YAZ1
 10
36972.5
 20
21063.0192305276214029
 30
0.0
 41
100.0
 42
100.0
 43
100.0
 50
180.0
  0
INSERT
  5
3F0DA
  8
UL1
  2
*U79
 10
0.0
 20
0.0
 30
0.0
  0
POINT
  5
3F0DB
  8
DEFPOINTS
 62
     0
 10
37472.5
 20
20363.0192305276286788
 30
0.0
  0
POINT
  5
3F0DC
  8
DEFPOINTS
 62
     0
 10
36972.5
 20
20363.0192305276286788
 30
0.0
  0
POINT
  5
3F0DD
  8
DEFPOINTS
 62
     0
 10
36972.5
 20
21063.0192305276214029
 30
0.0
  0
ENDBLK
  5
3E864
  8
0
  0
BLOCK
  8
0
  2
*D31
 70
     1
 10
0.0
 20
0.0
 30
0.0
  3
*D31
  1

  0
LINE
  5
3F0DE
  8
SCALE
 10
36672.5
 20
20463.0192305276286788
 30
0.0
 11
36672.5
 21
20803.0192305276286788
 31
0.0
  0
LINE
  5
3F0DF
  8
SCALE
 10
36972.5
 20
20463.0192305276286788
 30
0.0
 11
36972.5
 21
20803.0192305276286788
 31
0.0
  0
LINE
  5
3F0E0
  8
SCALE
 10
36772.5
 20
20713.0192305276286788
 30
0.0
 11
36872.5
 21
20713.0192305276286788
 31
0.0
  0
INSERT
  5
3F0E1
  8
SCALE
  2
YAZ1
 10
36672.5
 20
20713.0192305276286788
 30
0.0
 41
100.0
 42
100.0
 43
100.0
 50
180.0
  0
INSERT
  5
3F0E2
  8
SCALE
  2
YAZ1
 10
36972.5
 20
20713.0192305276286788
 30
0.0
 41
100.0
 42
100.0
 43
100.0
  0
INSERT
  5
3F0E3
  8
UL1
  2
*U80
 10
0.0
 20
0.0
 30
0.0
  0
POINT
  5
3F0E4
  8
DEFPOINTS
 62
     0
 10
36672.5
 20
20363.0192305276286788
 30
0.0
  0
POINT
  5
3F0E5
  8
DEFPOINTS
 62
     0
 10
36972.5
 20
20363.0192305276286788
 30
0.0
  0
POINT
  5
3F0E6
  8
DEFPOINTS
 62
     0
 10
36972.5
 20
20713.0192305276286788
 30
0.0
  0
ENDBLK
  5
3E883
  8
0
  0
BLOCK
  8
0
  2
*D32
 70
     1
 10
0.0
 20
0.0
 30
0.0
  3
*D32
  1

  0
LINE
  5
3EF2E
  8
SCALE
 10
33752.5000000000218279
 20
20363.0192305276286788
 30
0.0
 11
33162.5000000001527951
 21
20363.0192305276286788
 31
0.0
  0
LINE
  5
3EF2F
  8
SCALE
 10
34229.540000000022701
 20
19598.0192305276286788
 30
0.0
 11
33162.5000000001527951
 21
19598.0192305276286788
 31
0.0
  0
LINE
  5
3EF30
  8
SCALE
 10
33252.5000000001527951
 20
20263.0192305276395928
 30
0.0
 11
33252.5000000001527951
 21
19698.0192305276286788
 31
0.0
  0
INSERT
  5
3EF31
  8
SCALE
  2
YAZ1
 10
33252.5000000001527951
 20
20363.0192305276286788
 30
0.0
 41
100.0
 42
100.0
 43
100.0
 50
90.0
  0
INSERT
  5
3EF32
  8
SCALE
  2
YAZ1
 10
33252.5000000001527951
 20
19598.0192305276286788
 30
0.0
 41
100.0
 42
100.0
 43
100.0
 50
270.0
  0
INSERT
  5
3EF33
  8
UL1
  2
*U58
 10
0.0
 20
0.0
 30
0.0
  0
POINT
  5
3EF34
  8
DEFPOINTS
 62
     0
 10
33852.500000000007276
 20
20363.0192305276286788
 30
0.0
  0
POINT
  5
3EF35
  8
DEFPOINTS
 62
     0
 10
34329.540000000022701
 20
19598.0192305276286788
 30
0.0
  0
POINT
  5
3EF36
  8
DEFPOINTS
 62
     0
 10
33252.5000000001527951
 20
19598.0192305276286788
 30
0.0
  0
ENDBLK
  5
3E8C6
  8
0
  0
BLOCK
  8
0
  2
*D33
 70
     1
 10
0.0
 20
0.0
 30
0.0
  3
*D33
  1

  0
LINE
  5
3EF37
  8
SCALE
 10
34229.540000000022701
 20
19598.0192305276286788
 30
0.0
 11
33162.5000000001891749
 21
19598.0192305276286788
 31
0.0
  0
LINE
  5
3EF38
  8
SCALE
 10
33752.5000000000218279
 20
18833.0192305276286788
 30
0.0
 11
33162.5000000001891749
 21
18833.0192305276286788
 31
0.0
  0
LINE
  5
3EF39
  8
SCALE
 10
33252.5000000001891749
 20
19498.0192305276286788
 30
0.0
 11
33252.5000000001891749
 21
18933.0192305276286788
 31
0.0
  0
INSERT
  5
3EF3A
  8
SCALE
  2
YAZ1
 10
33252.5000000001891749
 20
19598.0192305276286788
 30
0.0
 41
100.0
 42
100.0
 43
100.0
 50
90.0
  0
INSERT
  5
3EF3B
  8
SCALE
  2
YAZ1
 10
33252.5000000001891749
 20
18833.0192305276286788
 30
0.0
 41
100.0
 42
100.0
 43
100.0
 50
270.0
  0
INSERT
  5
3EF3C
  8
UL1
  2
*U59
 10
0.0
 20
0.0
 30
0.0
  0
POINT
  5
3EF3D
  8
DEFPOINTS
 62
     0
 10
34329.540000000022701
 20
19598.0192305276286788
 30
0.0
  0
POINT
  5
3EF3E
  8
DEFPOINTS
 62
     0
 10
33852.500000000007276
 20
18833.0192305276286788
 30
0.0
  0
POINT
  5
3EF3F
  8
DEFPOINTS
 62
     0
 10
33252.5000000001891749
 20
18833.0192305276286788
 30
0.0
  0
ENDBLK
  5
3E912
  8
0
  0
BLOCK
  8
0
  2
*D34
 70
     1
 10
0.0
 20
0.0
 30
0.0
  3
*D34
  1

  0
LINE
  5
3EF40
  8
SCALE
 10
34252.500000000007276
 20
19383.0192305276286788
 30
0.0
 11
33512.5000000002910383
 21
19383.0192305276286788
 31
0.0
  0
LINE
  5
3EF41
  8
SCALE
 10
34252.500000000007276
 20
19813.0192305276395928
 30
0.0
 11
33512.5000000002910383
 21
19813.0192305276395928
 31
0.0
  0
LINE
  5
3EF42
  8
SCALE
 10
33602.5000000002910383
 20
19483.0192305276286788
 30
0.0
 11
33602.5000000002910383
 21
19713.0192305276286788
 31
0.0
  0
INSERT
  5
3EF43
  8
SCALE
  2
YAZ1
 10
33602.5000000002910383
 20
19383.0192305276286788
 30
0.0
 41
100.0
 42
100.0
 43
100.0
 50
270.0
  0
INSERT
  5
3EF44
  8
SCALE
  2
YAZ1
 10
33602.5000000002910383
 20
19813.0192305276395928
 30
0.0
 41
100.0
 42
100.0
 43
100.0
 50
90.0
  0
INSERT
  5
3EF45
  8
UL1
  2
*U60
 10
0.0
 20
0.0
 30
0.0
  0
POINT
  5
3EF46
  8
DEFPOINTS
 62
     0
 10
34352.5000000000218279
 20
19383.0192305276286788
 30
0.0
  0
POINT
  5
3EF47
  8
DEFPOINTS
 62
     0
 10
34352.5000000000218279
 20
19813.0192305276395928
 30
0.0
  0
POINT
  5
3EF48
  8
DEFPOINTS
 62
     0
 10
33602.5000000002910383
 20
19813.0192305276395928
 30
0.0
  0
ENDBLK
  5
3E962
  8
0
  0
BLOCK
  8
0
  2
*D35
 70
     1
 10
0.0
 20
0.0
 30
0.0
  3
*D35
  1

  0
LINE
  5
3EF49
  8
SCALE
 10
4500.5000000000009095
 20
15295.5410367590993701
 30
0.0
 11
3957.0377890609138376
 21
15295.5410367590993701
 31
0.0
  0
LINE
  5
3EF4A
  8
SCALE
 10
4165.0600000000031287
 20
15283.5410367590993701
 30
0.0
 11
3957.0377890609138376
 21
15283.5410367590993701
 31
0.0
  0
LINE
  5
3EF4B
  8
SCALE
 10
4047.0377890609129281
 20
15395.5410367590993701
 30
0.0
 11
4047.0377890609129281
 21
15495.5410367590993701
 31
0.0
  0
LINE
  5
3EF4C
  8
SCALE
 10
4047.0377890609138376
 20
15183.5410367590993701
 30
0.0
 11
4047.0377890609138376
 21
15083.5410367590993701
 31
0.0
  0
INSERT
  5
3EF4D
  8
UL1
  2
*U61
 10
0.0
 20
0.0
 30
0.0
  0
LINE
  5
3EF4E
  8
SCALE
 10
4047.0377890609138376
 20
15295.5410367590993701
 30
0.0
 11
4047.0377890609138376
 21
15283.5410367590993701
 31
0.0
  0
INSERT
  5
3EF4F
  8
SCALE
  2
YAZ1
 10
4047.0377890609138376
 20
15295.5410367590993701
 30
0.0
 41
100.0
 42
100.0
 43
100.0
 50
270.0
  0
INSERT
  5
3EF50
  8
SCALE
  2
YAZ1
 10
4047.0377890609138376
 20
15283.5410367590993701
 30
0.0
 41
100.0
 42
100.0
 43
100.0
 50
90.0
  0
POINT
  5
3EF51
  8
DEFPOINTS
 62
     0
 10
4600.500000000001819
 20
15295.5410367590993701
 30
0.0
  0
POINT
  5
3EF52
  8
DEFPOINTS
 62
     0
 10
4265.0600000000022192
 20
15283.5410367590993701
 30
0.0
  0
POINT
  5
3EF53
  8
DEFPOINTS
 62
     0
 10
4047.0377890609138376
 20
15283.5410367590993701
 30
0.0
  0
ENDBLK
  5
3E9A5
  8
0
  0
BLOCK
  8
0
  2
*D36
 70
     1
 10
0.0
 20
0.0
 30
0.0
  3
*D36
  1

  0
LINE
  5
3EF54
  8
SCALE
 10
4415.500000000001819
 20
15388.5410367590993701
 30
0.0
 11
5005.5000000000218279
 21
15388.5410367590993701
 31
0.0
  0
LINE
  5
3EF55
  8
SCALE
 10
4415.500000000001819
 20
15488.5410367590993701
 30
0.0
 11
5005.5000000000218279
 21
15488.5410367590993701
 31
0.0
  0
LINE
  5
3EF56
  8
SCALE
 10
4915.5000000000218279
 20
15388.5410367590993701
 30
0.0
 11
4915.5000000000218279
 21
15488.5410367590993701
 31
0.0
  0
LINE
  5
3EF57
  8
SCALE
 10
4915.5000000000218279
 20
15488.5410367590993701
 30
0.0
 11
4915.5000000000218279
 21
15738.5410367590993701
 31
0.0
  0
INSERT
  5
3EF58
  8
SCALE
  2
_DOTSMALL
 10
4915.5000000000218279
 20
15388.5410367590993701
 30
0.0
 41
100.0
 42
100.0
 43
100.0
 50
270.0
  0
INSERT
  5
3EF59
  8
SCALE
  2
_DOTSMALL
 10
4915.5000000000218279
 20
15488.5410367590993701
 30
0.0
 41
100.0
 42
100.0
 43
100.0
 50
90.0
  0
INSERT
  5
3EF5A
  8
UL1
  2
*U62
 10
0.0
 20
0.0
 30
0.0
  0
POINT
  5
3EF5B
  8
DEFPOINTS
 62
     0
 10
4315.500000000001819
 20
15388.5410367590993701
 30
0.0
  0
POINT
  5
3EF5C
  8
DEFPOINTS
 62
     0
 10
4315.500000000001819
 20
15488.5410367590993701
 30
0.0
  0
POINT
  5
3EF5D
  8
DEFPOINTS
 62
     0
 10
4915.5000000000218279
 20
15488.5410367590993701
 30
0.0
  0
ENDBLK
  5
3EA01
  8
0
  0
BLOCK
  8
0
  2
*D37
 70
     1
 10
0.0
 20
0.0
 30
0.0
  3
*D37
  1

  0
LINE
  5
3EF5E
  8
SCALE
 10
4415.500000000001819
 20
15178.5410367590993701
 30
0.0
 11
5005.5000000000309228
 21
15178.5410367590993701
 31
0.0
  0
LINE
  5
3EF5F
  8
SCALE
 10
4415.500000000001819
 20
15078.5410367590993701
 30
0.0
 11
5005.5000000000309228
 21
15078.5410367590993701
 31
0.0
  0
LINE
  5
3EF60
  8
SCALE
 10
4915.5000000000309228
 20
15178.5410367590993701
 30
0.0
 11
4915.5000000000309228
 21
15078.5410367590993701
 31
0.0
  0
LINE
  5
3EF61
  8
SCALE
 10
4915.5000000000309228
 20
15078.5410367590993701
 30
0.0
 11
4915.5000000000309228
 21
14828.5410367590993701
 31
0.0
  0
INSERT
  5
3EF62
  8
SCALE
  2
_DOTSMALL
 10
4915.5000000000309228
 20
15178.5410367590993701
 30
0.0
 41
100.0
 42
100.0
 43
100.0
 50
90.0
  0
INSERT
  5
3EF63
  8
SCALE
  2
_DOTSMALL
 10
4915.5000000000309228
 20
15078.5410367590993701
 30
0.0
 41
100.0
 42
100.0
 43
100.0
 50
270.0
  0
INSERT
  5
3EF64
  8
UL1
  2
*U63
 10
0.0
 20
0.0
 30
0.0
  0
POINT
  5
3EF65
  8
DEFPOINTS
 62
     0
 10
4315.500000000001819
 20
15178.5410367590993701
 30
0.0
  0
POINT
  5
3EF66
  8
DEFPOINTS
 62
     0
 10
4315.500000000001819
 20
15078.5410367590993701
 30
0.0
  0
POINT
  5
3EF67
  8
DEFPOINTS
 62
     0
 10
4915.5000000000309228
 20
15078.5410367590993701
 30
0.0
  0
ENDBLK
  5
3EA81
  8
0
  0
BLOCK
  8
0
  2
_DOTSMALL
 70
     0
 10
0.0
 20
0.0
 30
0.0
  3
_DOTSMALL
  1

  0
POLYLINE
  5
3EADD
  8
0
  6
BYBLOCK
 62
     0
 66
     1
 10
0.0
 20
0.0
 30
0.0
 70
     1
 40
0.5
 41
0.5
  0
VERTEX
  5
3F3D3
  8
0
  6
BYBLOCK
 62
     0
 10
-0.0625
 20
0.0
 30
0.0
 42
1.0
  0
VERTEX
  5
3F3D4
  8
0
  6
BYBLOCK
 62
     0
 10
0.0625
 20
0.0
 30
0.0
 42
1.0
  0
SEQEND
  5
3F3D5
  8
0
  6
BYBLOCK
 62
     0
  0
ENDBLK
  5
3EADF
  8
0
  0
BLOCK
  8
0
  2
*D39
 70
     1
 10
0.0
 20
0.0
 30
0.0
  3
*D39
  1

  0
LINE
  5
3EF73
  8
SCALE
 10
14465.5000000000090949
 20
15409.0410367590993701
 30
0.0
 11
15055.5000000000400178
 21
15409.0410367590993701
 31
0.0
  0
LINE
  5
3EF74
  8
SCALE
 10
14465.5000000000090949
 20
15509.0410367590993701
 30
0.0
 11
15055.5000000000400178
 21
15509.0410367590993701
 31
0.0
  0
LINE
  5
3EF75
  8
SCALE
 10
14965.5000000000400178
 20
15409.0410367590993701
 30
0.0
 11
14965.5000000000400178
 21
15509.0410367590993701
 31
0.0
  0
LINE
  5
3EF76
  8
SCALE
 10
14965.5000000000400178
 20
15509.0410367590993701
 30
0.0
 11
14965.5000000000400178
 21
15759.0410367590993701
 31
0.0
  0
INSERT
  5
3EF77
  8
SCALE
  2
_DOTSMALL
 10
14965.5000000000400178
 20
15409.0410367590993701
 30
0.0
 41
100.0
 42
100.0
 43
100.0
 50
270.0
  0
INSERT
  5
3EF78
  8
SCALE
  2
_DOTSMALL
 10
14965.5000000000400178
 20
15509.0410367590993701
 30
0.0
 41
100.0
 42
100.0
 43
100.0
 50
90.0
  0
INSERT
  5
3EF79
  8
UL1
  2
*U65
 10
0.0
 20
0.0
 30
0.0
  0
POINT
  5
3EF7A
  8
DEFPOINTS
 62
     0
 10
14365.5000000000090949
 20
15409.0410367590993701
 30
0.0
  0
POINT
  5
3EF7B
  8
DEFPOINTS
 62
     0
 10
14365.5000000000090949
 20
15509.0410367590993701
 30
0.0
  0
POINT
  5
3EF7C
  8
DEFPOINTS
 62
     0
 10
14965.5000000000400178
 20
15509.0410367590993701
 30
0.0
  0
ENDBLK
  5
3EB4E
  8
0
  0
BLOCK
  8
0
  2
*D40
 70
     1
 10
0.0
 20
0.0
 30
0.0
  3
*D40
  1

  0
LINE
  5
3EF7D
  8
SCALE
 10
14467.5000000000090949
 20
15159.0410367590993701
 30
0.0
 11
15055.5000000000600267
 21
15159.0410367590993701
 31
0.0
  0
LINE
  5
3EF7E
  8
SCALE
 10
14465.5000000000090949
 20
15059.0410367590993701
 30
0.0
 11
15055.5000000000600267
 21
15059.0410367590993701
 31
0.0
  0
LINE
  5
3EF7F
  8
SCALE
 10
14965.5000000000600267
 20
15159.0410367590993701
 30
0.0
 11
14965.5000000000600267
 21
15059.0410367590993701
 31
0.0
  0
LINE
  5
3EF80
  8
SCALE
 10
14965.5000000000600267
 20
15059.0410367590993701
 30
0.0
 11
14965.5000000000600267
 21
14809.0410367590993701
 31
0.0
  0
INSERT
  5
3EF81
  8
SCALE
  2
_DOTSMALL
 10
14965.5000000000600267
 20
15159.0410367590993701
 30
0.0
 41
100.0
 42
100.0
 43
100.0
 50
90.0
  0
INSERT
  5
3EF82
  8
SCALE
  2
_DOTSMALL
 10
14965.5000000000600267
 20
15059.0410367590993701
 30
0.0
 41
100.0
 42
100.0
 43
100.0
 50
270.0
  0
INSERT
  5
3EF83
  8
UL1
  2
*U66
 10
0.0
 20
0.0
 30
0.0
  0
POINT
  5
3EF84
  8
DEFPOINTS
 62
     0
 10
14367.5000000000090949
 20
15159.0410367590993701
 30
0.0
  0
POINT
  5
3EF85
  8
DEFPOINTS
 62
     0
 10
14365.5000000000090949
 20
15059.0410367590993701
 30
0.0
  0
POINT
  5
3EF86
  8
DEFPOINTS
 62
     0
 10
14965.5000000000600267
 20
15059.0410367590993701
 30
0.0
  0
ENDBLK
  5
3EB5B
  8
0
  0
BLOCK
  8
0
  2
*D41
 70
     1
 10
0.0
 20
0.0
 30
0.0
  3
*D41
  1

  0
LINE
  5
3EF68
  8
SCALE
 10
14580.5
 20
15295.5410367590993701
 30
0.0
 11
14007.0377890609506721
 21
15295.5410367590993701
 31
0.0
  0
LINE
  5
3EF69
  8
SCALE
 10
14225.6600000000107684
 20
15284.0410367590993701
 30
0.0
 11
14007.0377890609506721
 21
15284.0410367590993701
 31
0.0
  0
LINE
  5
3EF6A
  8
SCALE
 10
14097.0377890609506721
 20
15395.5410367590993701
 30
0.0
 11
14097.0377890609506721
 21
15495.5410367590993701
 31
0.0
  0
LINE
  5
3EF6B
  8
SCALE
 10
14097.0377890609506721
 20
15184.0410367590993701
 30
0.0
 11
14097.0377890609506721
 21
15084.0410367590993701
 31
0.0
  0
INSERT
  5
3EF6C
  8
UL1
  2
*U64
 10
0.0
 20
0.0
 30
0.0
  0
LINE
  5
3EF6D
  8
SCALE
 10
14097.0377890609506721
 20
15295.5410367590993701
 30
0.0
 11
14097.0377890609506721
 21
15284.0410367590993701
 31
0.0
  0
INSERT
  5
3EF6E
  8
SCALE
  2
YAZ1
 10
14097.0377890609506721
 20
15295.5410367590993701
 30
0.0
 41
100.0
 42
100.0
 43
100.0
 50
270.0
  0
INSERT
  5
3EF6F
  8
SCALE
  2
YAZ1
 10
14097.0377890609506721
 20
15284.0410367590993701
 30
0.0
 41
100.0
 42
100.0
 43
100.0
 50
90.0
  0
POINT
  5
3EF70
  8
DEFPOINTS
 62
     0
 10
14680.5
 20
15295.5410367590993701
 30
0.0
  0
POINT
  5
3EF71
  8
DEFPOINTS
 62
     0
 10
14325.6599999999998545
 20
15284.0410367590993701
 30
0.0
  0
POINT
  5
3EF72
  8
DEFPOINTS
 62
     0
 10
14097.0377890609506721
 20
15284.0410367590993701
 30
0.0
  0
ENDBLK
  5
3EB68
  8
0
  0
BLOCK
  8
0
  2
*D42
 70
     1
 10
0.0
 20
0.0
 30
0.0
  3
*D42
  1

  0
LINE
  5
3EF92
  8
SCALE
 10
24480.5000000000109139
 20
15411.5410367590993701
 30
0.0
 11
25070.5000000000691216
 21
15411.5410367590993701
 31
0.0
  0
LINE
  5
3EF93
  8
SCALE
 10
24480.5000000000109139
 20
15511.5410367590993701
 30
0.0
 11
25070.5000000000691216
 21
15511.5410367590993701
 31
0.0
  0
LINE
  5
3EF94
  8
SCALE
 10
24980.5000000000691216
 20
15411.5410367590993701
 30
0.0
 11
24980.5000000000691216
 21
15511.5410367590993701
 31
0.0
  0
LINE
  5
3EF95
  8
SCALE
 10
24980.5000000000691216
 20
15511.5410367590993701
 30
0.0
 11
24980.5000000000691216
 21
15761.5410367590993701
 31
0.0
  0
INSERT
  5
3EF96
  8
SCALE
  2
_DOTSMALL
 10
24980.5000000000691216
 20
15411.5410367590993701
 30
0.0
 41
100.0
 42
100.0
 43
100.0
 50
270.0
  0
INSERT
  5
3EF97
  8
SCALE
  2
_DOTSMALL
 10
24980.5000000000691216
 20
15511.5410367590993701
 30
0.0
 41
100.0
 42
100.0
 43
100.0
 50
90.0
  0
INSERT
  5
3EF98
  8
UL1
  2
*U68
 10
0.0
 20
0.0
 30
0.0
  0
POINT
  5
3EF99
  8
DEFPOINTS
 62
     0
 10
24380.5000000000109139
 20
15411.5410367590993701
 30
0.0
  0
POINT
  5
3EF9A
  8
DEFPOINTS
 62
     0
 10
24380.5000000000109139
 20
15511.5410367590993701
 30
0.0
  0
POINT
  5
3EF9B
  8
DEFPOINTS
 62
     0
 10
24980.5000000000691216
 20
15511.5410367590993701
 30
0.0
  0
ENDBLK
  5
3EB98
  8
0
  0
BLOCK
  8
0
  2
*D43
 70
     1
 10
0.0
 20
0.0
 30
0.0
  3
*D43
  1

  0
LINE
  5
3EF9C
  8
SCALE
 10
24484.5000000000109139
 20
15131.5410367590993701
 30
0.0
 11
25070.5000000000982254
 21
15131.5410367590993701
 31
0.0
  0
LINE
  5
3EF9D
  8
SCALE
 10
24480.5000000000109139
 20
15031.5410367590993701
 30
0.0
 11
25070.5000000000982254
 21
15031.5410367590993701
 31
0.0
  0
LINE
  5
3EF9E
  8
SCALE
 10
24980.5000000000982254
 20
15131.5410367590993701
 30
0.0
 11
24980.5000000000982254
 21
15031.5410367590993701
 31
0.0
  0
LINE
  5
3EF9F
  8
SCALE
 10
24980.5000000000982254
 20
15031.5410367590993701
 30
0.0
 11
24980.5000000000982254
 21
14781.5410367590993701
 31
0.0
  0
INSERT
  5
3EFA0
  8
SCALE
  2
_DOTSMALL
 10
24980.5000000000982254
 20
15131.5410367590993701
 30
0.0
 41
100.0
 42
100.0
 43
100.0
 50
90.0
  0
INSERT
  5
3EFA1
  8
SCALE
  2
_DOTSMALL
 10
24980.5000000000982254
 20
15031.5410367590993701
 30
0.0
 41
100.0
 42
100.0
 43
100.0
 50
270.0
  0
INSERT
  5
3EFA2
  8
UL1
  2
*U69
 10
0.0
 20
0.0
 30
0.0
  0
POINT
  5
3EFA3
  8
DEFPOINTS
 62
     0
 10
24384.5000000000109139
 20
15131.5410367590993701
 30
0.0
  0
POINT
  5
3EFA4
  8
DEFPOINTS
 62
     0
 10
24380.5000000000109139
 20
15031.5410367590993701
 30
0.0
  0
POINT
  5
3EFA5
  8
DEFPOINTS
 62
     0
 10
24980.5000000000982254
 20
15031.5410367590993701
 30
0.0
  0
ENDBLK
  5
3EBA5
  8
0
  0
BLOCK
  8
0
  2
*D44
 70
     1
 10
0.0
 20
0.0
 30
0.0
  3
*D44
  1

  0
LINE
  5
3EF87
  8
SCALE
 10
24672.5000000000181899
 20
15295.5410367590993701
 30
0.0
 11
24022.0377890609488531
 21
15295.5410367590993701
 31
0.0
  0
LINE
  5
3EF88
  8
SCALE
 10
24227.7300000000104774
 20
15271.5410367590993701
 30
0.0
 11
24022.0377890609488531
 21
15271.5410367590993701
 31
0.0
  0
LINE
  5
3EF89
  8
SCALE
 10
24112.0377890609488531
 20
15395.5410367590993701
 30
0.0
 11
24112.0377890609488531
 21
15495.5410367590993701
 31
0.0
  0
LINE
  5
3EF8A
  8
SCALE
 10
24112.0377890609488531
 20
15171.5410367590993701
 30
0.0
 11
24112.0377890609488531
 21
15071.5410367590993701
 31
0.0
  0
INSERT
  5
3EF8B
  8
UL1
  2
*U67
 10
0.0
 20
0.0
 30
0.0
  0
LINE
  5
3EF8C
  8
SCALE
 10
24112.0377890609488531
 20
15295.5410367590993701
 30
0.0
 11
24112.0377890609488531
 21
15271.5410367590993701
 31
0.0
  0
INSERT
  5
3EF8D
  8
SCALE
  2
YAZ1
 10
24112.0377890609488531
 20
15295.5410367590993701
 30
0.0
 41
100.0
 42
100.0
 43
100.0
 50
270.0
  0
INSERT
  5
3EF8E
  8
SCALE
  2
YAZ1
 10
24112.0377890609488531
 20
15271.5410367590993701
 30
0.0
 41
100.0
 42
100.0
 43
100.0
 50
90.0
  0
POINT
  5
3EF8F
  8
DEFPOINTS
 62
     0
 10
24772.5000000000109139
 20
15295.5410367590993701
 30
0.0
  0
POINT
  5
3EF90
  8
DEFPOINTS
 62
     0
 10
24327.7300000000104774
 20
15271.5410367590993701
 30
0.0
  0
POINT
  5
3EF91
  8
DEFPOINTS
 62
     0
 10
24112.0377890609488531
 20
15271.5410367590993701
 30
0.0
  0
ENDBLK
  5
3EBB2
  8
0
  0
BLOCK
  8
0
  2
*D45
 70
     1
 10
0.0
 20
0.0
 30
0.0
  3
*D45
  1

  0
LINE
  5
3EFB1
  8
SCALE
 10
34470.5000000000218279
 20
15436.0410367590993701
 30
0.0
 11
35060.5000000000727596
 21
15436.0410367590993701
 31
0.0
  0
LINE
  5
3EFB2
  8
SCALE
 10
34470.5000000000218279
 20
15536.0410367590993701
 30
0.0
 11
35060.5000000000727596
 21
15536.0410367590993701
 31
0.0
  0
LINE
  5
3EFB3
  8
SCALE
 10
34970.5000000000727596
 20
15436.0410367590993701
 30
0.0
 11
34970.5000000000727596
 21
15536.0410367590993701
 31
0.0
  0
LINE
  5
3EFB4
  8
SCALE
 10
34970.5000000000727596
 20
15536.0410367590993701
 30
0.0
 11
34970.5000000000727596
 21
15786.0410367590993701
 31
0.0
  0
INSERT
  5
3EFB5
  8
SCALE
  2
_DOTSMALL
 10
34970.5000000000727596
 20
15436.0410367590993701
 30
0.0
 41
100.0
 42
100.0
 43
100.0
 50
270.0
  0
INSERT
  5
3EFB6
  8
SCALE
  2
_DOTSMALL
 10
34970.5000000000727596
 20
15536.0410367590993701
 30
0.0
 41
100.0
 42
100.0
 43
100.0
 50
90.0
  0
INSERT
  5
3EFB7
  8
UL1
  2
*U71
 10
0.0
 20
0.0
 30
0.0
  0
POINT
  5
3EFB8
  8
DEFPOINTS
 62
     0
 10
34370.500000000007276
 20
15436.0410367590993701
 30
0.0
  0
POINT
  5
3EFB9
  8
DEFPOINTS
 62
     0
 10
34370.500000000007276
 20
15536.0410367590993701
 30
0.0
  0
POINT
  5
3EFBA
  8
DEFPOINTS
 62
     0
 10
34970.5000000000727596
 20
15536.0410367590993701
 30
0.0
  0
ENDBLK
  5
3EBE2
  8
0
  0
BLOCK
  8
0
  2
*D46
 70
     1
 10
0.0
 20
0.0
 30
0.0
  3
*D46
  1

  0
LINE
  5
3EFBB
  8
SCALE
 10
34474.5000000000218279
 20
15106.0410367590993701
 30
0.0
 11
35060.5000000001309672
 21
15106.0410367590993701
 31
0.0
  0
LINE
  5
3EFBC
  8
SCALE
 10
34470.5000000000218279
 20
15006.0410367590993701
 30
0.0
 11
35060.5000000001309672
 21
15006.0410367590993701
 31
0.0
  0
LINE
  5
3EFBD
  8
SCALE
 10
34970.5000000001309672
 20
15106.0410367590993701
 30
0.0
 11
34970.5000000001309672
 21
15006.0410367590993701
 31
0.0
  0
LINE
  5
3EFBE
  8
SCALE
 10
34970.5000000001309672
 20
15006.0410367590993701
 30
0.0
 11
34970.5000000001309672
 21
14756.0410367590993701
 31
0.0
  0
INSERT
  5
3EFBF
  8
SCALE
  2
_DOTSMALL
 10
34970.5000000001309672
 20
15106.0410367590993701
 30
0.0
 41
100.0
 42
100.0
 43
100.0
 50
90.0
  0
INSERT
  5
3EFC0
  8
SCALE
  2
_DOTSMALL
 10
34970.5000000001309672
 20
15006.0410367590993701
 30
0.0
 41
100.0
 42
100.0
 43
100.0
 50
270.0
  0
INSERT
  5
3EFC1
  8
UL1
  2
*U72
 10
0.0
 20
0.0
 30
0.0
  0
POINT
  5
3EFC2
  8
DEFPOINTS
 62
     0
 10
34374.500000000007276
 20
15106.0410367590993701
 30
0.0
  0
POINT
  5
3EFC3
  8
DEFPOINTS
 62
     0
 10
34370.500000000007276
 20
15006.0410367590993701
 30
0.0
  0
POINT
  5
3EFC4
  8
DEFPOINTS
 62
     0
 10
34970.5000000001309672
 20
15006.0410367590993701
 30
0.0
  0
ENDBLK
  5
3EBEF
  8
0
  0
BLOCK
  8
0
  2
*D47
 70
     1
 10
0.0
 20
0.0
 30
0.0
  3
*D47
  1

  0
LINE
  5
3EFA6
  8
SCALE
 10
34772.500000000007276
 20
15295.5410367590993701
 30
0.0
 11
34012.037789060981595
 21
15295.5410367590993701
 31
0.0
  0
LINE
  5
3EFA7
  8
SCALE
 10
34229.540000000022701
 20
15271.0410367590993701
 30
0.0
 11
34012.037789060981595
 21
15271.0410367590993701
 31
0.0
  0
LINE
  5
3EFA8
  8
SCALE
 10
34102.037789060981595
 20
15395.5410367590993701
 30
0.0
 11
34102.037789060981595
 21
15495.5410367590993701
 31
0.0
  0
LINE
  5
3EFA9
  8
SCALE
 10
34102.037789060981595
 20
15171.0410367590993701
 30
0.0
 11
34102.037789060981595
 21
15071.0410367590993701
 31
0.0
  0
INSERT
  5
3EFAA
  8
UL1
  2
*U70
 10
0.0
 20
0.0
 30
0.0
  0
LINE
  5
3EFAB
  8
SCALE
 10
34102.037789060981595
 20
15295.5410367590993701
 30
0.0
 11
34102.037789060981595
 21
15271.0410367590993701
 31
0.0
  0
INSERT
  5
3EFAC
  8
SCALE
  2
YAZ1
 10
34102.037789060981595
 20
15295.5410367590993701
 30
0.0
 41
100.0
 42
100.0
 43
100.0
 50
270.0
  0
INSERT
  5
3EFAD
  8
SCALE
  2
YAZ1
 10
34102.037789060981595
 20
15271.0410367590993701
 30
0.0
 41
100.0
 42
100.0
 43
100.0
 50
90.0
  0
POINT
  5
3EFAE
  8
DEFPOINTS
 62
     0
 10
34872.5000000000218279
 20
15295.5410367590993701
 30
0.0
  0
POINT
  5
3EFAF
  8
DEFPOINTS
 62
     0
 10
34329.540000000022701
 20
15271.0410367590993701
 30
0.0
  0
POINT
  5
3EFB0
  8
DEFPOINTS
 62
     0
 10
34102.037789060981595
 20
15271.0410367590993701
 30
0.0
  0
ENDBLK
  5
3EBFC
  8
0
  0
BLOCK
  8
0
  2
*U48
 70
     1
 10
0.0
 20
0.0
 30
0.0
  3
*U48
  1

  0
TEXT
  5
3F3D0
  8
AM_5
 10
5012.5
 20
21299.2292581086694554
 30
0.0
 40
100.0
  1
2780
  0
ENDBLK
  5
3F3D2
  8
0
  0
BLOCK
  8
0
  2
*U49
 70
     1
 10
0.0
 20
0.0
 30
0.0
  3
*U49
  1

  0
TEXT
  5
3F3D7
  8
SCALE
 10
3160.0000000000231921
 20
19825.5192305276286788
 30
0.0
 40
75.0
  1
655
 50
90.0
  0
ENDBLK
  5
3F3D9
  8
0
  0
BLOCK
  8
0
  2
*U50
 70
     1
 10
0.0
 20
0.0
 30
0.0
  3
*U50
  1

  0
TEXT
  5
3F3DB
  8
SCALE
 10
3160.0000000000291038
 20
19170.5192305276286788
 30
0.0
 40
75.0
  1
655
 50
90.0
  0
ENDBLK
  5
3F3DD
  8
0
  0
BLOCK
  8
0
  2
*U51
 70
     1
 10
0.0
 20
0.0
 30
0.0
  3
*U51
  1

  0
TEXT
  5
3F3DF
  8
SCALE
 10
3510.00000000004502
 20
19516.7692305276286788
 30
0.0
 40
75.0
  1
310
 50
90.0
  0
ENDBLK
  5
3F3E1
  8
0
  0
BLOCK
  8
0
  2
*U52
 70
     1
 10
0.0
 20
0.0
 30
0.0
  3
*U52
  1

  0
TEXT
  5
3F3E3
  8
SCALE
 10
13210.0000000000691216
 20
19835.5192305276286788
 30
0.0
 40
75.0
  1
675
 50
90.0
  0
ENDBLK
  5
3F3E5
  8
0
  0
BLOCK
  8
0
  2
*U53
 70
     1
 10
0.0
 20
0.0
 30
0.0
  3
*U53
  1

  0
TEXT
  5
3F3E7
  8
SCALE
 10
13210.0000000000891305
 20
19160.5192305276286788
 30
0.0
 40
75.0
  1
675
 50
90.0
  0
ENDBLK
  5
3F3E9
  8
0
  0
BLOCK
  8
0
  2
*U54
 70
     1
 10
0.0
 20
0.0
 30
0.0
  3
*U54
  1

  0
TEXT
  5
3F3EB
  8
SCALE
 10
13710.0000000000691216
 20
19504.2692305276286788
 30
0.0
 40
75.0
  1
350
 50
90.0
  0
ENDBLK
  5
3F3ED
  8
0
  0
BLOCK
  8
0
  2
*U55
 70
     1
 10
0.0
 20
0.0
 30
0.0
  3
*U55
  1

  0
TEXT
  5
3F3EF
  8
SCALE
 10
23225.0000000000691216
 20
19849.2692305276286788
 30
0.0
 40
75.0
  1
690
 50
90.0
  0
ENDBLK
  5
3F3F1
  8
0
  0
BLOCK
  8
0
  2
*U56
 70
     1
 10
0.0
 20
0.0
 30
0.0
  3
*U56
  1

  0
TEXT
  5
3F3F3
  8
SCALE
 10
23225.0000000000982254
 20
19159.2692305276286788
 30
0.0
 40
75.0
  1
690
 50
90.0
  0
ENDBLK
  5
3F3F5
  8
0
  0
BLOCK
  8
0
  2
*U57
 70
     1
 10
0.0
 20
0.0
 30
0.0
  3
*U57
  1

  0
TEXT
  5
3F3F7
  8
SCALE
 10
23575.0000000001309672
 20
19504.2692305276286788
 30
0.0
 40
75.0
  1
380
 50
90.0
  0
ENDBLK
  5
3F3F9
  8
0
  0
BLOCK
  8
0
  2
*U58
 70
     1
 10
0.0
 20
0.0
 30
0.0
  3
*U58
  1

  0
TEXT
  5
3F3FB
  8
SCALE
 10
33215.0000000001382432
 20
19880.5192305276214029
 30
0.0
 40
75.0
  1
765
 50
90.0
  0
ENDBLK
  5
3F3FD
  8
0
  0
BLOCK
  8
0
  2
*U59
 70
     1
 10
0.0
 20
0.0
 30
0.0
  3
*U59
  1

  0
TEXT
  5
3F3FF
  8
SCALE
 10
33215.0000000001891749
 20
19115.5192305276214029
 30
0.0
 40
75.0
  1
765
 50
90.0
  0
ENDBLK
  5
3F401
  8
0
  0
BLOCK
  8
0
  2
*U60
 70
     1
 10
0.0
 20
0.0
 30
0.0
  3
*U60
  1

  0
TEXT
  5
3F403
  8
SCALE
 10
33565.0000000002910383
 20
19504.2692305276214029
 30
0.0
 40
75.0
  1
430
 50
90.0
  0
ENDBLK
  5
3F405
  8
0
  0
BLOCK
  8
0
  2
*U61
 70
     1
 10
0.0
 20
0.0
 30
0.0
  3
*U61
  1

  0
TEXT
  5
3F407
  8
SCALE
 10
3957.0377890609170208
 20
15239.5410367590902752
 30
0.0
 40
75.0
  1
12
 50
90.0
  0
ENDBLK
  5
3F409
  8
0
  0
BLOCK
  8
0
  2
*U62
 70
     1
 10
0.0
 20
0.0
 30
0.0
  3
*U62
  1

  0
TEXT
  5
3F40B
  8
SCALE
 10
4878.0000000000245564
 20
15588.5410367590902752
 30
0.0
 40
75.0
  1
100
 50
90.0
  0
ENDBLK
  5
3F40D
  8
0
  0
BLOCK
  8
0
  2
*U63
 70
     1
 10
0.0
 20
0.0
 30
0.0
  3
*U63
  1

  0
TEXT
  5
3F40F
  8
SCALE
 10
4878.0000000000345608
 20
14828.5410367590993701
 30
0.0
 40
75.0
  1
100
 50
90.0
  0
ENDBLK
  5
3F411
  8
0
  0
BLOCK
  8
0
  2
*U64
 70
     1
 10
0.0
 20
0.0
 30
0.0
  3
*U64
  1

  0
TEXT
  5
3F413
  8
SCALE
 10
14007.0377890609506721
 20
15202.2910367590902752
 30
0.0
 40
75.0
  1
11.5
 50
90.0
  0
ENDBLK
  5
3F415
  8
0
  0
BLOCK
  8
0
  2
*U65
 70
     1
 10
0.0
 20
0.0
 30
0.0
  3
*U65
  1

  0
TEXT
  5
3F417
  8
SCALE
 10
14928.0000000000400178
 20
15609.0410367590902752
 30
0.0
 40
75.0
  1
100
 50
90.0
  0
ENDBLK
  5
3F419
  8
0
  0
BLOCK
  8
0
  2
*U66
 70
     1
 10
0.0
 20
0.0
 30
0.0
  3
*U66
  1

  0
TEXT
  5
3F41B
  8
SCALE
 10
14928.0000000000691216
 20
14809.0410367590902752
 30
0.0
 40
75.0
  1
100
 50
90.0
  0
ENDBLK
  5
3F41D
  8
0
  0
BLOCK
  8
0
  2
*U67
 70
     1
 10
0.0
 20
0.0
 30
0.0
  3
*U67
  1

  0
TEXT
  5
3F41F
  8
SCALE
 10
24022.0377890609488531
 20
15221.0410367590902752
 30
0.0
 40
75.0
  1
24
 50
90.0
  0
ENDBLK
  5
3F421
  8
0
  0
BLOCK
  8
0
  2
*U68
 70
     1
 10
0.0
 20
0.0
 30
0.0
  3
*U68
  1

  0
TEXT
  5
3F423
  8
SCALE
 10
24943.0000000000582077
 20
15611.5410367590902752
 30
0.0
 40
75.0
  1
100
 50
90.0
  0
ENDBLK
  5
3F425
  8
0
  0
BLOCK
  8
0
  2
*U69
 70
     1
 10
0.0
 20
0.0
 30
0.0
  3
*U69
  1

  0
TEXT
  5
3F427
  8
SCALE
 10
24943.0000000000982254
 20
14781.5410367590902752
 30
0.0
 40
75.0
  1
100
 50
90.0
  0
ENDBLK
  5
3F429
  8
0
  0
BLOCK
  8
0
  2
*U70
 70
     1
 10
0.0
 20
0.0
 30
0.0
  3
*U70
  1

  0
TEXT
  5
3F42B
  8
SCALE
 10
34012.037789060981595
 20
15170.7910367590902752
 30
0.0
 40
75.0
  1
24.5
 50
90.0
  0
ENDBLK
  5
3F42D
  8
0
  0
BLOCK
  8
0
  2
*U71
 70
     1
 10
0.0
 20
0.0
 30
0.0
  3
*U71
  1

  0
TEXT
  5
3F42F
  8
SCALE
 10
34933.0000000000582077
 20
15636.0410367590902752
 30
0.0
 40
75.0
  1
100
 50
90.0
  0
ENDBLK
  5
3F431
  8
0
  0
BLOCK
  8
0
  2
*U72
 70
     1
 10
0.0
 20
0.0
 30
0.0
  3
*U72
  1

  0
TEXT
  5
3F433
  8
SCALE
 10
34933.0000000001164153
 20
14756.0410367590902752
 30
0.0
 40
75.0
  1
100
 50
90.0
  0
ENDBLK
  5
3F435
  8
0
  0
BLOCK
  8
0
  2
*U73
 70
     1
 10
0.0
 20
0.0
 30
0.0
  3
*U73
  1

  0
TEXT
  5
3F437
  8
SCALE
 10
25263.75
 20
21025.5192305276286788
 30
0.0
 40
75.0
  1
取付面間:2450
  0
ENDBLK
  5
3F439
  8
0
  0
BLOCK
  8
0
  2
*U74
 70
     1
 10
0.0
 20
0.0
 30
0.0
  3
*U74
  1

  0
TEXT
  5
3F43B
  8
SCALE
 10
26975.0
 20
21025.5192305276286788
 30
0.0
 40
75.0
  1
500
  0
ENDBLK
  5
3F43D
  8
0
  0
BLOCK
  8
0
  2
*U75
 70
     1
 10
0.0
 20
0.0
 30
0.0
  3
*U75
  1

  0
TEXT
  5
3F43F
  8
SCALE
 10
24025.0
 20
21025.5192305276286788
 30
0.0
 40
75.0
  1
500
  0
ENDBLK
  5
3F441
  8
0
  0
BLOCK
  8
0
  2
*U76
 70
     1
 10
0.0
 20
0.0
 30
0.0
  3
*U76
  1

  0
TEXT
  5
3F443
  8
SCALE
 10
15188.75
 20
21010.5192305276286788
 30
0.0
 40
75.0
  1
取付面間:2330
  0
ENDBLK
  5
3F445
  8
0
  0
BLOCK
  8
0
  2
*U77
 70
     1
 10
0.0
 20
0.0
 30
0.0
  3
*U77
  1

  0
TEXT
  5
3F447
  8
SCALE
 10
16840.0
 20
21010.5192305276286788
 30
0.0
 40
75.0
  1
500
  0
ENDBLK
  5
3F449
  8
0
  0
BLOCK
  8
0
  2
*U78
 70
     1
 10
0.0
 20
0.0
 30
0.0
  3
*U78
  1

  0
TEXT
  5
3F44B
  8
SCALE
 10
16491.0
 20
20660.5192305276214029
 30
0.0
 40
75.0
  1
198
  0
ENDBLK
  5
3F44D
  8
0
  0
BLOCK
  8
0
  2
*U79
 70
     1
 10
0.0
 20
0.0
 30
0.0
  3
*U79
  1

  0
TEXT
  5
3F44F
  8
SCALE
 10
37135.0
 20
21100.5192305276286788
 30
0.0
 40
75.0
  1
500
  0
ENDBLK
  5
3F451
  8
0
  0
BLOCK
  8
0
  2
*U80
 70
     1
 10
0.0
 20
0.0
 30
0.0
  3
*U80
  1

  0
TEXT
  5
3F453
  8
SCALE
 10
36735.0
 20
20750.5192305276286788
 30
0.0
 40
75.0
  1
300
  0
ENDBLK
  5
3F455
  8
0
  0
BLOCK
  8
0
  2
*U81
 70
     1
 10
0.0
 20
0.0
 30
0.0
  3
*U81
  1

  0
TEXT
  5
3F457
  8
SCALE
 10
34015.0
 20
21100.5192305276286788
 30
0.0
 40
75.0
  1
500
  0
ENDBLK
  5
3F459
  8
0
  0
BLOCK
  8
0
  2
*U82
 70
     1
 10
0.0
 20
0.0
 30
0.0
  3
*U82
  1

  0
TEXT
  5
3F45B
  8
SCALE
 10
35338.75
 20
21100.5192305276286788
 30
0.0
 40
75.0
  1
取付面間:2620
  0
ENDBLK
  5
3F45D
  8
0
  0
BLOCK
  8
0
  2
*U83
 70
     1
 10
0.0
 20
0.0
 30
0.0
  3
*U83
  1

  0
TEXT
  5
3F45F
  8
SCALE
 10
26598.75
 20
20675.5192305276286788
 30
0.0
 40
75.0
  1
240
  0
ENDBLK
  5
3F461
  8
0
  0
BLOCK
  8
0
  2
*U84
 70
     1
 10
0.0
 20
0.0
 30
0.0
  3
*U84
  1

  0
TEXT
  5
3F463
  8
SCALE
 10
6401.5
 20
20640.5192305276214029
 30
0.0
 40
75.0
  1
177
  0
ENDBLK
  5
3F465
  8
0
  0
BLOCK
  8
0
  2
*U85
 70
     1
 10
0.0
 20
0.0
 30
0.0
  3
*U85
  1

  0
TEXT
  5
3F467
  8
SCALE
 10
3960.0
 20
20990.5192305276286788
 30
0.0
 40
75.0
  1
500
  0
ENDBLK
  5
3F469
  8
0
  0
BLOCK
  8
0
  2
*U86
 70
     1
 10
0.0
 20
0.0
 30
0.0
  3
*U86
  1

  0
TEXT
  5
3F46B
  8
SCALE
 10
5113.75
 20
20990.5192305276214029
 30
0.0
 40
75.0
  1
取付面間:2280
  0
ENDBLK
  5
3F46D
  8
0
  0
BLOCK
  8
0
  2
*U87
 70
     1
 10
0.0
 20
0.0
 30
0.0
  3
*U87
  1

  0
TEXT
  5
3F46F
  8
SCALE
 10
6740.0
 20
20990.5192305276214029
 30
0.0
 40
75.0
  1
500
  0
ENDBLK
  5
3F471
  8
0
  0
BLOCK
  8
0
  2
*U88
 70
     1
 10
0.0
 20
0.0
 30
0.0
  3
*U88
  1

  0
TEXT
  5
3F473
  8
SCALE
 10
14010.0
 20
21010.5192305276286788
 30
0.0
 40
75.0
  1
500
  0
ENDBLK
  5
3F475
  8
0
  0
ENDSEC
  0
SECTION
  2
ENTITIES
  0
INSERT
  5
378
  8
0
  2
INSLYTXT
 10
0.0
 20
0.0
 30
0.0
 41
50.0
 42
50.0
 43
50.0
  0
TEXT
  5
402
  8
SCALE
 10
334.1702073142951122
 20
275.6991537608938074
 30
0.0
 40
125.0
  1
08121917
 50
90.0
  0
LINE
  5
1C30C
  8
GAWA
 10
400.0
 20
0.0
 30
0.0
 11
40700.0
 21
0.0
 31
0.0
  0
LINE
  5
1C30D
  8
GAWA
 10
40700.0
 20
27750.0
 30
0.0
 11
400.0
 21
27750.0
 31
0.0
  0
LINE
  5
1C312
  8
GAWA
 10
400.0
 20
27750.0
 30
0.0
 11
400.0
 21
0.0
 31
0.0
  0
LINE
  5
1C313
  8
GAWA
 10
20350.0
 20
0.0
 30
0.0
 11
800.0
 21
0.0
 31
0.0
  0
LINE
  5
1C876
  8
GAWA
 10
40700.0
 20
0.0
 30
0.0
 11
40700.0
 21
27750.0
 31
0.0
  0
LINE
  5
237E4
  8
KARISEN
 10
10475.0
 20
0.0
 30
0.0
 11
10475.0
 21
23750.0
 31
0.0
  0
LINE
  5
237E8
  8
KARISEN
 10
400.0
 20
11875.0
 30
0.0
 11
40700.0
 21
11875.0
 31
0.0
  0
LINE
  5
3730B
  8
GAWA
 10
40700.0
 20
23750.0
 30
0.0
 11
400.0
 21
23750.0
 31
0.0
  0
TEXT
  5
3730E
  8
SCALE
 10
1580.1877159494611078
 20
25367.8948759894701652
 30
0.0
 40
700.0
  1
水平１本タイプ 〔免震量500mm〕
  0
TEXT
  5
37405
  8
SCALE
 10
3930.8333333333330302
 20
22788.6513824063003995
 30
0.0
 40
200.0
  1
品番:MB5VP-HY100SY
 72
     4
 11
5437.5
 21
22888.6513824063003995
 31
0.0
  0
TEXT
  5
37406
  8
SCALE
 10
5137.5
 20
23274.0531561693715048
 30
0.0
 40
200.0
  1
100A
 72
     4
 11
5437.5
 21
23374.0531561693605909
 31
0.0
  0
TEXT
  5
37886
  8
SCALE
 10
4430.0
 20
20655.4609905246907147
 30
0.0
 40
90.0
  1

 72
     4
 11
4430.0
 21
20655.4609905246907147
 31
0.0
  0
TEXT
  5
37922
  8
SCALE
 10
12489.9999999999909051
 20
20655.4609905246907147
 30
0.0
 40
90.0
  1

 72
     4
 11
12489.9999999999909051
 21
20655.4609905246907147
 31
0.0
  0
TEXT
  5
379D8
  8
SCALE
 10
20550.0
 20
20655.4609905246907147
 30
0.0
 40
90.0
  1

 72
     4
 11
20550.0
 21
20655.4609905246907147
 31
0.0
  0
TEXT
  5
37A67
  8
SCALE
 10
28610.0
 20
20655.4609905246907147
 30
0.0
 40
90.0
  1

 72
     4
 11
28610.0
 21
20655.4609905246907147
 31
0.0
  0
TEXT
  5
37B1D
  8
SCALE
 10
36670.0
 20
20655.4609905246907147
 30
0.0
 40
90.0
  1

 72
     4
 11
36670.0
 21
20655.4609905246907147
 31
0.0
  0
TEXT
  5
3815B
  8
SCALE
 10
4429.9999999999918145
 20
8947.0854049793269951
 30
0.0
 40
90.0
  1

 72
     4
 11
4429.9999999999918145
 21
8947.0854049793269951
 31
0.0
  0
TEXT
  5
38175
  8
SCALE
 10
12489.9999999999909051
 20
8947.0854049793269951
 30
0.0
 40
90.0
  1

 72
     4
 11
12489.9999999999909051
 21
8947.0854049793269951
 31
0.0
  0
TEXT
  5
3830B
  8
SCALE
 10
20549.9999999999890861
 20
8947.0854049793269951
 30
0.0
 40
90.0
  1

 72
     4
 11
20549.9999999999890861
 21
8947.0854049793269951
 31
0.0
  0
TEXT
  5
3830E
  8
SCALE
 10
28609.9999999999890861
 20
8947.0854049793269951
 30
0.0
 40
90.0
  1

 72
     4
 11
28609.9999999999890861
 21
8947.0854049793269951
 31
0.0
  0
TEXT
  5
38A21
  8
SCALE
 10
4430.0
 20
19964.5410924941497797
 30
0.0
 40
90.0
  1

 72
     4
 11
4430.0
 21
19964.5410924941497797
 31
0.0
  0
TEXT
  5
38AAD
  8
SCALE
 10
12489.9999999999909051
 20
19964.5410924941497797
 30
0.0
 40
90.0
  1

 72
     4
 11
12489.9999999999909051
 21
19964.5410924941497797
 31
0.0
  0
TEXT
  5
38B3D
  8
SCALE
 10
20550.0
 20
19964.5410924941497797
 30
0.0
 40
90.0
  1

 72
     4
 11
20550.0
 21
19964.5410924941497797
 31
0.0
  0
TEXT
  5
38BD5
  8
SCALE
 10
28610.0
 20
19964.5410924941497797
 30
0.0
 40
90.0
  1

 72
     4
 11
28610.0
 21
19964.5410924941497797
 31
0.0
  0
TEXT
  5
38C70
  8
SCALE
 10
36670.0
 20
19964.5410924941497797
 30
0.0
 40
90.0
  1

 72
     4
 11
36670.0
 21
19964.5410924941497797
 31
0.0
  0
TEXT
  5
391C1
  8
SCALE
 10
4429.9999999999918145
 20
8089.5410924941534176
 30
0.0
 40
90.0
  1

 72
     4
 11
4429.9999999999918145
 21
8089.5410924941534176
 31
0.0
  0
TEXT
  5
3926B
  8
SCALE
 10
12489.9999999999909051
 20
8089.5410924941534176
 30
0.0
 40
90.0
  1

 72
     4
 11
12489.9999999999909051
 21
8089.5410924941534176
 31
0.0
  0
TEXT
  5
3931D
  8
SCALE
 10
20549.9999999999890861
 20
8089.5410924941534176
 30
0.0
 40
90.0
  1

 72
     4
 11
20549.9999999999890861
 21
8089.5410924941534176
 31
0.0
  0
TEXT
  5
393DC
  8
SCALE
 10
28609.9999999999890861
 20
8089.5410924941534176
 30
0.0
 40
90.0
  1

 72
     4
 11
28609.9999999999890861
 21
8089.5410924941534176
 31
0.0
  0
TEXT
  5
39C83
  8
SCALE
 10
4430.0
 20
19493.1618358652303868
 30
0.0
 40
90.0
  1

 72
     4
 11
4430.0
 21
19493.1618358652303868
 31
0.0
  0
TEXT
  5
39C93
  8
SCALE
 10
12490.0
 20
19493.1618358652303868
 30
0.0
 40
90.0
  1

 72
     4
 11
12490.0
 21
19493.1618358652303868
 31
0.0
  0
TEXT
  5
39CA3
  8
SCALE
 10
20550.0
 20
19493.1618358652303868
 30
0.0
 40
90.0
  1

 72
     4
 11
20550.0
 21
19493.1618358652303868
 31
0.0
  0
TEXT
  5
39CB3
  8
SCALE
 10
28610.0
 20
19493.1618358652303868
 30
0.0
 40
90.0
  1

 72
     4
 11
28610.0
 21
19493.1618358652303868
 31
0.0
  0
TEXT
  5
39CC3
  8
SCALE
 10
36670.0
 20
19493.1618358652303868
 30
0.0
 40
90.0
  1

 72
     4
 11
36670.0
 21
19493.1618358652303868
 31
0.0
  0
TEXT
  5
3A589
  8
SCALE
 10
4430.0
 20
7618.1618358653504401
 30
0.0
 40
90.0
  1

 72
     4
 11
4430.0
 21
7618.1618358653504401
 31
0.0
  0
TEXT
  5
3A5A1
  8
SCALE
 10
12490.0
 20
7618.1618358653504401
 30
0.0
 40
90.0
  1

 72
     4
 11
12490.0
 21
7618.1618358653504401
 31
0.0
  0
TEXT
  5
3A5B9
  8
SCALE
 10
20550.0
 20
7618.1618358653504401
 30
0.0
 40
90.0
  1

 72
     4
 11
20550.0
 21
7618.1618358653504401
 31
0.0
  0
TEXT
  5
3A5D1
  8
SCALE
 10
28610.0
 20
7618.1618358653504401
 30
0.0
 40
90.0
  1

 72
     4
 11
28610.0
 21
7618.1618358653504401
 31
0.0
  0
TEXT
  5
3ACA2
  8
SCALE
 10
-899.7026076388574438
 20
22096.2302539357515343
 30
0.0
 40
75.0
  1

 72
     4
 11
-899.7026076388574438
 21
22096.2302539357515343
 31
0.0
  0
TEXT
  5
3ACA3
  8
SCALE
 10
-899.7026076388574438
 20
21736.2302539357515343
 30
0.0
 40
75.0
  1

 72
     4
 11
-899.7026076388574438
 21
21736.2302539357515343
 31
0.0
  0
TEXT
  5
3ACA4
  8
SCALE
 10
-899.7026076388574438
 20
21916.2302539357515343
 30
0.0
 40
75.0
  1

 72
     4
 11
-899.7026076388574438
 21
21916.2302539357515343
 31
0.0
  0
TEXT
  5
3ACA5
  8
SCALE
 10
-899.7026076388574438
 20
22816.2302539357515343
 30
0.0
 40
75.0
  1

 72
     4
 11
-899.7026076388574438
 21
22816.2302539357515343
 31
0.0
  0
TEXT
  5
3ACA6
  8
SCALE
 10
-899.7026076388574438
 20
22276.2302539357515343
 30
0.0
 40
75.0
  1

 72
     4
 11
-899.7026076388574438
 21
22276.2302539357515343
 31
0.0
  0
TEXT
  5
3ACA7
  8
SCALE
 10
-899.7026076388574438
 20
22456.2302539357515343
 30
0.0
 40
75.0
  1

 72
     4
 11
-899.7026076388574438
 21
22456.2302539357515343
 31
0.0
  0
TEXT
  5
3ACA8
  8
SCALE
 10
-899.7026076388574438
 20
22636.2302539357515343
 30
0.0
 40
75.0
  1

 72
     4
 11
-899.7026076388574438
 21
22636.2302539357515343
 31
0.0
  0
LINE
  5
3ACC8
  8
KARISEN
 10
20550.0
 20
0.0
 30
0.0
 11
20550.0
 21
23750.0
 31
0.0
  0
TEXT
  5
3ACCF
  8
SCALE
 10
13972.5
 20
22788.6513824063003995
 30
0.0
 40
200.0
  1
品番:MB5VP-HY125SY
 72
     4
 11
15512.5
 21
22888.6513824063003995
 31
0.0
  0
TEXT
  5
3ACD0
  8
SCALE
 10
15179.1666666666606034
 20
23274.0531561693715048
 30
0.0
 40
200.0
  1
125A
 72
     4
 11
15512.5
 21
23374.0531561693605909
 31
0.0
  0
LINE
  5
3ACD2
  8
KARISEN
 10
30625.0
 20
0.0
 30
0.0
 11
30625.0
 21
23750.0
 31
0.0
  0
TEXT
  5
3ACD9
  8
SCALE
 10
24064.1666666666715173
 20
22788.6513824063003995
 30
0.0
 40
200.0
  1
品番:MB5VP-HY150SY
 72
     4
 11
25587.5
 21
22888.6513824063003995
 31
0.0
  0
TEXT
  5
3ACDA
  8
SCALE
 10
25270.8333333333284827
 20
23274.0531561693715048
 30
0.0
 40
200.0
  1
150A
 72
     4
 11
25587.5
 21
23374.0531561693605909
 31
0.0
  0
TEXT
  5
3ACE3
  8
SCALE
 10
34122.5
 20
22788.6513824063003995
 30
0.0
 40
200.0
  1
品番:MB5VP-HY200SY
 72
     4
 11
35662.5
 21
22888.6513824063003995
 31
0.0
  0
TEXT
  5
3ACE4
  8
SCALE
 10
35329.1666666666569654
 20
23274.0531561693715048
 30
0.0
 40
200.0
  1
200A
 72
     4
 11
35662.5
 21
23374.0531561693605909
 31
0.0
  0
TEXT
  5
3BCE6
  8
SCALE
 10
5437.5
 20
20973.8802130210715404
 30
0.0
 40
200.0
  1

 72
     4
 11
5437.5
 21
20973.8802130210715404
 31
0.0
  0
TEXT
  5
3BEA0
  8
SCALE
 10
15512.5
 20
20973.8802130210715404
 30
0.0
 40
200.0
  1

 72
     4
 11
15512.5
 21
20973.8802130210715404
 31
0.0
  0
TEXT
  5
3C058
  8
SCALE
 10
25587.5
 20
20973.8802130210715404
 30
0.0
 40
200.0
  1

 72
     4
 11
25587.5
 21
20973.8802130210715404
 31
0.0
  0
TEXT
  5
3C212
  8
SCALE
 10
35662.5
 20
20973.8802130210715404
 30
0.0
 40
200.0
  1

 72
     4
 11
35662.5
 21
20973.8802130210715404
 31
0.0
  0
TEXT
  5
3C3C6
  8
SCALE
 10
5437.5
 20
9098.8802130210679024
 30
0.0
 40
200.0
  1

 72
     4
 11
5437.5
 21
9098.8802130210679024
 31
0.0
  0
TEXT
  5
3C58A
  8
SCALE
 10
15512.5
 20
7822.2788021797314286
 30
0.0
 40
90.0
  1

 72
     4
 11
15512.5
 21
7822.2788021797314286
 31
0.0
  0
TEXT
  5
3C77D
  8
SCALE
 10
25587.5
 20
7822.2788021798478439
 30
0.0
 40
90.0
  1

 72
     4
 11
25587.5
 21
7822.2788021798478439
 31
0.0
  0
LINE
  5
3D01C
  8
CENTER
 10
6620.5299999999988358
 20
19598.0192305276286788
 30
0.0
 11
4600.5
 21
19598.0192305276286788
 31
0.0
  0
LINE
  5
3D01D
  8
1
  6
CONTINUOUS
 62
     7
 10
5890.5
 20
19522.5192305276286788
 30
0.0
 11
4594.5
 21
19522.5192305276286788
 31
0.0
  0
LINE
  5
3D01E
  8
1
  6
CONTINUOUS
 62
     7
 10
5890.5
 20
19673.5192305276286788
 30
0.0
 11
4594.5
 21
19673.5192305276286788
 31
0.0
  0
ARC
  5
3D01F
  8
1
  6
CONTINUOUS
 62
     7
 10
4439.5
 20
19598.0192305276286788
 30
0.0
 40
76.5
 50
228.1680000000066002
 51
290.2969999999997981
  0
ARC
  5
3D020
  8
1
  6
CONTINUOUS
 62
     7
 10
4439.5
 20
19598.0192305276286788
 30
0.0
 40
76.5
 50
69.7030000000001451
 51
131.8324999999692011
  0
LINE
  5
3D021
  8
CENTER
 10
4570.5
 20
19598.0192305276286788
 30
0.0
 11
4265.0600000000004002
 21
19598.0192305276286788
 31
0.0
  0
LINE
  5
3D022
  8
1
  6
CONTINUOUS
 62
     7
 10
4315.5
 20
19493.0192305276286788
 30
0.0
 11
4315.5
 21
19598.0192305276286788
 31
0.0
  0
LINE
  5
3D023
  8
1
  6
CONTINUOUS
 62
     7
 10
4297.5
 20
19493.0192305276286788
 30
0.0
 11
4297.5
 21
19598.0192305276286788
 31
0.0
  0
LINE
  5
3D024
  8
1
  6
CONTINUOUS
 62
     7
 10
4297.5
 20
19493.0192305276286788
 30
0.0
 11
4315.5
 21
19493.0192305276286788
 31
0.0
  0
LINE
  5
3D025
  8
1
  6
CONTINUOUS
 62
     7
 10
4315.5
 20
19703.0192305276286788
 30
0.0
 11
4315.5
 21
19598.0192305276286788
 31
0.0
  0
LINE
  5
3D026
  8
1
  6
CONTINUOUS
 62
     7
 10
4297.5
 20
19703.0192305276286788
 30
0.0
 11
4297.5
 21
19598.0192305276286788
 31
0.0
  0
LINE
  5
3D027
  8
1
  6
CONTINUOUS
 62
     7
 10
4297.5
 20
19703.0192305276286788
 30
0.0
 11
4315.5
 21
19703.0192305276286788
 31
0.0
  0
LINE
  5
3D028
  8
1
  6
CONTINUOUS
 62
     7
 10
4388.4799999999995634
 20
19541.0192305276286788
 30
0.0
 11
4388.4799999999995634
 21
19598.0192305276286788
 31
0.0
  0
LINE
  5
3D029
  8
1
  6
CONTINUOUS
 62
     7
 10
4388.4799999999995634
 20
19655.0192305276286788
 30
0.0
 11
4388.4799999999995634
 21
19598.0192305276286788
 31
0.0
  0
LINE
  5
3D02A
  8
1
  6
CONTINUOUS
 62
     7
 10
4388.4799999999995634
 20
19541.0192305276286788
 30
0.0
 11
4315.5
 21
19541.0192305276286788
 31
0.0
  0
LINE
  5
3D02B
  8
1
  6
CONTINUOUS
 62
     7
 10
4388.4799999999995634
 20
19655.0192305276286788
 30
0.0
 11
4315.5
 21
19655.0192305276286788
 31
0.0
  0
LINE
  5
3D02D
  8
1
  6
CONTINUOUS
 62
     7
 10
4576.5
 20
19536.0192305276286788
 30
0.0
 11
4576.5
 21
19600.419230527630134
 31
0.0
  0
LINE
  5
3D02E
  8
1
  6
CONTINUOUS
 62
     7
 10
4594.5
 20
19522.5192305276286788
 30
0.0
 11
4594.5
 21
19595.6192305276199477
 31
0.0
  0
LINE
  5
3D02F
  8
1
  6
CONTINUOUS
 62
     7
 10
4513.0
 20
19536.0192305276286788
 30
0.0
 11
4513.0
 21
19598.0192305276286788
 31
0.0
  0
LINE
  5
3D030
  8
1
  6
CONTINUOUS
 62
     7
 10
4474.4999999999990905
 20
19598.0192305276286788
 30
0.0
 11
4474.4999999999990905
 21
19526.2692305276286788
 31
0.0
  0
LINE
  5
3D031
  8
1
  6
CONTINUOUS
 62
     7
 10
4576.5
 20
19536.0192305276286788
 30
0.0
 11
4513.0
 21
19536.0192305276286788
 31
0.0
  0
LINE
  5
3D033
  8
1
  6
CONTINUOUS
 62
     7
 10
4474.4999999999990905
 20
19526.2692305276286788
 30
0.0
 11
4466.0399999999999636
 21
19526.2692305276286788
 31
0.0
  0
LINE
  5
3D034
  8
1
  6
CONTINUOUS
 62
     7
 10
4513.0
 20
19541.0192305276286788
 30
0.0
 11
4474.4999999999990905
 21
19541.0192305276286788
 31
0.0
  0
LINE
  5
3D035
  8
1
  6
CONTINUOUS
 62
     7
 10
4576.5
 20
19660.0192305276286788
 30
0.0
 11
4513.0
 21
19660.0192305276286788
 31
0.0
  0
LINE
  5
3D036
  8
CENTER
 10
4600.5
 20
19598.0192305276286788
 30
0.0
 11
4570.5
 21
19598.0192305276286788
 31
0.0
  0
LINE
  5
3D037
  8
1
  6
CONTINUOUS
 62
     7
 10
4576.5
 20
19660.0192305276286788
 30
0.0
 11
4576.5
 21
19600.419230527630134
 31
0.0
  0
LINE
  5
3D038
  8
1
  6
CONTINUOUS
 62
     7
 10
4594.5
 20
19673.5192305276286788
 30
0.0
 11
4594.5
 21
19595.6192305276199477
 31
0.0
  0
LINE
  5
3D039
  8
1
  6
CONTINUOUS
 62
     7
 10
4594.5
 20
19665.6192305276308616
 30
0.0
 11
4582.1499999999996362
 21
19657.5192305276286788
 31
0.0
  0
LINE
  5
3D03A
  8
1
  6
CONTINUOUS
 62
     7
 10
4576.5
 20
19657.5192305276286788
 30
0.0
 11
4582.1499999999996362
 21
19657.5192305276286788
 31
0.0
  0
LINE
  5
3D03B
  8
1
  6
CONTINUOUS
 62
     7
 10
4474.4999999999990905
 20
19669.7692305276286788
 30
0.0
 11
4466.0399999999999636
 21
19669.7692305276286788
 31
0.0
  0
LINE
  5
3D03C
  8
1
  6
CONTINUOUS
 62
     7
 10
4513.0
 20
19660.0192305276286788
 30
0.0
 11
4513.0
 21
19598.0192305276286788
 31
0.0
  0
LINE
  5
3D03D
  8
1
  6
CONTINUOUS
 62
     7
 10
4513.0
 20
19655.0192305276286788
 30
0.0
 11
4474.4999999999990905
 21
19655.0192305276286788
 31
0.0
  0
LINE
  5
3D03E
  8
1
  6
CONTINUOUS
 62
     7
 10
4474.4999999999990905
 20
19598.0192305276286788
 30
0.0
 11
4474.4999999999990905
 21
19669.7692305276286788
 31
0.0
  0
LINE
  5
3D03F
  8
1
  6
CONTINUOUS
 62
     7
 10
6400.5
 20
19541.0192305276286788
 30
0.0
 11
5890.5
 21
19541.0192305276286788
 31
0.0
  0
LINE
  5
3D040
  8
1
  6
CONTINUOUS
 62
     7
 10
6400.5
 20
19655.0192305276286788
 30
0.0
 11
5890.5
 21
19655.0192305276286788
 31
0.0
  0
LINE
  5
3D041
  8
1
  6
CONTINUOUS
 62
     7
 10
5890.5
 20
19598.0192305276286788
 30
0.0
 11
5890.5
 21
19522.5192305276286788
 31
0.0
  0
LINE
  5
3D042
  8
1
  6
CONTINUOUS
 62
     7
 10
5890.5
 20
19598.0192305276286788
 30
0.0
 11
5890.5
 21
19673.5192305276286788
 31
0.0
  0
LINE
  5
3D044
  8
1
  6
CONTINUOUS
 62
     7
 10
6486.5200000000004366
 20
19541.0192305276286788
 30
0.0
 11
6486.5200000000004366
 21
19598.0192305276286788
 31
0.0
  0
LINE
  5
3D045
  8
1
  6
CONTINUOUS
 62
     7
 10
6400.5
 20
19598.0192305276286788
 30
0.0
 11
6400.5
 21
19526.2692305276286788
 31
0.0
  0
ARC
  5
3D046
  8
1
  6
CONTINUOUS
 62
     7
 10
6435.5000000000009095
 20
19598.0192305276286788
 30
0.0
 40
76.5
 50
249.7030000000000882
 51
311.8319999999933998
  0
LINE
  5
3D047
  8
1
  6
CONTINUOUS
 62
     7
 10
6400.5
 20
19526.2692305276286788
 30
0.0
 11
6408.9600000000000364
 21
19526.2692305276286788
 31
0.0
  0
ARC
  5
3D048
  8
1
  6
CONTINUOUS
 62
     7
 10
6435.5000000000009095
 20
19598.0192305276286788
 30
0.0
 40
76.5
 50
48.1680000000065718
 51
110.2967999999911939
  0
LINE
  5
3D049
  8
1
  6
CONTINUOUS
 62
     7
 10
6486.5200000000004366
 20
19655.0192305276286788
 30
0.0
 11
6486.5200000000004366
 21
19598.0192305276286788
 31
0.0
  0
LINE
  5
3D04A
  8
1
  6
CONTINUOUS
 62
     7
 10
6400.5
 20
19598.0192305276286788
 30
0.0
 11
6400.5
 21
19669.7692305276286788
 31
0.0
  0
LINE
  5
3D04B
  8
1
  6
CONTINUOUS
 62
     7
 10
6400.5
 20
19669.7692305276286788
 30
0.0
 11
6408.9600000000000364
 21
19669.7692305276286788
 31
0.0
  0
LINE
  5
3D04C
  8
1
  6
CONTINUOUS
 62
     7
 10
6559.4999999999990905
 20
19493.0192305276286788
 30
0.0
 11
6559.4999999999990905
 21
19598.0192305276286788
 31
0.0
  0
LINE
  5
3D04D
  8
1
  6
CONTINUOUS
 62
     7
 10
6577.5
 20
19493.0192305276286788
 30
0.0
 11
6577.5
 21
19598.0192305276286788
 31
0.0
  0
LINE
  5
3D04E
  8
1
  6
CONTINUOUS
 62
     7
 10
6577.5
 20
19493.0192305276286788
 30
0.0
 11
6559.4999999999990905
 21
19493.0192305276286788
 31
0.0
  0
LINE
  5
3D04F
  8
1
  6
CONTINUOUS
 62
     7
 10
6559.4999999999990905
 20
19703.0192305276286788
 30
0.0
 11
6559.4999999999990905
 21
19598.0192305276286788
 31
0.0
  0
LINE
  5
3D050
  8
1
  6
CONTINUOUS
 62
     7
 10
6577.5
 20
19703.0192305276286788
 30
0.0
 11
6577.5
 21
19598.0192305276286788
 31
0.0
  0
LINE
  5
3D051
  8
1
  6
CONTINUOUS
 62
     7
 10
6577.5
 20
19703.0192305276286788
 30
0.0
 11
6559.4999999999990905
 21
19703.0192305276286788
 31
0.0
  0
LINE
  5
3D052
  8
1
  6
CONTINUOUS
 62
     7
 10
6486.5200000000004366
 20
19541.0192305276286788
 30
0.0
 11
6559.4999999999990905
 21
19541.0192305276286788
 31
0.0
  0
LINE
  5
3D053
  8
1
  6
CONTINUOUS
 62
     7
 10
6486.5200000000004366
 20
19655.0192305276286788
 30
0.0
 11
6559.4999999999990905
 21
19655.0192305276286788
 31
0.0
  0
LINE
  5
3D054
  8
1
  6
CONTINUOUS
 62
     7
 10
4315.5
 20
15178.5410367590902752
 30
0.0
 11
4315.5
 21
15283.5410367590902752
 31
0.0
  0
LINE
  5
3D055
  8
1
  6
CONTINUOUS
 62
     7
 10
4297.5
 20
15178.5410367590902752
 30
0.0
 11
4297.5
 21
15283.5410367590902752
 31
0.0
  0
LINE
  5
3D056
  8
1
  6
CONTINUOUS
 62
     7
 10
4297.5
 20
15178.5410367590902752
 30
0.0
 11
4315.5
 21
15178.5410367590902752
 31
0.0
  0
LINE
  5
3D057
  8
CENTER
 10
6620.5299999999988358
 20
15295.5410367590902752
 30
0.0
 11
4600.5
 21
15295.5410367590902752
 31
0.0
  0
LINE
  5
3D058
  8
1
  6
CONTINUOUS
 62
     7
 10
5890.5
 20
15220.0410367590902752
 30
0.0
 11
4594.5
 21
15220.0410367590902752
 31
0.0
  0
LINE
  5
3D059
  8
1
  6
CONTINUOUS
 62
     7
 10
5890.5
 20
15371.0410367590902752
 30
0.0
 11
4594.5
 21
15371.0410367590902752
 31
0.0
  0
LINE
  5
3D05A
  8
CENTER
 10
4570.5
 20
15283.5410367590902752
 30
0.0
 11
4265.0600000000004002
 21
15283.5410367590902752
 31
0.0
  0
LINE
  5
3D05B
  8
1
  6
CONTINUOUS
 62
     7
 10
4388.4799999999995634
 20
15226.5410367590902752
 30
0.0
 11
4315.5
 21
15226.5410367590902752
 31
0.0
  0
LINE
  5
3D05C
  8
1
  6
CONTINUOUS
 62
     7
 10
4388.4799999999995634
 20
15340.5410367590902752
 30
0.0
 11
4315.5
 21
15340.5410367590902752
 31
0.0
  0
LINE
  5
3D05D
  8
1
  6
CONTINUOUS
 62
     7
 10
4315.5
 20
15388.5410367590902752
 30
0.0
 11
4315.5
 21
15283.5410367590902752
 31
0.0
  0
LINE
  5
3D05E
  8
1
  6
CONTINUOUS
 62
     7
 10
4297.5
 20
15388.5410367590902752
 30
0.0
 11
4297.5
 21
15283.5410367590902752
 31
0.0
  0
LINE
  5
3D05F
  8
1
  6
CONTINUOUS
 62
     7
 10
4297.5
 20
15388.5410367590902752
 30
0.0
 11
4315.5
 21
15388.5410367590902752
 31
0.0
  0
LINE
  5
3D060
  8
1
  6
CONTINUOUS
 62
     7
 10
4474.4999999999990905
 20
15283.5410367590902752
 30
0.0
 11
4474.4999999999990905
 21
15211.7910367590902752
 31
0.0
  0
LINE
  5
3D061
  8
1
  6
CONTINUOUS
 62
     7
 10
4576.5
 20
15221.5410367590902752
 30
0.0
 11
4513.0
 21
15221.5410367590902752
 31
0.0
  0
LINE
  5
3D062
  8
1
  6
CONTINUOUS
 62
     7
 10
4576.5
 20
15224.0410367590902752
 30
0.0
 11
4594.5
 21
15224.0410367590902752
 31
0.0
  0
LINE
  5
3D063
  8
1
  6
CONTINUOUS
 62
     7
 10
4474.4999999999990905
 20
15211.7910367590902752
 30
0.0
 11
4466.0399999999999636
 21
15211.7910367590902752
 31
0.0
  0
LINE
  5
3D064
  8
1
  6
CONTINUOUS
 62
     7
 10
4513.0
 20
15226.5410367590902752
 30
0.0
 11
4474.4999999999990905
 21
15226.5410367590902752
 31
0.0
  0
LINE
  5
3D065
  8
1
  6
CONTINUOUS
 62
     7
 10
4576.5
 20
15345.5410367590902752
 30
0.0
 11
4513.0
 21
15345.5410367590902752
 31
0.0
  0
LINE
  5
3D066
  8
CENTER
 10
4600.5
 20
15295.5410367590902752
 30
0.0
 11
4570.5
 21
15283.5410367590902752
 31
0.0
  0
LINE
  5
3D067
  8
1
  6
CONTINUOUS
 62
     7
 10
4576.5
 20
15345.5410367590902752
 30
0.0
 11
4576.5
 21
15285.9410367590899114
 31
0.0
  0
LINE
  5
3D068
  8
1
  6
CONTINUOUS
 62
     7
 10
4594.5
 20
15371.0410367590902752
 30
0.0
 11
4594.5
 21
15293.141036759090639
 31
0.0
  0
LINE
  5
3D069
  8
1
  6
CONTINUOUS
 62
     7
 10
4594.5
 20
15363.141036759090639
 30
0.0
 11
4582.1499999999996362
 21
15343.0410367590902752
 31
0.0
  0
LINE
  5
3D06A
  8
1
  6
CONTINUOUS
 62
     7
 10
4576.5
 20
15343.0410367590902752
 30
0.0
 11
4582.1499999999996362
 21
15343.0410367590902752
 31
0.0
  0
LINE
  5
3D06B
  8
1
  6
CONTINUOUS
 62
     7
 10
4474.4999999999990905
 20
15355.2910367590902752
 30
0.0
 11
4466.0399999999999636
 21
15355.2910367590902752
 31
0.0
  0
LINE
  5
3D06C
  8
1
  6
CONTINUOUS
 62
     7
 10
4513.0
 20
15345.5410367590902752
 30
0.0
 11
4513.0
 21
15283.5410367590902752
 31
0.0
  0
LINE
  5
3D06D
  8
1
  6
CONTINUOUS
 62
     7
 10
4513.0
 20
15340.5410367590902752
 30
0.0
 11
4474.4999999999990905
 21
15340.5410367590902752
 31
0.0
  0
LINE
  5
3D06E
  8
1
  6
CONTINUOUS
 62
     7
 10
4474.4999999999990905
 20
15283.5410367590902752
 30
0.0
 11
4474.4999999999990905
 21
15355.2910367590902752
 31
0.0
  0
ARC
  5
3D06F
  8
1
  6
CONTINUOUS
 62
     7
 10
4439.5
 20
15283.5410367590902752
 30
0.0
 40
76.5
 50
228.1680000000066002
 51
290.2969999999997981
  0
ARC
  5
3D070
  8
1
  6
CONTINUOUS
 62
     7
 10
4439.5
 20
15283.5410367590902752
 30
0.0
 40
76.5
 50
69.7030000000001451
 51
131.8324999999692011
  0
LINE
  5
3D071
  8
1
  6
CONTINUOUS
 62
     7
 10
4388.4799999999995634
 20
15226.5410367590902752
 30
0.0
 11
4388.4799999999995634
 21
15283.5410367590902752
 31
0.0
  0
LINE
  5
3D072
  8
1
  6
CONTINUOUS
 62
     7
 10
4388.4799999999995634
 20
15340.5410367590902752
 30
0.0
 11
4388.4799999999995634
 21
15283.5410367590902752
 31
0.0
  0
LINE
  5
3D074
  8
1
  6
CONTINUOUS
 62
     7
 10
4576.5
 20
15221.5410367590902752
 30
0.0
 11
4576.5
 21
15285.9410367590899114
 31
0.0
  0
LINE
  5
3D075
  8
1
  6
CONTINUOUS
 62
     7
 10
4594.5
 20
15220.0410367590902752
 30
0.0
 11
4594.5
 21
15293.141036759090639
 31
0.0
  0
LINE
  5
3D076
  8
1
  6
CONTINUOUS
 62
     7
 10
4513.0
 20
15221.5410367590902752
 30
0.0
 11
4513.0
 21
15283.5410367590902752
 31
0.0
  0
LINE
  5
3D077
  8
1
  6
CONTINUOUS
 62
     7
 10
6400.5
 20
15238.5410367590902752
 30
0.0
 11
5890.5
 21
15238.5410367590902752
 31
0.0
  0
LINE
  5
3D078
  8
1
  6
CONTINUOUS
 62
     7
 10
6400.5
 20
15352.5410367590902752
 30
0.0
 11
5890.5
 21
15352.5410367590902752
 31
0.0
  0
LINE
  5
3D079
  8
1
  6
CONTINUOUS
 62
     7
 10
5890.5
 20
15295.5410367590902752
 30
0.0
 11
5890.5
 21
15220.0410367590902752
 31
0.0
  0
LINE
  5
3D07A
  8
1
  6
CONTINUOUS
 62
     7
 10
5890.5
 20
15295.5410367590902752
 30
0.0
 11
5890.5
 21
15371.0410367590902752
 31
0.0
  0
LINE
  5
3D07B
  8
1
  6
CONTINUOUS
 62
     7
 10
6486.5200000000004366
 20
15238.5410367590902752
 30
0.0
 11
6559.4999999999990905
 21
15238.5410367590902752
 31
0.0
  0
LINE
  5
3D07C
  8
1
  6
CONTINUOUS
 62
     7
 10
6486.5200000000004366
 20
15352.5410367590902752
 30
0.0
 11
6559.4999999999990905
 21
15352.5410367590902752
 31
0.0
  0
LINE
  5
3D07E
  8
1
  6
CONTINUOUS
 62
     7
 10
6486.5200000000004366
 20
15238.5410367590902752
 30
0.0
 11
6486.5200000000004366
 21
15295.5410367590902752
 31
0.0
  0
LINE
  5
3D07F
  8
1
  6
CONTINUOUS
 62
     7
 10
6400.5
 20
15295.5410367590902752
 30
0.0
 11
6400.5
 21
15223.7910367590902752
 31
0.0
  0
ARC
  5
3D080
  8
1
  6
CONTINUOUS
 62
     7
 10
6435.5000000000009095
 20
15295.5410367590902752
 30
0.0
 40
76.5
 50
249.7030000000000882
 51
311.8319999999933998
  0
LINE
  5
3D081
  8
1
  6
CONTINUOUS
 62
     7
 10
6400.5
 20
15223.7910367590902752
 30
0.0
 11
6408.9600000000000364
 21
15223.7910367590902752
 31
0.0
  0
ARC
  5
3D082
  8
1
  6
CONTINUOUS
 62
     7
 10
6435.5000000000009095
 20
15295.5410367590902752
 30
0.0
 40
76.5
 50
48.1680000000065718
 51
110.2967999999911939
  0
LINE
  5
3D083
  8
1
  6
CONTINUOUS
 62
     7
 10
6486.5200000000004366
 20
15352.5410367590902752
 30
0.0
 11
6486.5200000000004366
 21
15295.5410367590902752
 31
0.0
  0
LINE
  5
3D084
  8
1
  6
CONTINUOUS
 62
     7
 10
6400.5
 20
15295.5410367590902752
 30
0.0
 11
6400.5
 21
15367.2910367590902752
 31
0.0
  0
LINE
  5
3D085
  8
1
  6
CONTINUOUS
 62
     7
 10
6400.5
 20
15367.2910367590902752
 30
0.0
 11
6408.9600000000000364
 21
15367.2910367590902752
 31
0.0
  0
LINE
  5
3D086
  8
1
  6
CONTINUOUS
 62
     7
 10
6559.4999999999990905
 20
15190.5410367590902752
 30
0.0
 11
6559.4999999999990905
 21
15295.5410367590902752
 31
0.0
  0
LINE
  5
3D087
  8
1
  6
CONTINUOUS
 62
     7
 10
6577.5
 20
15190.5410367590902752
 30
0.0
 11
6577.5
 21
15295.5410367590902752
 31
0.0
  0
LINE
  5
3D088
  8
1
  6
CONTINUOUS
 62
     7
 10
6577.5
 20
15190.5410367590902752
 30
0.0
 11
6559.4999999999990905
 21
15190.5410367590902752
 31
0.0
  0
LINE
  5
3D089
  8
1
  6
CONTINUOUS
 62
     7
 10
6559.4999999999990905
 20
15400.5410367590902752
 30
0.0
 11
6559.4999999999990905
 21
15295.5410367590902752
 31
0.0
  0
LINE
  5
3D08A
  8
1
  6
CONTINUOUS
 62
     7
 10
6577.5
 20
15400.5410367590902752
 30
0.0
 11
6577.5
 21
15295.5410367590902752
 31
0.0
  0
LINE
  5
3D08B
  8
1
  6
CONTINUOUS
 62
     7
 10
6577.5
 20
15400.5410367590902752
 30
0.0
 11
6559.4999999999990905
 21
15400.5410367590902752
 31
0.0
  0
LINE
  5
3D08E
  8
1
  6
CONTINUOUS
 62
     7
 10
4576.5
 20
19538.5192305276286788
 30
0.0
 11
4582.1499999999996362
 21
19538.5192305276286788
 31
0.0
  0
LINE
  5
3D08F
  8
1
  6
CONTINUOUS
 62
     7
 10
4594.5
 20
19530.419230527630134
 30
0.0
 11
4582.1499999999996362
 21
19538.5192305276286788
 31
0.0
  0
LINE
  5
3D498
  8
UL1
 10
3797.5
 20
20253.0192305276286788
 30
0.0
 11
7077.5
 21
20253.0192305276286788
 31
0.0
  0
LINE
  5
3D499
  8
UL1
 10
7077.5
 20
18943.0192305276286788
 30
0.0
 11
3797.5
 21
18943.0192305276286788
 31
0.0
  0
LINE
  5
3D49A
  8
UL1
 10
4297.5
 20
19443.0192305276286788
 30
0.0
 11
4297.5
 21
19753.0192305276286788
 31
0.0
  0
LINE
  5
3D49B
  8
UL1
 10
6577.5
 20
18943.0192305276286788
 30
0.0
 11
6577.5
 21
20253.0192305276286788
 31
0.0
  0
LINE
  5
3D49C
  8
UL1
 10
3797.5
 20
20253.0192305276286788
 30
0.0
 11
3797.5
 21
18943.0192305276286788
 31
0.0
  0
LINE
  5
3D49D
  8
UL1
 10
7077.5
 20
20253.0192305276286788
 30
0.0
 11
7077.5
 21
18943.0192305276286788
 31
0.0
  0
LINE
  5
3D4A4
  8
UL1
 10
4297.5
 20
19753.0192305276286788
 30
0.0
 11
6400.5
 21
20253.0192305276286788
 31
0.0
  0
LINE
  5
3D4A5
  8
UL1
 10
4297.5
 20
19443.0192305276286788
 30
0.0
 11
6400.5
 21
18943.0192305276286788
 31
0.0
  0
LINE
  5
3D4A9
  8
UL1
 10
3797.5
 20
15488.5410367590902752
 30
0.0
 11
7077.5
 21
15488.5410367590902752
 31
0.0
  0
LINE
  5
3D4AA
  8
UL1
 10
3797.5
 20
15078.5410367590902752
 30
0.0
 11
7077.5
 21
15078.5410367590902752
 31
0.0
  0
LINE
  5
3D4AB
  8
UL1
 10
3797.5
 20
15488.5410367590902752
 30
0.0
 11
3797.5
 21
15078.5410367590902752
 31
0.0
  0
LINE
  5
3D4AC
  8
UL1
 10
7077.5
 20
15078.5410367590902752
 30
0.0
 11
7077.5
 21
15488.5410367590902752
 31
0.0
  0
TEXT
  5
3D559
  8
SCALE
 10
5110.8333333333312112
 20
18254.6225795925383864
 30
0.0
 40
200.0
  1
平面図
 72
     4
 11
5437.4999999999972715
 21
18347.955912925870507
 31
0.0
  0
TEXT
  5
3D55A
  8
SCALE
 10
5110.8333333333312112
 20
13983.9703838745008397
 30
0.0
 40
200.0
  1
断面図
 72
     4
 11
5437.4999999999972715
 21
14083.9703838745008397
 31
0.0
  0
LINE
  5
3D5B9
  8
1
  6
CONTINUOUS
 62
     7
 10
16579.5799999999908323
 20
15365.5410367590902752
 30
0.0
 11
16657.5
 21
15365.5410367590902752
 31
0.0
  0
LINE
  5
3D5BA
  8
1
  6
CONTINUOUS
 62
     7
 10
16579.5799999999908323
 20
15225.5410367590902752
 30
0.0
 11
16657.5
 21
15225.5410367590902752
 31
0.0
  0
LINE
  5
3D5BE
  8
CENTER
 10
16705.2200000000011642
 20
15295.5410367590902752
 30
0.0
 11
14680.5
 21
15295.5410367590902752
 31
0.0
  0
LINE
  5
3D5BF
  8
1
  6
CONTINUOUS
 62
     7
 10
15969.5
 20
15206.5410367590902752
 30
0.0
 11
14673.5
 21
15206.5410367590902752
 31
0.0
  0
LINE
  5
3D5C0
  8
1
  6
CONTINUOUS
 62
     7
 10
15969.5
 20
15384.5410367590902752
 30
0.0
 11
14673.5
 21
15384.5410367590902752
 31
0.0
  0
ARC
  5
3D5C4
  8
1
  6
CONTINUOUS
 62
     7
 10
14505.5
 20
15284.0410367590902752
 30
0.0
 40
92.2499999999999858
 50
229.358999999974202
 51
289.4229999999787992
  0
ARC
  5
3D5C5
  8
1
  6
CONTINUOUS
 62
     7
 10
14505.5
 20
15284.0410367590902752
 30
0.0
 40
92.2499999999999858
 50
70.5770000000211724
 51
130.6407999999975971
  0
LINE
  5
3D5C6
  8
CENTER
 10
14650.5
 20
15284.0410367590902752
 30
0.0
 11
14325.6599999999998545
 21
15284.0410367590902752
 31
0.0
  0
LINE
  5
3D5C7
  8
1
  6
CONTINUOUS
 62
     7
 10
14367.5
 20
15409.0410367590902752
 30
0.0
 11
14367.5
 21
15284.0410367590902752
 31
0.0
  0
LINE
  5
3D5C8
  8
1
  6
CONTINUOUS
 62
     7
 10
14347.5
 20
15409.0410367590902752
 30
0.0
 11
14347.5
 21
15284.0410367590902752
 31
0.0
  0
LINE
  5
3D5C9
  8
1
  6
CONTINUOUS
 62
     7
 10
14367.5
 20
15159.0410367590902752
 30
0.0
 11
14367.5
 21
15284.0410367590902752
 31
0.0
  0
LINE
  5
3D5CA
  8
1
  6
CONTINUOUS
 62
     7
 10
14347.5
 20
15159.0410367590902752
 30
0.0
 11
14347.5
 21
15284.0410367590902752
 31
0.0
  0
LINE
  5
3D5CB
  8
1
  6
CONTINUOUS
 62
     7
 10
14347.5
 20
15159.0410367590902752
 30
0.0
 11
14367.5
 21
15159.0410367590902752
 31
0.0
  0
LINE
  5
3D5CC
  8
1
  6
CONTINUOUS
 62
     7
 10
14347.5
 20
15409.0410367590902752
 30
0.0
 11
14367.5
 21
15409.0410367590902752
 31
0.0
  0
LINE
  5
3D5CD
  8
1
  6
CONTINUOUS
 62
     7
 10
14445.4200000000000728
 20
15214.0410367590902752
 30
0.0
 11
14445.4200000000000728
 21
15284.0410367590902752
 31
0.0
  0
LINE
  5
3D5CE
  8
1
  6
CONTINUOUS
 62
     7
 10
14445.4200000000000728
 20
15354.0410367590902752
 30
0.0
 11
14445.4200000000000728
 21
15284.0410367590902752
 31
0.0
  0
LINE
  5
3D5CF
  8
1
  6
CONTINUOUS
 62
     7
 10
14445.4200000000000728
 20
15354.0410367590902752
 30
0.0
 11
14367.5
 21
15354.0410367590902752
 31
0.0
  0
LINE
  5
3D5D0
  8
1
  6
CONTINUOUS
 62
     7
 10
14445.4200000000000728
 20
15214.0410367590902752
 30
0.0
 11
14367.5
 21
15214.0410367590902752
 31
0.0
  0
LINE
  5
3D5D1
  8
1
  6
CONTINUOUS
 62
     7
 10
14657.5
 20
15359.5410367590902752
 30
0.0
 11
14585.5
 21
15359.5410367590902752
 31
0.0
  0
LINE
  5
3D5D2
  8
1
  6
CONTINUOUS
 62
     7
 10
14657.5
 20
15208.5410367590902752
 30
0.0
 11
14585.5
 21
15208.5410367590902752
 31
0.0
  0
LINE
  5
3D5D3
  8
1
  6
CONTINUOUS
 62
     7
 10
14657.5
 20
15286.7210367590905662
 30
0.0
 11
14657.5
 21
15208.5410367590902752
 31
0.0
  0
LINE
  5
3D5D4
  8
1
  6
CONTINUOUS
 62
     7
 10
14673.5
 20
15292.8610367590899841
 30
0.0
 11
14673.5
 21
15206.5410367590902752
 31
0.0
  0
LINE
  5
3D5D5
  8
1
  6
CONTINUOUS
 62
     7
 10
14657.5
 20
15212.5410367590902752
 30
0.0
 11
14673.5
 21
15212.5410367590902752
 31
0.0
  0
LINE
  5
3D5D6
  8
CENTER
 10
14680.5
 20
15295.5410367590902752
 30
0.0
 11
14650.5
 21
15284.0410367590902752
 31
0.0
  0
LINE
  5
3D5D7
  8
1
  6
CONTINUOUS
 62
     7
 10
14673.5
 20
15384.5410367590902752
 30
0.0
 11
14673.5
 21
15292.8610367590899841
 31
0.0
  0
LINE
  5
3D5D8
  8
1
  6
CONTINUOUS
 62
     7
 10
14657.5
 20
15359.5410367590902752
 30
0.0
 11
14657.5
 21
15286.7210367590905662
 31
0.0
  0
LINE
  5
3D5D9
  8
1
  6
CONTINUOUS
 62
     7
 10
14673.5
 20
15374.9210367590894748
 30
0.0
 11
14661.5900000000001455
 21
15355.5410367590902752
 31
0.0
  0
LINE
  5
3D5DA
  8
1
  6
CONTINUOUS
 62
     7
 10
14657.5
 20
15355.5410367590902752
 30
0.0
 11
14661.5900000000001455
 21
15355.5410367590902752
 31
0.0
  0
LINE
  5
3D5DC
  8
1
  6
CONTINUOUS
 62
     7
 10
14545.5
 20
15284.0410367590902752
 30
0.0
 11
14545.5
 21
15197.0410367590902752
 31
0.0
  0
LINE
  5
3D5DD
  8
1
  6
CONTINUOUS
 62
     7
 10
14585.5
 20
15208.5410367590902752
 30
0.0
 11
14585.5
 21
15284.0410367590902752
 31
0.0
  0
LINE
  5
3D5DE
  8
1
  6
CONTINUOUS
 62
     7
 10
14585.5
 20
15214.0410367590902752
 30
0.0
 11
14545.5
 21
15214.0410367590902752
 31
0.0
  0
LINE
  5
3D5DF
  8
1
  6
CONTINUOUS
 62
     7
 10
14545.5
 20
15197.0410367590902752
 30
0.0
 11
14536.180000000000291
 21
15197.0410367590902752
 31
0.0
  0
LINE
  5
3D5E0
  8
1
  6
CONTINUOUS
 62
     7
 10
14585.5
 20
15359.5410367590902752
 30
0.0
 11
14585.5
 21
15284.0410367590902752
 31
0.0
  0
LINE
  5
3D5E1
  8
1
  6
CONTINUOUS
 62
     7
 10
14585.5
 20
15354.0410367590902752
 30
0.0
 11
14545.5
 21
15354.0410367590902752
 31
0.0
  0
LINE
  5
3D5E2
  8
1
  6
CONTINUOUS
 62
     7
 10
14545.5
 20
15284.0410367590902752
 30
0.0
 11
14545.5
 21
15371.0410367590902752
 31
0.0
  0
LINE
  5
3D5E3
  8
1
  6
CONTINUOUS
 62
     7
 10
14545.5
 20
15371.0410367590902752
 30
0.0
 11
14536.180000000000291
 21
15371.0410367590902752
 31
0.0
  0
LINE
  5
3D5E5
  8
1
  6
CONTINUOUS
 62
     7
 10
16479.5
 20
15225.5410367590902752
 30
0.0
 11
15969.5
 21
15225.5410367590902752
 31
0.0
  0
LINE
  5
3D5E6
  8
1
  6
CONTINUOUS
 62
     7
 10
16479.5
 20
15365.5410367590902752
 30
0.0
 11
15969.5
 21
15365.5410367590902752
 31
0.0
  0
LINE
  5
3D5E7
  8
1
  6
CONTINUOUS
 62
     7
 10
15969.5
 20
15295.5410367590902752
 30
0.0
 11
15969.5
 21
15206.5410367590902752
 31
0.0
  0
LINE
  5
3D5E8
  8
1
  6
CONTINUOUS
 62
     7
 10
15969.5
 20
15295.5410367590902752
 30
0.0
 11
15969.5
 21
15384.5410367590902752
 31
0.0
  0
LINE
  5
3D5EA
  8
1
  6
CONTINUOUS
 62
     7
 10
16479.5
 20
15295.5410367590902752
 30
0.0
 11
16479.5
 21
15208.5410367590902752
 31
0.0
  0
LINE
  5
3D5EB
  8
1
  6
CONTINUOUS
 62
     7
 10
16479.5
 20
15208.5410367590902752
 30
0.0
 11
16488.819999999999709
 21
15208.5410367590902752
 31
0.0
  0
LINE
  5
3D5EC
  8
1
  6
CONTINUOUS
 62
     7
 10
16479.5
 20
15295.5410367590902752
 30
0.0
 11
16479.5
 21
15382.5410367590902752
 31
0.0
  0
LINE
  5
3D5ED
  8
1
  6
CONTINUOUS
 62
     7
 10
16479.5
 20
15382.5410367590902752
 30
0.0
 11
16488.819999999999709
 21
15382.5410367590902752
 31
0.0
  0
LINE
  5
3D5EE
  8
1
  6
CONTINUOUS
 62
     7
 10
16579.5799999999908323
 20
15225.5410367590902752
 30
0.0
 11
16579.5799999999908323
 21
15295.5410367590902752
 31
0.0
  0
LINE
  5
3D5EF
  8
1
  6
CONTINUOUS
 62
     7
 10
16579.5799999999908323
 20
15365.5410367590902752
 30
0.0
 11
16579.5799999999908323
 21
15295.5410367590902752
 31
0.0
  0
ARC
  5
3D5F0
  8
1
  6
CONTINUOUS
 62
     7
 10
16519.5
 20
15295.5410367590902752
 30
0.0
 40
92.2499999999999858
 50
49.358999999974202
 51
109.4229999999787992
  0
ARC
  5
3D5F1
  8
1
  6
CONTINUOUS
 62
     7
 10
16519.5
 20
15295.5410367590902752
 30
0.0
 40
92.2499999999999858
 50
250.5770000000212008
 51
310.6410000000258265
  0
LINE
  5
3D5F3
  8
1
  6
CONTINUOUS
 62
     7
 10
16657.5
 20
15420.5410367590902752
 30
0.0
 11
16657.5
 21
15295.5410367590902752
 31
0.0
  0
LINE
  5
3D5F4
  8
1
  6
CONTINUOUS
 62
     7
 10
16677.5
 20
15420.5410367590902752
 30
0.0
 11
16677.5
 21
15295.5410367590902752
 31
0.0
  0
LINE
  5
3D5F5
  8
1
  6
CONTINUOUS
 62
     7
 10
16657.5
 20
15170.5410367590902752
 30
0.0
 11
16657.5
 21
15295.5410367590902752
 31
0.0
  0
LINE
  5
3D5F6
  8
1
  6
CONTINUOUS
 62
     7
 10
16677.5
 20
15170.5410367590902752
 30
0.0
 11
16677.5
 21
15295.5410367590902752
 31
0.0
  0
LINE
  5
3D5F7
  8
1
  6
CONTINUOUS
 62
     7
 10
16677.5
 20
15170.5410367590902752
 30
0.0
 11
16657.5
 21
15170.5410367590902752
 31
0.0
  0
LINE
  5
3D5F8
  8
1
  6
CONTINUOUS
 62
     7
 10
16677.5
 20
15420.5410367590902752
 30
0.0
 11
16657.5
 21
15420.5410367590902752
 31
0.0
  0
LINE
  5
3D5FA
  8
1
  6
CONTINUOUS
 62
     7
 10
15969.5
 20
19509.0192305276286788
 30
0.0
 11
14673.5
 21
19509.0192305276286788
 31
0.0
  0
LINE
  5
3D5FB
  8
1
  6
CONTINUOUS
 62
     7
 10
15969.5
 20
19687.0192305276286788
 30
0.0
 11
14673.5
 21
19687.0192305276286788
 31
0.0
  0
LINE
  5
3D5FC
  8
CENTER
 10
16705.2200000000011642
 20
19598.0192305276286788
 30
0.0
 11
14680.5
 21
19598.0192305276286788
 31
0.0
  0
LINE
  5
3D5FD
  8
CENTER
 10
14650.5
 20
19598.0192305276286788
 30
0.0
 11
14325.6599999999998545
 21
19598.0192305276286788
 31
0.0
  0
LINE
  5
3D5FE
  8
CENTER
 10
14680.5
 20
19598.0192305276286788
 30
0.0
 11
14650.5
 21
19598.0192305276286788
 31
0.0
  0
LINE
  5
3D5FF
  8
1
  6
CONTINUOUS
 62
     7
 10
14657.5
 20
19600.6992305276289699
 30
0.0
 11
14657.5
 21
19522.5192305276286788
 31
0.0
  0
LINE
  5
3D600
  8
1
  6
CONTINUOUS
 62
     7
 10
14673.5
 20
19595.3392305276283878
 30
0.0
 11
14673.5
 21
19509.0192305276286788
 31
0.0
  0
LINE
  5
3D602
  8
1
  6
CONTINUOUS
 62
     7
 10
14673.5
 20
19687.0192305276286788
 30
0.0
 11
14673.5
 21
19595.3392305276283878
 31
0.0
  0
LINE
  5
3D603
  8
1
  6
CONTINUOUS
 62
     7
 10
14657.5
 20
19673.5192305276286788
 30
0.0
 11
14657.5
 21
19600.6992305276289699
 31
0.0
  0
LINE
  5
3D604
  8
1
  6
CONTINUOUS
 62
     7
 10
14673.5
 20
19677.3992305276296975
 30
0.0
 11
14661.5900000000001455
 21
19669.5192305276286788
 31
0.0
  0
LINE
  5
3D605
  8
1
  6
CONTINUOUS
 62
     7
 10
14657.5
 20
19669.5192305276286788
 30
0.0
 11
14661.5900000000001455
 21
19669.5192305276286788
 31
0.0
  0
ARC
  5
3D606
  8
1
  6
CONTINUOUS
 62
     7
 10
14505.5
 20
19598.0192305276286788
 30
0.0
 40
92.2499999999999858
 50
229.358999999974202
 51
289.4229999999787992
  0
ARC
  5
3D607
  8
1
  6
CONTINUOUS
 62
     7
 10
14505.5
 20
19598.0192305276286788
 30
0.0
 40
92.2499999999999858
 50
70.5770000000211724
 51
130.6407999999975971
  0
LINE
  5
3D608
  8
1
  6
CONTINUOUS
 62
     7
 10
14367.5
 20
19723.0192305276286788
 30
0.0
 11
14367.5
 21
19598.0192305276286788
 31
0.0
  0
LINE
  5
3D609
  8
1
  6
CONTINUOUS
 62
     7
 10
14347.5
 20
19723.0192305276286788
 30
0.0
 11
14347.5
 21
19598.0192305276286788
 31
0.0
  0
LINE
  5
3D60A
  8
1
  6
CONTINUOUS
 62
     7
 10
14367.5
 20
19473.0192305276286788
 30
0.0
 11
14367.5
 21
19598.0192305276286788
 31
0.0
  0
LINE
  5
3D60B
  8
1
  6
CONTINUOUS
 62
     7
 10
14347.5
 20
19473.0192305276286788
 30
0.0
 11
14347.5
 21
19598.0192305276286788
 31
0.0
  0
LINE
  5
3D60C
  8
1
  6
CONTINUOUS
 62
     7
 10
14347.5
 20
19473.0192305276286788
 30
0.0
 11
14367.5
 21
19473.0192305276286788
 31
0.0
  0
LINE
  5
3D60D
  8
1
  6
CONTINUOUS
 62
     7
 10
14347.5
 20
19723.0192305276286788
 30
0.0
 11
14367.5
 21
19723.0192305276286788
 31
0.0
  0
LINE
  5
3D60E
  8
1
  6
CONTINUOUS
 62
     7
 10
14445.4200000000000728
 20
19528.0192305276286788
 30
0.0
 11
14445.4200000000000728
 21
19598.0192305276286788
 31
0.0
  0
LINE
  5
3D60F
  8
1
  6
CONTINUOUS
 62
     7
 10
14445.4200000000000728
 20
19668.0192305276286788
 30
0.0
 11
14445.4200000000000728
 21
19598.0192305276286788
 31
0.0
  0
LINE
  5
3D610
  8
1
  6
CONTINUOUS
 62
     7
 10
14445.4200000000000728
 20
19668.0192305276286788
 30
0.0
 11
14367.5
 21
19668.0192305276286788
 31
0.0
  0
LINE
  5
3D611
  8
1
  6
CONTINUOUS
 62
     7
 10
14445.4200000000000728
 20
19528.0192305276286788
 30
0.0
 11
14367.5
 21
19528.0192305276286788
 31
0.0
  0
LINE
  5
3D612
  8
1
  6
CONTINUOUS
 62
     7
 10
14545.5
 20
19598.0192305276286788
 30
0.0
 11
14545.5
 21
19511.0192305276214029
 31
0.0
  0
LINE
  5
3D613
  8
1
  6
CONTINUOUS
 62
     7
 10
14585.5
 20
19522.5192305276286788
 30
0.0
 11
14585.5
 21
19598.0192305276286788
 31
0.0
  0
LINE
  5
3D614
  8
1
  6
CONTINUOUS
 62
     7
 10
14585.5
 20
19528.0192305276286788
 30
0.0
 11
14545.5
 21
19528.0192305276286788
 31
0.0
  0
LINE
  5
3D615
  8
1
  6
CONTINUOUS
 62
     7
 10
14545.5
 20
19511.0192305276214029
 30
0.0
 11
14536.180000000000291
 21
19511.0192305276214029
 31
0.0
  0
LINE
  5
3D616
  8
1
  6
CONTINUOUS
 62
     7
 10
14585.5
 20
19673.5192305276286788
 30
0.0
 11
14585.5
 21
19598.0192305276286788
 31
0.0
  0
LINE
  5
3D617
  8
1
  6
CONTINUOUS
 62
     7
 10
14585.5
 20
19668.0192305276286788
 30
0.0
 11
14545.5
 21
19668.0192305276286788
 31
0.0
  0
LINE
  5
3D618
  8
1
  6
CONTINUOUS
 62
     7
 10
14545.5
 20
19598.0192305276286788
 30
0.0
 11
14545.5
 21
19685.0192305276286788
 31
0.0
  0
LINE
  5
3D619
  8
1
  6
CONTINUOUS
 62
     7
 10
14545.5
 20
19685.0192305276286788
 30
0.0
 11
14536.180000000000291
 21
19685.0192305276286788
 31
0.0
  0
LINE
  5
3D61A
  8
1
  6
CONTINUOUS
 62
     7
 10
14657.5
 20
19673.5192305276286788
 30
0.0
 11
14585.5
 21
19673.5192305276286788
 31
0.0
  0
LINE
  5
3D61B
  8
1
  6
CONTINUOUS
 62
     7
 10
14657.5
 20
19522.5192305276286788
 30
0.0
 11
14585.5
 21
19522.5192305276286788
 31
0.0
  0
LINE
  5
3D61C
  8
1
  6
CONTINUOUS
 62
     7
 10
16479.5
 20
19511.0192305276214029
 30
0.0
 11
16488.819999999999709
 21
19511.0192305276214029
 31
0.0
  0
LINE
  5
3D61D
  8
1
  6
CONTINUOUS
 62
     7
 10
16479.5
 20
19685.0192305276286788
 30
0.0
 11
16488.819999999999709
 21
19685.0192305276286788
 31
0.0
  0
LINE
  5
3D61E
  8
1
  6
CONTINUOUS
 62
     7
 10
16479.5
 20
19528.0192305276286788
 30
0.0
 11
15969.5
 21
19528.0192305276286788
 31
0.0
  0
LINE
  5
3D61F
  8
1
  6
CONTINUOUS
 62
     7
 10
16479.5
 20
19668.0192305276286788
 30
0.0
 11
15969.5
 21
19668.0192305276286788
 31
0.0
  0
LINE
  5
3D620
  8
1
  6
CONTINUOUS
 62
     7
 10
15969.5
 20
19598.0192305276286788
 30
0.0
 11
15969.5
 21
19509.0192305276286788
 31
0.0
  0
LINE
  5
3D621
  8
1
  6
CONTINUOUS
 62
     7
 10
15969.5
 20
19598.0192305276286788
 30
0.0
 11
15969.5
 21
19687.0192305276286788
 31
0.0
  0
LINE
  5
3D622
  8
1
  6
CONTINUOUS
 62
     7
 10
16479.5
 20
19598.0192305276286788
 30
0.0
 11
16479.5
 21
19511.0192305276214029
 31
0.0
  0
LINE
  5
3D623
  8
1
  6
CONTINUOUS
 62
     7
 10
16479.5
 20
19598.0192305276286788
 30
0.0
 11
16479.5
 21
19685.0192305276286788
 31
0.0
  0
LINE
  5
3D624
  8
1
  6
CONTINUOUS
 62
     7
 10
16579.5799999999908323
 20
19668.0192305276286788
 30
0.0
 11
16657.5
 21
19668.0192305276286788
 31
0.0
  0
LINE
  5
3D625
  8
1
  6
CONTINUOUS
 62
     7
 10
16579.5799999999908323
 20
19528.0192305276286788
 30
0.0
 11
16657.5
 21
19528.0192305276286788
 31
0.0
  0
LINE
  5
3D626
  8
1
  6
CONTINUOUS
 62
     7
 10
16579.5799999999908323
 20
19528.0192305276286788
 30
0.0
 11
16579.5799999999908323
 21
19598.0192305276286788
 31
0.0
  0
LINE
  5
3D627
  8
1
  6
CONTINUOUS
 62
     7
 10
16579.5799999999908323
 20
19668.0192305276286788
 30
0.0
 11
16579.5799999999908323
 21
19598.0192305276286788
 31
0.0
  0
ARC
  5
3D628
  8
1
  6
CONTINUOUS
 62
     7
 10
16519.5
 20
19598.0192305276286788
 30
0.0
 40
92.2499999999999858
 50
49.358999999974202
 51
109.4229999999787992
  0
ARC
  5
3D629
  8
1
  6
CONTINUOUS
 62
     7
 10
16519.5
 20
19598.0192305276286788
 30
0.0
 40
92.2499999999999858
 50
250.5770000000212008
 51
310.6410000000258265
  0
LINE
  5
3D62A
  8
1
  6
CONTINUOUS
 62
     7
 10
16657.5
 20
19723.0192305276286788
 30
0.0
 11
16657.5
 21
19598.0192305276286788
 31
0.0
  0
LINE
  5
3D62B
  8
1
  6
CONTINUOUS
 62
     7
 10
16677.5
 20
19723.0192305276286788
 30
0.0
 11
16677.5
 21
19598.0192305276286788
 31
0.0
  0
LINE
  5
3D62C
  8
1
  6
CONTINUOUS
 62
     7
 10
16657.5
 20
19473.0192305276286788
 30
0.0
 11
16657.5
 21
19598.0192305276286788
 31
0.0
  0
LINE
  5
3D62D
  8
1
  6
CONTINUOUS
 62
     7
 10
16677.5
 20
19473.0192305276286788
 30
0.0
 11
16677.5
 21
19598.0192305276286788
 31
0.0
  0
LINE
  5
3D62E
  8
1
  6
CONTINUOUS
 62
     7
 10
16677.5
 20
19473.0192305276286788
 30
0.0
 11
16657.5
 21
19473.0192305276286788
 31
0.0
  0
LINE
  5
3D62F
  8
1
  6
CONTINUOUS
 62
     7
 10
16677.5
 20
19723.0192305276286788
 30
0.0
 11
16657.5
 21
19723.0192305276286788
 31
0.0
  0
LINE
  5
3D630
  8
1
  6
CONTINUOUS
 62
     7
 10
14673.4999999999599822
 20
19518.6392305276094703
 30
0.0
 11
14661.5899999999692227
 21
19526.5192305276214029
 31
0.0
  0
LINE
  5
3D631
  8
1
  6
CONTINUOUS
 62
     7
 10
14657.4999999999708962
 20
19526.5192305276214029
 30
0.0
 11
14661.5899999999692227
 21
19526.5192305276214029
 31
0.0
  0
LINE
  5
3D636
  8
UL1
 10
13847.5
 20
20273.0192305276286788
 30
0.0
 11
17177.5
 21
20273.0192305276286788
 31
0.0
  0
LINE
  5
3D637
  8
UL1
 10
17177.5
 20
18923.0192305276286788
 30
0.0
 11
13847.5
 21
18923.0192305276286788
 31
0.0
  0
LINE
  5
3D638
  8
UL1
 10
14347.5
 20
19773.0192305276286788
 30
0.0
 11
14347.5
 21
19423.0192305276286788
 31
0.0
  0
LINE
  5
3D63A
  8
UL1
 10
16677.5
 20
18923.0192305276286788
 30
0.0
 11
16677.5
 21
20273.0192305276286788
 31
0.0
  0
LINE
  5
3D63B
  8
UL1
 10
13847.5
 20
20273.0192305276286788
 30
0.0
 11
13847.5
 21
18923.0192305276286788
 31
0.0
  0
LINE
  5
3D63C
  8
UL1
 10
17177.5
 20
20273.0192305276286788
 30
0.0
 11
17177.5
 21
18923.0192305276286788
 31
0.0
  0
LINE
  5
3D63D
  8
UL1
 10
14347.5
 20
19773.0192305276286788
 30
0.0
 11
16479.5
 21
20273.0192305276286788
 31
0.0
  0
LINE
  5
3D63E
  8
UL1
 10
14347.5
 20
19423.0192305276286788
 30
0.0
 11
16479.5
 21
18923.0192305276286788
 31
0.0
  0
LINE
  5
3D641
  8
UL1
 10
13847.5
 20
15509.0410367590902752
 30
0.0
 11
17177.5
 21
15509.0410367590902752
 31
0.0
  0
LINE
  5
3D642
  8
UL1
 10
17177.5
 20
15059.0410367590902752
 30
0.0
 11
13847.5
 21
15059.0410367590902752
 31
0.0
  0
LINE
  5
3D643
  8
UL1
 10
13847.5
 20
15509.0410367590902752
 30
0.0
 11
13847.5
 21
15059.0410367590902752
 31
0.0
  0
LINE
  5
3D644
  8
UL1
 10
17177.5
 20
15509.0410367590902752
 30
0.0
 11
17177.5
 21
15059.0410367590902752
 31
0.0
  0
TEXT
  5
3D6E0
  8
SCALE
 10
15185.8333333333303017
 20
18254.6225795925383864
 30
0.0
 40
200.0
  1
平面図
 72
     4
 11
15512.5
 21
18347.955912925870507
 31
0.0
  0
TEXT
  5
3D6E1
  8
SCALE
 10
15185.8333333333303017
 20
13983.9703838745008397
 30
0.0
 40
200.0
  1
断面図
 72
     4
 11
15512.5
 21
14083.9703838745008397
 31
0.0
  0
LINE
  5
3D6E2
  8
1
  6
CONTINUOUS
 62
     7
 10
26062.5
 20
15181.0410367590902752
 30
0.0
 11
24765.5
 21
15181.0410367590902752
 31
0.0
  0
LINE
  5
3D6E3
  8
1
  6
CONTINUOUS
 62
     7
 10
26062.5
 20
15410.0410367590902752
 30
0.0
 11
24765.5
 21
15410.0410367590902752
 31
0.0
  0
LINE
  5
3D6E4
  8
CENTER
 10
26855.5299999999988358
 20
15295.5410367590902752
 30
0.0
 11
24772.5
 21
15295.5410367590902752
 31
0.0
  0
ARC
  5
3D6E5
  8
1
  6
CONTINUOUS
 62
     7
 10
24562.5
 20
15271.5410367590902752
 30
0.0
 40
106.5
 50
230.7729999999772019
 51
288.4939999999747897
  0
ARC
  5
3D6E6
  8
1
  6
CONTINUOUS
 62
     7
 10
24562.5
 20
15271.5410367590902752
 30
0.0
 40
106.5
 50
71.5060000000251819
 51
129.226899999992213
  0
LINE
  5
3D6E7
  8
CENTER
 10
24722.5
 20
15271.5410367590902752
 30
0.0
 11
24327.7299999999995634
 21
15271.5410367590902752
 31
0.0
  0
LINE
  5
3D6E8
  8
1
  6
CONTINUOUS
 62
     7
 10
24384.5
 20
15411.5410367590902752
 30
0.0
 11
24384.5
 21
15271.5410367590902752
 31
0.0
  0
LINE
  5
3D6E9
  8
1
  6
CONTINUOUS
 62
     7
 10
24362.5
 20
15411.5410367590902752
 30
0.0
 11
24362.5
 21
15271.5410367590902752
 31
0.0
  0
LINE
  5
3D6EA
  8
1
  6
CONTINUOUS
 62
     7
 10
24384.5
 20
15131.5410367590902752
 30
0.0
 11
24384.5
 21
15271.5410367590902752
 31
0.0
  0
LINE
  5
3D6EB
  8
1
  6
CONTINUOUS
 62
     7
 10
24362.5
 20
15131.5410367590902752
 30
0.0
 11
24362.5
 21
15271.5410367590902752
 31
0.0
  0
LINE
  5
3D6EC
  8
1
  6
CONTINUOUS
 62
     7
 10
24362.5
 20
15131.5410367590902752
 30
0.0
 11
24384.5
 21
15131.5410367590902752
 31
0.0
  0
LINE
  5
3D6ED
  8
1
  6
CONTINUOUS
 62
     7
 10
24362.5
 20
15411.5410367590902752
 30
0.0
 11
24384.5
 21
15411.5410367590902752
 31
0.0
  0
LINE
  5
3D6EE
  8
1
  6
CONTINUOUS
 62
     7
 10
24495.1500000000014552
 20
15354.0410367590902752
 30
0.0
 11
24495.1500000000014552
 21
15271.5410367590902752
 31
0.0
  0
LINE
  5
3D6EF
  8
1
  6
CONTINUOUS
 62
     7
 10
24495.1500000000014552
 20
15189.0410367590902752
 30
0.0
 11
24495.1500000000014552
 21
15271.5410367590902752
 31
0.0
  0
LINE
  5
3D6F0
  8
1
  6
CONTINUOUS
 62
     7
 10
24495.1500000000014552
 20
15189.0410367590902752
 30
0.0
 11
24384.5
 21
15189.0410367590902752
 31
0.0
  0
LINE
  5
3D6F1
  8
1
  6
CONTINUOUS
 62
     7
 10
24495.1500000000014552
 20
15354.0410367590902752
 30
0.0
 11
24384.5
 21
15354.0410367590902752
 31
0.0
  0
LINE
  5
3D6F2
  8
1
  6
CONTINUOUS
 62
     7
 10
24642.5
 20
15354.0410367590902752
 30
0.0
 11
24602.5
 21
15354.0410367590902752
 31
0.0
  0
LINE
  5
3D6F3
  8
1
  6
CONTINUOUS
 62
     7
 10
24642.5
 20
15189.0410367590902752
 30
0.0
 11
24602.5
 21
15189.0410367590902752
 31
0.0
  0
LINE
  5
3D6F4
  8
1
  6
CONTINUOUS
 62
     7
 10
24729.5
 20
15360.5410367590902752
 30
0.0
 11
24729.5
 21
15274.9010367590908572
 31
0.0
  0
LINE
  5
3D6F5
  8
1
  6
CONTINUOUS
 62
     7
 10
24642.5
 20
15360.5410367590902752
 30
0.0
 11
24642.5
 21
15271.5410367590902752
 31
0.0
  0
LINE
  5
3D6F6
  8
1
  6
CONTINUOUS
 62
     7
 10
24765.5
 20
15410.0410367590902752
 30
0.0
 11
24765.5
 21
15292.1810367590896931
 31
0.0
  0
LINE
  5
3D6F7
  8
1
  6
CONTINUOUS
 62
     7
 10
24729.5
 20
15182.5410367590902752
 30
0.0
 11
24642.5
 21
15182.5410367590902752
 31
0.0
  0
LINE
  5
3D6F8
  8
CENTER
 10
24772.5
 20
15295.5410367590902752
 30
0.0
 11
24722.5
 21
15271.5410367590902752
 31
0.0
  0
LINE
  5
3D6F9
  8
1
  6
CONTINUOUS
 62
     7
 10
24729.5
 20
15182.5410367590902752
 30
0.0
 11
24729.5
 21
15274.9010367590908572
 31
0.0
  0
LINE
  5
3D6FA
  8
1
  6
CONTINUOUS
 62
     7
 10
24765.5
 20
15181.0410367590902752
 30
0.0
 11
24765.5
 21
15292.1810367590896931
 31
0.0
  0
LINE
  5
3D6FB
  8
1
  6
CONTINUOUS
 62
     7
 10
24765.5
 20
15187.0410367590902752
 30
0.0
 11
24729.5
 21
15187.0410367590902752
 31
0.0
  0
LINE
  5
3D6FC
  8
1
  6
CONTINUOUS
 62
     7
 10
24642.5
 20
15182.5410367590902752
 30
0.0
 11
24642.5
 21
15271.5410367590902752
 31
0.0
  0
LINE
  5
3D6FD
  8
1
  6
CONTINUOUS
 62
     7
 10
24729.5
 20
15360.5410367590902752
 30
0.0
 11
24642.5
 21
15360.5410367590902752
 31
0.0
  0
LINE
  5
3D6FE
  8
1
  6
CONTINUOUS
 62
     7
 10
24765.5
 20
15398.7610367590896203
 30
0.0
 11
24743.25
 21
15356.0410367590902752
 31
0.0
  0
LINE
  5
3D6FF
  8
1
  6
CONTINUOUS
 62
     7
 10
24743.25
 20
15356.0410367590902752
 30
0.0
 11
24729.5
 21
15356.0410367590902752
 31
0.0
  0
LINE
  5
3D701
  8
1
  6
CONTINUOUS
 62
     7
 10
24602.5
 20
15271.5410367590902752
 30
0.0
 11
24602.5
 21
15372.5410367590902752
 31
0.0
  0
LINE
  5
3D702
  8
1
  6
CONTINUOUS
 62
     7
 10
24602.5
 20
15271.5410367590902752
 30
0.0
 11
24602.5
 21
15170.5410367590902752
 31
0.0
  0
LINE
  5
3D703
  8
1
  6
CONTINUOUS
 62
     7
 10
24596.2799999999988358
 20
15170.5410367590902752
 30
0.0
 11
24602.5
 21
15170.5410367590902752
 31
0.0
  0
LINE
  5
3D704
  8
1
  6
CONTINUOUS
 62
     7
 10
24596.2799999999988358
 20
15372.5410367590902752
 30
0.0
 11
24602.5
 21
15372.5410367590902752
 31
0.0
  0
ARC
  5
3D705
  8
1
  6
CONTINUOUS
 62
     7
 10
26612.5
 20
15295.5410367590902752
 30
0.0
 40
106.5
 50
50.7729999999772588
 51
108.4939999999748039
  0
ARC
  5
3D706
  8
1
  6
CONTINUOUS
 62
     7
 10
26612.5
 20
15295.5410367590902752
 30
0.0
 40
106.5
 50
251.5060000000252103
 51
309.2270000000228265
  0
LINE
  5
3D707
  8
1
  6
CONTINUOUS
 62
     7
 10
26062.5
 20
15213.0410367590902752
 30
0.0
 11
26572.5
 21
15213.0410367590902752
 31
0.0
  0
LINE
  5
3D708
  8
1
  6
CONTINUOUS
 62
     7
 10
26062.5
 20
15378.0410367590902752
 30
0.0
 11
26572.5
 21
15378.0410367590902752
 31
0.0
  0
LINE
  5
3D709
  8
1
  6
CONTINUOUS
 62
     7
 10
26062.5
 20
15410.0410367590902752
 30
0.0
 11
26062.5
 21
15295.5410367590902752
 31
0.0
  0
LINE
  5
3D70A
  8
1
  6
CONTINUOUS
 62
     7
 10
26062.5
 20
15181.0410367590902752
 30
0.0
 11
26062.5
 21
15295.5410367590902752
 31
0.0
  0
LINE
  5
3D70B
  8
1
  6
CONTINUOUS
 62
     7
 10
26572.5
 20
15295.5410367590902752
 30
0.0
 11
26572.5
 21
15396.5410367590902752
 31
0.0
  0
LINE
  5
3D70C
  8
1
  6
CONTINUOUS
 62
     7
 10
26572.5
 20
15295.5410367590902752
 30
0.0
 11
26572.5
 21
15194.5410367590902752
 31
0.0
  0
LINE
  5
3D70D
  8
1
  6
CONTINUOUS
 62
     7
 10
26578.7200000000011642
 20
15194.5410367590902752
 30
0.0
 11
26572.5
 21
15194.5410367590902752
 31
0.0
  0
LINE
  5
3D70E
  8
1
  6
CONTINUOUS
 62
     7
 10
26578.7200000000011642
 20
15396.5410367590902752
 30
0.0
 11
26572.5
 21
15396.5410367590902752
 31
0.0
  0
LINE
  5
3D710
  8
1
  6
CONTINUOUS
 62
     7
 10
26790.5
 20
15435.5410367590902752
 30
0.0
 11
26790.5
 21
15295.5410367590902752
 31
0.0
  0
LINE
  5
3D711
  8
1
  6
CONTINUOUS
 62
     7
 10
26812.5
 20
15435.5410367590902752
 30
0.0
 11
26812.5
 21
15295.5410367590902752
 31
0.0
  0
LINE
  5
3D712
  8
1
  6
CONTINUOUS
 62
     7
 10
26679.8499999999985448
 20
15378.0410367590902752
 30
0.0
 11
26679.8499999999985448
 21
15295.5410367590902752
 31
0.0
  0
LINE
  5
3D713
  8
1
  6
CONTINUOUS
 62
     7
 10
26679.8499999999985448
 20
15213.0410367590902752
 30
0.0
 11
26790.5
 21
15213.0410367590902752
 31
0.0
  0
LINE
  5
3D714
  8
1
  6
CONTINUOUS
 62
     7
 10
26790.5
 20
15155.5410367590902752
 30
0.0
 11
26790.5
 21
15295.5410367590902752
 31
0.0
  0
LINE
  5
3D715
  8
1
  6
CONTINUOUS
 62
     7
 10
26812.5
 20
15155.5410367590902752
 30
0.0
 11
26812.5
 21
15295.5410367590902752
 31
0.0
  0
LINE
  5
3D716
  8
1
  6
CONTINUOUS
 62
     7
 10
26812.5
 20
15155.5410367590902752
 30
0.0
 11
26790.5
 21
15155.5410367590902752
 31
0.0
  0
LINE
  5
3D717
  8
1
  6
CONTINUOUS
 62
     7
 10
26679.8499999999985448
 20
15213.0410367590902752
 30
0.0
 11
26679.8499999999985448
 21
15295.5410367590902752
 31
0.0
  0
LINE
  5
3D718
  8
1
  6
CONTINUOUS
 62
     7
 10
26679.8499999999985448
 20
15378.0410367590902752
 30
0.0
 11
26790.5
 21
15378.0410367590902752
 31
0.0
  0
LINE
  5
3D719
  8
1
  6
CONTINUOUS
 62
     7
 10
26812.5
 20
15435.5410367590902752
 30
0.0
 11
26790.5
 21
15435.5410367590902752
 31
0.0
  0
LINE
  5
3D71A
  8
CENTER
 10
26855.5299999999988358
 20
19598.0192305276286788
 30
0.0
 11
24772.5
 21
19598.0192305276286788
 31
0.0
  0
LINE
  5
3D71B
  8
1
  6
CONTINUOUS
 62
     7
 10
26062.5
 20
19515.5192305276286788
 30
0.0
 11
26572.5
 21
19515.5192305276286788
 31
0.0
  0
LINE
  5
3D71C
  8
1
  6
CONTINUOUS
 62
     7
 10
26062.5
 20
19680.5192305276286788
 30
0.0
 11
26572.5
 21
19680.5192305276286788
 31
0.0
  0
LINE
  5
3D71D
  8
CENTER
 10
24722.5
 20
19598.0192305276286788
 30
0.0
 11
24327.7299999999995634
 21
19598.0192305276286788
 31
0.0
  0
LINE
  5
3D71E
  8
1
  6
CONTINUOUS
 62
     7
 10
24642.5
 20
19680.5192305276286788
 30
0.0
 11
24602.5
 21
19680.5192305276286788
 31
0.0
  0
LINE
  5
3D71F
  8
1
  6
CONTINUOUS
 62
     7
 10
24642.5
 20
19515.5192305276286788
 30
0.0
 11
24602.5
 21
19515.5192305276286788
 31
0.0
  0
ARC
  5
3D720
  8
1
  6
CONTINUOUS
 62
     7
 10
24562.5
 20
19598.0192305276286788
 30
0.0
 40
106.5
 50
230.7729999999772019
 51
288.4939999999747897
  0
ARC
  5
3D721
  8
1
  6
CONTINUOUS
 62
     7
 10
24562.5
 20
19598.0192305276286788
 30
0.0
 40
106.5
 50
71.5060000000251819
 51
129.226899999992213
  0
LINE
  5
3D722
  8
1
  6
CONTINUOUS
 62
     7
 10
24384.5
 20
19738.0192305276286788
 30
0.0
 11
24384.5
 21
19598.0192305276286788
 31
0.0
  0
LINE
  5
3D723
  8
1
  6
CONTINUOUS
 62
     7
 10
24362.5
 20
19738.0192305276286788
 30
0.0
 11
24362.5
 21
19598.0192305276286788
 31
0.0
  0
LINE
  5
3D724
  8
1
  6
CONTINUOUS
 62
     7
 10
24384.5
 20
19458.0192305276286788
 30
0.0
 11
24384.5
 21
19598.0192305276286788
 31
0.0
  0
LINE
  5
3D725
  8
1
  6
CONTINUOUS
 62
     7
 10
24362.5
 20
19458.0192305276286788
 30
0.0
 11
24362.5
 21
19598.0192305276286788
 31
0.0
  0
LINE
  5
3D726
  8
1
  6
CONTINUOUS
 62
     7
 10
24362.5
 20
19458.0192305276286788
 30
0.0
 11
24384.5
 21
19458.0192305276286788
 31
0.0
  0
LINE
  5
3D727
  8
1
  6
CONTINUOUS
 62
     7
 10
24362.5
 20
19738.0192305276286788
 30
0.0
 11
24384.5
 21
19738.0192305276286788
 31
0.0
  0
LINE
  5
3D728
  8
1
  6
CONTINUOUS
 62
     7
 10
24495.1500000000014552
 20
19680.5192305276286788
 30
0.0
 11
24495.1500000000014552
 21
19598.0192305276286788
 31
0.0
  0
LINE
  5
3D729
  8
1
  6
CONTINUOUS
 62
     7
 10
24495.1500000000014552
 20
19515.5192305276286788
 30
0.0
 11
24495.1500000000014552
 21
19598.0192305276286788
 31
0.0
  0
LINE
  5
3D72A
  8
1
  6
CONTINUOUS
 62
     7
 10
24495.1500000000014552
 20
19515.5192305276286788
 30
0.0
 11
24384.5
 21
19515.5192305276286788
 31
0.0
  0
LINE
  5
3D72B
  8
1
  6
CONTINUOUS
 62
     7
 10
24495.1500000000014552
 20
19680.5192305276286788
 30
0.0
 11
24384.5
 21
19680.5192305276286788
 31
0.0
  0
LINE
  5
3D72D
  8
1
  6
CONTINUOUS
 62
     7
 10
24602.5
 20
19598.0192305276286788
 30
0.0
 11
24602.5
 21
19699.0192305276286788
 31
0.0
  0
LINE
  5
3D72E
  8
1
  6
CONTINUOUS
 62
     7
 10
24602.5
 20
19598.0192305276286788
 30
0.0
 11
24602.5
 21
19497.0192305276286788
 31
0.0
  0
LINE
  5
3D72F
  8
1
  6
CONTINUOUS
 62
     7
 10
24596.2799999999988358
 20
19497.0192305276286788
 30
0.0
 11
24602.5
 21
19497.0192305276286788
 31
0.0
  0
LINE
  5
3D730
  8
1
  6
CONTINUOUS
 62
     7
 10
24596.2799999999988358
 20
19699.0192305276286788
 30
0.0
 11
24602.5
 21
19699.0192305276286788
 31
0.0
  0
LINE
  5
3D731
  8
1
  6
CONTINUOUS
 62
     7
 10
26062.5
 20
19483.5192305276286788
 30
0.0
 11
24765.5
 21
19483.5192305276286788
 31
0.0
  0
LINE
  5
3D732
  8
1
  6
CONTINUOUS
 62
     7
 10
26062.5
 20
19712.5192305276286788
 30
0.0
 11
24765.5
 21
19712.5192305276286788
 31
0.0
  0
LINE
  5
3D733
  8
1
  6
CONTINUOUS
 62
     7
 10
24729.5
 20
19687.0192305276286788
 30
0.0
 11
24729.5
 21
19601.3792305276292609
 31
0.0
  0
LINE
  5
3D734
  8
1
  6
CONTINUOUS
 62
     7
 10
24642.5
 20
19687.0192305276286788
 30
0.0
 11
24642.5
 21
19598.0192305276286788
 31
0.0
  0
LINE
  5
3D735
  8
1
  6
CONTINUOUS
 62
     7
 10
24765.5
 20
19712.5192305276286788
 30
0.0
 11
24765.5
 21
19594.6592305276317347
 31
0.0
  0
LINE
  5
3D736
  8
1
  6
CONTINUOUS
 62
     7
 10
24729.5
 20
19509.0192305276286788
 30
0.0
 11
24642.5
 21
19509.0192305276286788
 31
0.0
  0
LINE
  5
3D737
  8
CENTER
 10
24772.5
 20
19598.0192305276286788
 30
0.0
 11
24722.5
 21
19598.0192305276286788
 31
0.0
  0
LINE
  5
3D738
  8
1
  6
CONTINUOUS
 62
     7
 10
24729.5
 20
19509.0192305276286788
 30
0.0
 11
24729.5
 21
19601.3792305276292609
 31
0.0
  0
LINE
  5
3D739
  8
1
  6
CONTINUOUS
 62
     7
 10
24765.5
 20
19483.5192305276286788
 30
0.0
 11
24765.5
 21
19594.6592305276317347
 31
0.0
  0
LINE
  5
3D73B
  8
1
  6
CONTINUOUS
 62
     7
 10
24642.5
 20
19509.0192305276286788
 30
0.0
 11
24642.5
 21
19598.0192305276286788
 31
0.0
  0
LINE
  5
3D73C
  8
1
  6
CONTINUOUS
 62
     7
 10
24729.5
 20
19687.0192305276286788
 30
0.0
 11
24642.5
 21
19687.0192305276286788
 31
0.0
  0
LINE
  5
3D73D
  8
1
  6
CONTINUOUS
 62
     7
 10
24765.5
 20
19701.239230527629843
 30
0.0
 11
24743.25
 21
19682.5192305276286788
 31
0.0
  0
LINE
  5
3D73E
  8
1
  6
CONTINUOUS
 62
     7
 10
24743.25
 20
19682.5192305276286788
 30
0.0
 11
24729.5
 21
19682.5192305276286788
 31
0.0
  0
LINE
  5
3D73F
  8
1
  6
CONTINUOUS
 62
     7
 10
26062.5
 20
19712.5192305276286788
 30
0.0
 11
26062.5
 21
19598.0192305276286788
 31
0.0
  0
LINE
  5
3D740
  8
1
  6
CONTINUOUS
 62
     7
 10
26062.5
 20
19483.5192305276286788
 30
0.0
 11
26062.5
 21
19598.0192305276286788
 31
0.0
  0
LINE
  5
3D741
  8
1
  6
CONTINUOUS
 62
     7
 10
26790.5
 20
19738.0192305276286788
 30
0.0
 11
26790.5
 21
19598.0192305276286788
 31
0.0
  0
LINE
  5
3D742
  8
1
  6
CONTINUOUS
 62
     7
 10
26812.5
 20
19738.0192305276286788
 30
0.0
 11
26812.5
 21
19598.0192305276286788
 31
0.0
  0
LINE
  5
3D743
  8
1
  6
CONTINUOUS
 62
     7
 10
26679.8499999999985448
 20
19515.5192305276286788
 30
0.0
 11
26790.5
 21
19515.5192305276286788
 31
0.0
  0
LINE
  5
3D744
  8
1
  6
CONTINUOUS
 62
     7
 10
26679.8499999999985448
 20
19680.5192305276286788
 30
0.0
 11
26790.5
 21
19680.5192305276286788
 31
0.0
  0
ARC
  5
3D745
  8
1
  6
CONTINUOUS
 62
     7
 10
26612.5
 20
19598.0192305276286788
 30
0.0
 40
106.5
 50
50.7729999999772588
 51
108.4939999999748039
  0
ARC
  5
3D746
  8
1
  6
CONTINUOUS
 62
     7
 10
26612.5
 20
19598.0192305276286788
 30
0.0
 40
106.5
 50
251.5060000000252103
 51
309.2270000000228265
  0
LINE
  5
3D747
  8
1
  6
CONTINUOUS
 62
     7
 10
26572.5
 20
19598.0192305276286788
 30
0.0
 11
26572.5
 21
19699.0192305276286788
 31
0.0
  0
LINE
  5
3D748
  8
1
  6
CONTINUOUS
 62
     7
 10
26572.5
 20
19598.0192305276286788
 30
0.0
 11
26572.5
 21
19497.0192305276286788
 31
0.0
  0
LINE
  5
3D749
  8
1
  6
CONTINUOUS
 62
     7
 10
26578.7200000000011642
 20
19497.0192305276286788
 30
0.0
 11
26572.5
 21
19497.0192305276286788
 31
0.0
  0
LINE
  5
3D74A
  8
1
  6
CONTINUOUS
 62
     7
 10
26578.7200000000011642
 20
19699.0192305276286788
 30
0.0
 11
26572.5
 21
19699.0192305276286788
 31
0.0
  0
LINE
  5
3D74C
  8
1
  6
CONTINUOUS
 62
     7
 10
26679.8499999999985448
 20
19680.5192305276286788
 30
0.0
 11
26679.8499999999985448
 21
19598.0192305276286788
 31
0.0
  0
LINE
  5
3D74D
  8
1
  6
CONTINUOUS
 62
     7
 10
26679.8499999999985448
 20
19515.5192305276286788
 30
0.0
 11
26679.8499999999985448
 21
19598.0192305276286788
 31
0.0
  0
LINE
  5
3D74E
  8
1
  6
CONTINUOUS
 62
     7
 10
26790.5
 20
19458.0192305276286788
 30
0.0
 11
26790.5
 21
19598.0192305276286788
 31
0.0
  0
LINE
  5
3D74F
  8
1
  6
CONTINUOUS
 62
     7
 10
26812.5
 20
19458.0192305276286788
 30
0.0
 11
26812.5
 21
19598.0192305276286788
 31
0.0
  0
LINE
  5
3D750
  8
1
  6
CONTINUOUS
 62
     7
 10
26812.5
 20
19458.0192305276286788
 30
0.0
 11
26790.5
 21
19458.0192305276286788
 31
0.0
  0
LINE
  5
3D751
  8
1
  6
CONTINUOUS
 62
     7
 10
26812.5
 20
19738.0192305276286788
 30
0.0
 11
26790.5
 21
19738.0192305276286788
 31
0.0
  0
LINE
  5
3D754
  8
1
  6
CONTINUOUS
 62
     7
 10
24765.5
 20
19494.7992305276311527
 30
0.0
 11
24743.25
 21
19513.5192305276286788
 31
0.0
  0
LINE
  5
3D755
  8
1
  6
CONTINUOUS
 62
     7
 10
24743.25
 20
19513.5192305276286788
 30
0.0
 11
24729.5
 21
19513.5192305276286788
 31
0.0
  0
LINE
  5
3D75C
  8
UL1
 10
23862.5
 20
20288.0192305276286788
 30
0.0
 11
27312.5
 21
20288.0192305276286788
 31
0.0
  0
LINE
  5
3D75D
  8
UL1
 10
23862.5
 20
18908.0192305276286788
 30
0.0
 11
27312.5
 21
18908.0192305276286788
 31
0.0
  0
LINE
  5
3D75E
  8
UL1
 10
23862.5
 20
15511.5410367590902752
 30
0.0
 11
27312.5
 21
15511.5410367590902752
 31
0.0
  0
LINE
  5
3D75F
  8
UL1
 10
23862.5
 20
15031.5410367590902752
 30
0.0
 11
27312.5
 21
15031.5410367590902752
 31
0.0
  0
LINE
  5
3D762
  8
UL1
 10
26812.5
 20
18908.0192305276286788
 30
0.0
 11
26812.5
 21
20288.0192305276286788
 31
0.0
  0
LINE
  5
3D763
  8
UL1
 10
24362.5
 20
19788.0192305276286788
 30
0.0
 11
26572.5
 21
20288.0192305276286788
 31
0.0
  0
LINE
  5
3D764
  8
UL1
 10
24362.5
 20
19408.0192305276286788
 30
0.0
 11
26572.5
 21
18908.0192305276286788
 31
0.0
  0
LINE
  5
3D765
  8
UL1
 10
23862.5
 20
20288.0192305276286788
 30
0.0
 11
23862.5
 21
18908.0192305276286788
 31
0.0
  0
LINE
  5
3D766
  8
UL1
 10
27312.5
 20
18908.0192305276286788
 30
0.0
 11
27312.5
 21
20288.0192305276286788
 31
0.0
  0
LINE
  5
3D767
  8
UL1
 10
24362.5
 20
19788.0192305276286788
 30
0.0
 11
24362.5
 21
19408.0192305276286788
 31
0.0
  0
LINE
  5
3D768
  8
UL1
 10
23862.5
 20
15511.5410367590902752
 30
0.0
 11
23862.5
 21
15031.5410367590902752
 31
0.0
  0
LINE
  5
3D769
  8
UL1
 10
27312.5
 20
15031.5410367590902752
 30
0.0
 11
27312.5
 21
15511.5410367590902752
 31
0.0
  0
TEXT
  5
3D807
  8
SCALE
 10
25260.8333333333284827
 20
18254.6225795925383864
 30
0.0
 40
200.0
  1
平面図
 72
     4
 11
25587.5
 21
18347.955912925870507
 31
0.0
  0
TEXT
  5
3D808
  8
SCALE
 10
25260.8333333333284827
 20
13983.9703838745008397
 30
0.0
 40
200.0
  1
断面図
 72
     4
 11
25587.5
 21
14083.9703838745008397
 31
0.0
  0
LINE
  5
3DA08
  8
1
  6
CONTINUOUS
 62
     7
 10
36162.5
 20
15154.2410367590891838
 30
0.0
 11
34865.5
 21
15154.2410367590891838
 31
0.0
  0
LINE
  5
3DA09
  8
1
  6
CONTINUOUS
 62
     7
 10
36162.5
 20
15436.8410367590895476
 30
0.0
 11
34865.5
 21
15436.8410367590895476
 31
0.0
  0
LINE
  5
3DA0A
  8
CENTER
 10
37015.5299999999988358
 20
15295.5410367590902752
 30
0.0
 11
34872.5
 21
15295.5410367590902752
 31
0.0
  0
LINE
  5
3DA0B
  8
CENTER
 10
34812.5
 20
15271.0410367590902752
 30
0.0
 11
34329.5400000000008731
 21
15271.0410367590902752
 31
0.0
  0
LINE
  5
3DA0C
  8
1
  6
CONTINUOUS
 62
     7
 10
34374.5
 20
15163.0410367590902752
 30
0.0
 11
34512.0
 21
15163.0410367590902752
 31
0.0
  0
LINE
  5
3DA0D
  8
1
  6
CONTINUOUS
 62
     7
 10
34374.5
 20
15379.0410367590902752
 30
0.0
 11
34512.0
 21
15379.0410367590902752
 31
0.0
  0
LINE
  5
3DA0E
  8
1
  6
CONTINUOUS
 62
     7
 10
34374.5
 20
15271.0410367590902752
 30
0.0
 11
34374.5
 21
15106.0410367590902752
 31
0.0
  0
LINE
  5
3DA0F
  8
1
  6
CONTINUOUS
 62
     7
 10
34352.5
 20
15271.0410367590902752
 30
0.0
 11
34352.5
 21
15106.0410367590902752
 31
0.0
  0
LINE
  5
3DA10
  8
1
  6
CONTINUOUS
 62
     7
 10
34352.5
 20
15106.0410367590902752
 30
0.0
 11
34374.5
 21
15106.0410367590902752
 31
0.0
  0
LINE
  5
3DA11
  8
1
  6
CONTINUOUS
 62
     7
 10
34374.5
 20
15271.0410367590902752
 30
0.0
 11
34374.5
 21
15436.0410367590902752
 31
0.0
  0
LINE
  5
3DA12
  8
1
  6
CONTINUOUS
 62
     7
 10
34352.5
 20
15271.0410367590902752
 30
0.0
 11
34352.5
 21
15436.0410367590902752
 31
0.0
  0
LINE
  5
3DA13
  8
1
  6
CONTINUOUS
 62
     7
 10
34352.5
 20
15436.0410367590902752
 30
0.0
 11
34374.5
 21
15436.0410367590902752
 31
0.0
  0
ARC
  5
3DA14
  8
1
  6
CONTINUOUS
 62
     7
 10
34597.5
 20
15271.0410367590902752
 30
0.0
 40
137.75
 50
71.3279999999763419
 51
128.3690000000115106
  0
ARC
  5
3DA15
  8
1
  6
CONTINUOUS
 62
     7
 10
34597.5
 20
15271.0410367590902752
 30
0.0
 40
137.75
 50
231.6309999999884894
 51
288.6720000000236723
  0
LINE
  5
3DA16
  8
1
  6
CONTINUOUS
 62
     7
 10
34808.2200000000011642
 20
15162.0410367590902752
 30
0.0
 11
34808.2200000000011642
 21
15271.0410367590902752
 31
0.0
  0
LINE
  5
3DA17
  8
1
  6
CONTINUOUS
 62
     7
 10
34783.319999999999709
 20
15155.6910367590899114
 30
0.0
 11
34783.319999999999709
 21
15271.0410367590902752
 31
0.0
  0
LINE
  5
3DA18
  8
1
  6
CONTINUOUS
 62
     7
 10
34702.5
 20
15155.6910367590899114
 30
0.0
 11
34702.5
 21
15271.0410367590902752
 31
0.0
  0
LINE
  5
3DA19
  8
1
  6
CONTINUOUS
 62
     7
 10
34652.5
 20
15140.5410367590902752
 30
0.0
 11
34652.5
 21
15271.0410367590902752
 31
0.0
  0
LINE
  5
3DA1A
  8
1
  6
CONTINUOUS
 62
     7
 10
34783.319999999999709
 20
15155.6910367590899114
 30
0.0
 11
34702.5
 21
15155.6910367590899114
 31
0.0
  0
LINE
  5
3DA1B
  8
1
  6
CONTINUOUS
 62
     7
 10
34808.2200000000011642
 20
15162.0410367590902752
 30
0.0
 11
34783.319999999999709
 21
15155.6910367590899114
 31
0.0
  0
LINE
  5
3DA1C
  8
1
  6
CONTINUOUS
 62
     7
 10
34702.5
 20
15163.0410367590902752
 30
0.0
 11
34652.5
 21
15163.0410367590902752
 31
0.0
  0
LINE
  5
3DA1D
  8
1
  6
CONTINUOUS
 62
     7
 10
34641.6000000000130967
 20
15140.5410367590902752
 30
0.0
 11
34652.5
 21
15140.5410367590902752
 31
0.0
  0
LINE
  5
3DA1E
  8
1
  6
CONTINUOUS
 62
     7
 10
34783.319999999999709
 20
15386.391036759090639
 30
0.0
 11
34702.5
 21
15386.391036759090639
 31
0.0
  0
LINE
  5
3DA1F
  8
1
  6
CONTINUOUS
 62
     7
 10
34808.2200000000011642
 20
15380.0410367590902752
 30
0.0
 11
34808.2200000000011642
 21
15271.0410367590902752
 31
0.0
  0
LINE
  5
3DA20
  8
1
  6
CONTINUOUS
 62
     7
 10
34783.319999999999709
 20
15386.391036759090639
 30
0.0
 11
34783.319999999999709
 21
15271.0410367590902752
 31
0.0
  0
LINE
  5
3DA21
  8
1
  6
CONTINUOUS
 62
     7
 10
34808.2200000000011642
 20
15380.0410367590902752
 30
0.0
 11
34783.319999999999709
 21
15386.391036759090639
 31
0.0
  0
LINE
  5
3DA22
  8
1
  6
CONTINUOUS
 62
     7
 10
34824.069999999999709
 20
15380.0410367590902752
 30
0.0
 11
34808.2200000000011642
 21
15380.0410367590902752
 31
0.0
  0
LINE
  5
3DA23
  8
1
  6
CONTINUOUS
 62
     7
 10
34702.5
 20
15386.391036759090639
 30
0.0
 11
34702.5
 21
15271.0410367590902752
 31
0.0
  0
LINE
  5
3DA24
  8
1
  6
CONTINUOUS
 62
     7
 10
34652.5
 20
15401.5410367590902752
 30
0.0
 11
34652.5
 21
15271.0410367590902752
 31
0.0
  0
LINE
  5
3DA25
  8
1
  6
CONTINUOUS
 62
     7
 10
34702.5
 20
15379.0410367590902752
 30
0.0
 11
34652.5
 21
15379.0410367590902752
 31
0.0
  0
LINE
  5
3DA26
  8
1
  6
CONTINUOUS
 62
     7
 10
34641.6000000000130967
 20
15401.5410367590902752
 30
0.0
 11
34652.5
 21
15401.5410367590902752
 31
0.0
  0
LINE
  5
3DA28
  8
1
  6
CONTINUOUS
 62
     7
 10
34512.0
 20
15163.0410367590902752
 30
0.0
 11
34512.0
 21
15271.0410367590902752
 31
0.0
  0
LINE
  5
3DA29
  8
1
  6
CONTINUOUS
 62
     7
 10
34512.0
 20
15379.0410367590902752
 30
0.0
 11
34512.0
 21
15271.0410367590902752
 31
0.0
  0
LINE
  5
3DA2A
  8
1
  6
CONTINUOUS
 62
     7
 10
34865.5
 20
15154.2410367590891838
 30
0.0
 11
34865.5
 21
15292.6820367590898968
 31
0.0
  0
LINE
  5
3DA2B
  8
1
  6
CONTINUOUS
 62
     7
 10
34865.5
 20
15436.8410367590895476
 30
0.0
 11
34865.5
 21
15292.6820367590898968
 31
0.0
  0
LINE
  5
3DA2C
  8
1
  6
CONTINUOUS
 62
     7
 10
34865.5
 20
15162.0410367590902752
 30
0.0
 11
34808.2200000000011642
 21
15162.0410367590902752
 31
0.0
  0
LINE
  5
3DA2D
  8
CENTER
 10
34872.5
 20
15295.5410367590902752
 30
0.0
 11
34812.5
 21
15271.0410367590902752
 31
0.0
  0
LINE
  5
3DA2E
  8
1
  6
CONTINUOUS
 62
     7
 10
34865.5
 20
15425.1500367590906535
 30
0.0
 11
34824.069999999999709
 21
15380.0410367590902752
 31
0.0
  0
LINE
  5
3DA2F
  8
1
  6
CONTINUOUS
 62
     7
 10
36672.5
 20
15187.5410367590902752
 30
0.0
 11
36162.5
 21
15187.5410367590902752
 31
0.0
  0
LINE
  5
3DA30
  8
1
  6
CONTINUOUS
 62
     7
 10
36672.5
 20
15403.5410367590902752
 30
0.0
 11
36162.5
 21
15403.5410367590902752
 31
0.0
  0
LINE
  5
3DA31
  8
1
  6
CONTINUOUS
 62
     7
 10
36162.5
 20
15154.2410367590891838
 30
0.0
 11
36162.5
 21
15295.5410367590902752
 31
0.0
  0
LINE
  5
3DA32
  8
1
  6
CONTINUOUS
 62
     7
 10
36162.5
 20
15436.8410367590895476
 30
0.0
 11
36162.5
 21
15295.5410367590902752
 31
0.0
  0
LINE
  5
3DA33
  8
1
  6
CONTINUOUS
 62
     7
 10
36950.5
 20
15403.5410367590902752
 30
0.0
 11
36813.0100000000020373
 21
15403.5410367590902752
 31
0.0
  0
LINE
  5
3DA34
  8
1
  6
CONTINUOUS
 62
     7
 10
36950.5
 20
15187.5410367590902752
 30
0.0
 11
36813.0100000000020373
 21
15187.5410367590902752
 31
0.0
  0
LINE
  5
3DA35
  8
1
  6
CONTINUOUS
 62
     7
 10
36950.5
 20
15295.5410367590902752
 30
0.0
 11
36950.5
 21
15130.5410367590902752
 31
0.0
  0
LINE
  5
3DA36
  8
1
  6
CONTINUOUS
 62
     7
 10
36972.5
 20
15295.5410367590902752
 30
0.0
 11
36972.5
 21
15130.5410367590902752
 31
0.0
  0
LINE
  5
3DA37
  8
1
  6
CONTINUOUS
 62
     7
 10
36972.5
 20
15130.5410367590902752
 30
0.0
 11
36950.5
 21
15130.5410367590902752
 31
0.0
  0
LINE
  5
3DA38
  8
1
  6
CONTINUOUS
 62
     7
 10
36950.5
 20
15295.5410367590902752
 30
0.0
 11
36950.5
 21
15460.5410367590902752
 31
0.0
  0
LINE
  5
3DA39
  8
1
  6
CONTINUOUS
 62
     7
 10
36972.5
 20
15295.5410367590902752
 30
0.0
 11
36972.5
 21
15460.5410367590902752
 31
0.0
  0
LINE
  5
3DA3A
  8
1
  6
CONTINUOUS
 62
     7
 10
36972.5
 20
15460.5410367590902752
 30
0.0
 11
36950.5
 21
15460.5410367590902752
 31
0.0
  0
LINE
  5
3DA3C
  8
1
  6
CONTINUOUS
 62
     7
 10
36813.0100000000020373
 20
15187.5410367590902752
 30
0.0
 11
36813.0100000000020373
 21
15295.5410367590902752
 31
0.0
  0
LINE
  5
3DA3D
  8
1
  6
CONTINUOUS
 62
     7
 10
36672.5
 20
15165.0410367590902752
 30
0.0
 11
36672.5
 21
15295.5410367590902752
 31
0.0
  0
ARC
  5
3DA3E
  8
1
  6
CONTINUOUS
 62
     7
 10
36727.5
 20
15295.5410367590902752
 30
0.0
 40
137.75
 50
251.3279999999764129
 51
308.3690000000115106
  0
LINE
  5
3DA3F
  8
1
  6
CONTINUOUS
 62
     7
 10
36683.4000000000014552
 20
15165.0410367590902752
 30
0.0
 11
36672.5
 21
15165.0410367590902752
 31
0.0
  0
ARC
  5
3DA40
  8
1
  6
CONTINUOUS
 62
     7
 10
36727.5
 20
15295.5410367590902752
 30
0.0
 40
137.75
 50
51.6309999999884823
 51
108.6716999999890021
  0
LINE
  5
3DA41
  8
1
  6
CONTINUOUS
 62
     7
 10
36813.0100000000020373
 20
15403.5410367590902752
 30
0.0
 11
36813.0100000000020373
 21
15295.5410367590902752
 31
0.0
  0
LINE
  5
3DA42
  8
1
  6
CONTINUOUS
 62
     7
 10
36672.5
 20
15426.0410367590902752
 30
0.0
 11
36672.5
 21
15295.5410367590902752
 31
0.0
  0
LINE
  5
3DA43
  8
1
  6
CONTINUOUS
 62
     7
 10
36683.4000000000014552
 20
15426.0410367590902752
 30
0.0
 11
36672.5
 21
15426.0410367590902752
 31
0.0
  0
LINE
  5
3DA5A
  8
1
  6
CONTINUOUS
 62
     7
 10
34374.5
 20
19490.0192305276286788
 30
0.0
 11
34512.0
 21
19490.0192305276286788
 31
0.0
  0
LINE
  5
3DA5B
  8
CENTER
 10
34812.5
 20
19598.0192305276286788
 30
0.0
 11
34329.5400000000008731
 21
19598.0192305276286788
 31
0.0
  0
LINE
  5
3DA5C
  8
1
  6
CONTINUOUS
 62
     7
 10
34374.5
 20
19706.0192305276286788
 30
0.0
 11
34512.0
 21
19706.0192305276286788
 31
0.0
  0
LINE
  5
3DA5D
  8
1
  6
CONTINUOUS
 62
     7
 10
34352.5
 20
19598.0192305276286788
 30
0.0
 11
34352.5
 21
19763.0192305276286788
 31
0.0
  0
LINE
  5
3DA5E
  8
1
  6
CONTINUOUS
 62
     7
 10
34374.5
 20
19598.0192305276286788
 30
0.0
 11
34374.5
 21
19763.0192305276286788
 31
0.0
  0
LINE
  5
3DA5F
  8
1
  6
CONTINUOUS
 62
     7
 10
34352.5
 20
19433.0192305276286788
 30
0.0
 11
34374.5
 21
19433.0192305276286788
 31
0.0
  0
LINE
  5
3DA60
  8
1
  6
CONTINUOUS
 62
     7
 10
34352.5
 20
19598.0192305276286788
 30
0.0
 11
34352.5
 21
19433.0192305276286788
 31
0.0
  0
LINE
  5
3DA61
  8
1
  6
CONTINUOUS
 62
     7
 10
34374.5
 20
19598.0192305276286788
 30
0.0
 11
34374.5
 21
19433.0192305276286788
 31
0.0
  0
LINE
  5
3DA62
  8
1
  6
CONTINUOUS
 62
     7
 10
34352.5
 20
19763.0192305276286788
 30
0.0
 11
34374.5
 21
19763.0192305276286788
 31
0.0
  0
LINE
  5
3DA63
  8
CENTER
 10
37015.5299999999988358
 20
19598.0192305276286788
 30
0.0
 11
34872.5
 21
19598.0192305276286788
 31
0.0
  0
LINE
  5
3DA64
  8
1
  6
CONTINUOUS
 62
     7
 10
36672.5
 20
19706.0192305276286788
 30
0.0
 11
36162.5
 21
19706.0192305276286788
 31
0.0
  0
LINE
  5
3DA65
  8
1
  6
CONTINUOUS
 62
     7
 10
36672.5
 20
19490.0192305276286788
 30
0.0
 11
36162.5
 21
19490.0192305276286788
 31
0.0
  0
LINE
  5
3DA66
  8
1
  6
CONTINUOUS
 62
     7
 10
36162.5
 20
19739.3192305276206753
 30
0.0
 11
34865.5
 21
19739.3192305276206753
 31
0.0
  0
LINE
  5
3DA67
  8
1
  6
CONTINUOUS
 62
     7
 10
36162.5
 20
19456.7192305276184925
 30
0.0
 11
34865.5
 21
19456.7192305276184925
 31
0.0
  0
LINE
  5
3DA68
  8
1
  6
CONTINUOUS
 62
     7
 10
34865.5
 20
19739.3192305276206753
 30
0.0
 11
34865.5
 21
19595.1602305276210245
 31
0.0
  0
LINE
  5
3DA69
  8
1
  6
CONTINUOUS
 62
     7
 10
34824.069999999999709
 20
19707.0192305276286788
 30
0.0
 11
34808.2200000000011642
 21
19707.0192305276286788
 31
0.0
  0
LINE
  5
3DA6A
  8
1
  6
CONTINUOUS
 62
     7
 10
34512.0
 20
19706.0192305276286788
 30
0.0
 11
34512.0
 21
19598.0192305276286788
 31
0.0
  0
LINE
  5
3DA6B
  8
1
  6
CONTINUOUS
 62
     7
 10
34641.6000000000130967
 20
19728.5192305276286788
 30
0.0
 11
34652.5
 21
19728.5192305276286788
 31
0.0
  0
LINE
  5
3DA6C
  8
1
  6
CONTINUOUS
 62
     7
 10
34702.5
 20
19706.0192305276286788
 30
0.0
 11
34652.5
 21
19706.0192305276286788
 31
0.0
  0
LINE
  5
3DA6D
  8
1
  6
CONTINUOUS
 62
     7
 10
34652.5
 20
19728.5192305276286788
 30
0.0
 11
34652.5
 21
19598.0192305276286788
 31
0.0
  0
LINE
  5
3DA6E
  8
1
  6
CONTINUOUS
 62
     7
 10
34702.5
 20
19713.3692305276308616
 30
0.0
 11
34702.5
 21
19598.0192305276286788
 31
0.0
  0
LINE
  5
3DA6F
  8
1
  6
CONTINUOUS
 62
     7
 10
34808.2200000000011642
 20
19707.0192305276286788
 30
0.0
 11
34783.319999999999709
 21
19713.3692305276308616
 31
0.0
  0
LINE
  5
3DA70
  8
1
  6
CONTINUOUS
 62
     7
 10
34783.319999999999709
 20
19713.3692305276308616
 30
0.0
 11
34783.319999999999709
 21
19598.0192305276286788
 31
0.0
  0
LINE
  5
3DA71
  8
1
  6
CONTINUOUS
 62
     7
 10
34808.2200000000011642
 20
19707.0192305276286788
 30
0.0
 11
34808.2200000000011642
 21
19598.0192305276286788
 31
0.0
  0
LINE
  5
3DA72
  8
1
  6
CONTINUOUS
 62
     7
 10
34783.319999999999709
 20
19713.3692305276308616
 30
0.0
 11
34702.5
 21
19713.3692305276308616
 31
0.0
  0
ARC
  5
3DA73
  8
1
  6
CONTINUOUS
 62
     7
 10
34597.5
 20
19598.0192305276286788
 30
0.0
 40
137.75
 50
71.3279999999763419
 51
128.3690000000115106
  0
LINE
  5
3DA74
  8
CENTER
 10
34872.5
 20
19598.0192305276286788
 30
0.0
 11
34812.5
 21
19598.0192305276286788
 31
0.0
  0
LINE
  5
3DA75
  8
1
  6
CONTINUOUS
 62
     7
 10
34865.5
 20
19727.6282305276290572
 30
0.0
 11
34824.069999999999709
 21
19707.0192305276286788
 31
0.0
  0
LINE
  5
3DA77
  8
1
  6
CONTINUOUS
 62
     7
 10
34641.6000000000130967
 20
19467.5192305276286788
 30
0.0
 11
34652.5
 21
19467.5192305276286788
 31
0.0
  0
LINE
  5
3DA78
  8
1
  6
CONTINUOUS
 62
     7
 10
34702.5
 20
19490.0192305276286788
 30
0.0
 11
34652.5
 21
19490.0192305276286788
 31
0.0
  0
LINE
  5
3DA79
  8
1
  6
CONTINUOUS
 62
     7
 10
34808.2200000000011642
 20
19489.0192305276286788
 30
0.0
 11
34783.319999999999709
 21
19482.669230527630134
 31
0.0
  0
LINE
  5
3DA7A
  8
1
  6
CONTINUOUS
 62
     7
 10
34783.319999999999709
 20
19482.669230527630134
 30
0.0
 11
34702.5
 21
19482.669230527630134
 31
0.0
  0
ARC
  5
3DA7B
  8
1
  6
CONTINUOUS
 62
     7
 10
34597.5
 20
19598.0192305276286788
 30
0.0
 40
137.75
 50
231.6309999999884894
 51
288.6720000000236723
  0
LINE
  5
3DA7C
  8
1
  6
CONTINUOUS
 62
     7
 10
34865.5
 20
19456.7192305276184925
 30
0.0
 11
34865.5
 21
19595.1602305276210245
 31
0.0
  0
LINE
  5
3DA7D
  8
1
  6
CONTINUOUS
 62
     7
 10
34512.0
 20
19490.0192305276286788
 30
0.0
 11
34512.0
 21
19598.0192305276286788
 31
0.0
  0
LINE
  5
3DA7E
  8
1
  6
CONTINUOUS
 62
     7
 10
34652.5
 20
19467.5192305276286788
 30
0.0
 11
34652.5
 21
19598.0192305276286788
 31
0.0
  0
LINE
  5
3DA7F
  8
1
  6
CONTINUOUS
 62
     7
 10
34702.5
 20
19482.669230527630134
 30
0.0
 11
34702.5
 21
19598.0192305276286788
 31
0.0
  0
LINE
  5
3DA80
  8
1
  6
CONTINUOUS
 62
     7
 10
34783.319999999999709
 20
19482.669230527630134
 30
0.0
 11
34783.319999999999709
 21
19598.0192305276286788
 31
0.0
  0
LINE
  5
3DA81
  8
1
  6
CONTINUOUS
 62
     7
 10
34808.2200000000011642
 20
19489.0192305276286788
 30
0.0
 11
34808.2200000000011642
 21
19598.0192305276286788
 31
0.0
  0
LINE
  5
3DA82
  8
1
  6
CONTINUOUS
 62
     7
 10
36162.5
 20
19739.3192305276206753
 30
0.0
 11
36162.5
 21
19598.0192305276286788
 31
0.0
  0
LINE
  5
3DA83
  8
1
  6
CONTINUOUS
 62
     7
 10
36162.5
 20
19456.7192305276184925
 30
0.0
 11
36162.5
 21
19598.0192305276286788
 31
0.0
  0
ARC
  5
3DA84
  8
1
  6
CONTINUOUS
 62
     7
 10
36727.5
 20
19598.0192305276286788
 30
0.0
 40
137.75
 50
51.6309999999884823
 51
108.6716999999890021
  0
LINE
  5
3DA85
  8
1
  6
CONTINUOUS
 62
     7
 10
36950.5
 20
19598.0192305276286788
 30
0.0
 11
36950.5
 21
19763.0192305276286788
 31
0.0
  0
LINE
  5
3DA86
  8
1
  6
CONTINUOUS
 62
     7
 10
36972.5
 20
19598.0192305276286788
 30
0.0
 11
36972.5
 21
19763.0192305276286788
 31
0.0
  0
LINE
  5
3DA87
  8
1
  6
CONTINUOUS
 62
     7
 10
36683.4000000000014552
 20
19728.5192305276286788
 30
0.0
 11
36672.5
 21
19728.5192305276286788
 31
0.0
  0
LINE
  5
3DA88
  8
1
  6
CONTINUOUS
 62
     7
 10
36672.5
 20
19728.5192305276286788
 30
0.0
 11
36672.5
 21
19598.0192305276286788
 31
0.0
  0
LINE
  5
3DA89
  8
1
  6
CONTINUOUS
 62
     7
 10
36813.0100000000020373
 20
19706.0192305276286788
 30
0.0
 11
36813.0100000000020373
 21
19598.0192305276286788
 31
0.0
  0
LINE
  5
3DA8A
  8
1
  6
CONTINUOUS
 62
     7
 10
36813.0100000000020373
 20
19490.0192305276286788
 30
0.0
 11
36813.0100000000020373
 21
19598.0192305276286788
 31
0.0
  0
LINE
  5
3DA8B
  8
1
  6
CONTINUOUS
 62
     7
 10
36950.5
 20
19490.0192305276286788
 30
0.0
 11
36813.0100000000020373
 21
19490.0192305276286788
 31
0.0
  0
LINE
  5
3DA8C
  8
1
  6
CONTINUOUS
 62
     7
 10
36950.5
 20
19706.0192305276286788
 30
0.0
 11
36813.0100000000020373
 21
19706.0192305276286788
 31
0.0
  0
LINE
  5
3DA8D
  8
1
  6
CONTINUOUS
 62
     7
 10
36972.5
 20
19433.0192305276286788
 30
0.0
 11
36950.5
 21
19433.0192305276286788
 31
0.0
  0
LINE
  5
3DA8E
  8
1
  6
CONTINUOUS
 62
     7
 10
36683.4000000000014552
 20
19467.5192305276286788
 30
0.0
 11
36672.5
 21
19467.5192305276286788
 31
0.0
  0
ARC
  5
3DA8F
  8
1
  6
CONTINUOUS
 62
     7
 10
36727.5
 20
19598.0192305276286788
 30
0.0
 40
137.75
 50
251.3279999999764129
 51
308.3690000000115106
  0
LINE
  5
3DA90
  8
1
  6
CONTINUOUS
 62
     7
 10
36672.5
 20
19467.5192305276286788
 30
0.0
 11
36672.5
 21
19598.0192305276286788
 31
0.0
  0
LINE
  5
3DA91
  8
1
  6
CONTINUOUS
 62
     7
 10
36950.5
 20
19598.0192305276286788
 30
0.0
 11
36950.5
 21
19433.0192305276286788
 31
0.0
  0
LINE
  5
3DA92
  8
1
  6
CONTINUOUS
 62
     7
 10
36972.5
 20
19598.0192305276286788
 30
0.0
 11
36972.5
 21
19433.0192305276286788
 31
0.0
  0
LINE
  5
3DA93
  8
1
  6
CONTINUOUS
 62
     7
 10
36972.5
 20
19763.0192305276286788
 30
0.0
 11
36950.5
 21
19763.0192305276286788
 31
0.0
  0
LINE
  5
3DA94
  8
1
  6
CONTINUOUS
 62
     7
 10
34824.069999999999709
 20
19489.0192305276286788
 30
0.0
 11
34808.2200000000011642
 21
19489.0192305276286788
 31
0.0
  0
LINE
  5
3DA95
  8
1
  6
CONTINUOUS
 62
     7
 10
34865.5
 20
19468.4102305276283005
 30
0.0
 11
34824.069999999999709
 21
19489.0192305276286788
 31
0.0
  0
LINE
  5
3DA9D
  8
UL1
 10
33852.5
 20
20363.0192305276286788
 30
0.0
 11
37472.5
 21
20363.0192305276286788
 31
0.0
  0
LINE
  5
3DA9E
  8
UL1
 10
33852.5
 20
18833.0192305276286788
 30
0.0
 11
37472.5
 21
18833.0192305276286788
 31
0.0
  0
LINE
  5
3DA9F
  8
UL1
 10
34352.5
 20
19813.0192305276286788
 30
0.0
 11
34352.5
 21
19383.0192305276286788
 31
0.0
  0
LINE
  5
3DAA0
  8
UL1
 10
36972.5
 20
18833.0192305276286788
 30
0.0
 11
36972.5
 21
20363.0192305276286788
 31
0.0
  0
LINE
  5
3DAA2
  8
UL1
 10
33852.5
 20
20363.0192305276286788
 30
0.0
 11
33852.5
 21
18833.0192305276286788
 31
0.0
  0
LINE
  5
3DAA4
  8
UL1
 10
34352.5
 20
19813.0192305276286788
 30
0.0
 11
36672.5
 21
20363.0192305276286788
 31
0.0
  0
LINE
  5
3DAA5
  8
UL1
 10
34352.5
 20
19383.0192305276286788
 30
0.0
 11
36672.5
 21
18833.0192305276286788
 31
0.0
  0
LINE
  5
3DAA6
  8
UL1
 10
33852.5
 20
15536.0410367590902752
 30
0.0
 11
33852.5
 21
15006.0410367590902752
 31
0.0
  0
LINE
  5
3DAA7
  8
UL1
 10
36972.5
 20
20363.0192305276286788
 30
0.0
 11
36972.5
 21
18833.0192305276286788
 31
0.0
  0
LINE
  5
3DAA8
  8
UL1
 10
37472.5
 20
20363.0192305276286788
 30
0.0
 11
37472.5
 21
18833.0192305276286788
 31
0.0
  0
LINE
  5
3DAA9
  8
UL1
 10
37472.5
 20
15536.0410367590902752
 30
0.0
 11
37472.5
 21
15006.0410367590902752
 31
0.0
  0
LINE
  5
3DAAC
  8
UL1
 10
33852.5
 20
15536.0410367590902752
 30
0.0
 11
37472.5
 21
15536.0410367590902752
 31
0.0
  0
LINE
  5
3DAAD
  8
UL1
 10
37472.5
 20
15006.0410367590902752
 30
0.0
 11
33852.5
 21
15006.0410367590902752
 31
0.0
  0
TEXT
  5
3DB53
  8
SCALE
 10
35335.8333333333430346
 20
18254.6225795925383864
 30
0.0
 40
200.0
  1
平面図
 72
     4
 11
35662.5
 21
18347.955912925870507
 31
0.0
  0
TEXT
  5
3DB54
  8
SCALE
 10
35335.8333333333430346
 20
13983.9703838745008397
 30
0.0
 40
200.0
  1
断面図
 72
     4
 11
35662.5
 21
14083.9703838745008397
 31
0.0
  0
LINE
  5
3DF57
  8
SCALE
 10
4408.9105951267119963
 20
15288.5410367590902752
 30
0.0
 11
4408.9105951267119963
 21
15188.5410367590902752
 31
0.0
  0
LINE
  5
3E03E
  8
SCALE
 10
36972.5
 20
20463.0192305276286788
 30
0.0
 11
36972.5
 21
21062.0682212532410631
 31
0.0
  0
TEXT
  5
3E25C
  8
SCALE
 10
29042.6413786299490312
 20
26595.5579263119107054
 30
0.0
 40
500.0
  1
用途例：特殊系統
  0
TEXT
  5
3E25D
  8
SCALE
 10
29042.6413786299490312
 20
25480.7211221088182356
 30
0.0
 40
500.0
  1
使用圧力：大気圧
  0
TEXT
  5
3E25E
  8
SCALE
 10
29042.6413786299490312
 20
24375.7230761092687317
 30
0.0
 40
500.0
  1
フレキ：硬質塩ビ
  0
LINE
  5
3F15F
  8
SCALE
 10
3797.5
 20
20353.0192305276286788
 30
0.0
 11
3797.5
 21
21043.0192305276286788
 31
0.0
  0
LINE
  5
3F160
  8
SCALE
 10
4297.5
 20
19853.0192305276286788
 30
0.0
 11
4297.5
 21
21043.0192305276286788
 31
0.0
  0
LINE
  5
3F161
  8
SCALE
 10
3897.5
 20
20953.0192305276286788
 30
0.0
 11
4197.5
 21
20953.0192305276286788
 31
0.0
  0
LINE
  5
3F165
  8
SCALE
 10
6577.5
 20
20260.8315276306602755
 30
0.0
 11
6577.5
 21
21043.0192305276214029
 31
0.0
  0
LINE
  5
3F166
  8
SCALE
 10
4297.5
 20
19853.0192305276214029
 30
0.0
 11
4297.5
 21
21043.0192305276214029
 31
0.0
  0
LINE
  5
3F167
  8
SCALE
 10
6477.5
 20
20953.0192305276214029
 30
0.0
 11
4397.4999999999990905
 21
20953.0192305276214029
 31
0.0
  0
LINE
  5
3F16B
  8
SCALE
 10
7077.5
 20
20353.0192305276286788
 30
0.0
 11
7077.5
 21
21043.0192305276214029
 31
0.0
  0
LINE
  5
3F16C
  8
SCALE
 10
6577.5
 20
20260.8315276306602755
 30
0.0
 11
6577.5
 21
21043.0192305276214029
 31
0.0
  0
LINE
  5
3F16D
  8
SCALE
 10
6977.5
 20
20953.0192305276214029
 30
0.0
 11
6677.5000000000009095
 21
20953.0192305276214029
 31
0.0
  0
LINE
  5
3F171
  8
SCALE
 10
6577.5
 20
20353.0192305276286788
 30
0.0
 11
6577.5
 21
20693.0192305276214029
 31
0.0
  0
LINE
  5
3F172
  8
SCALE
 10
6400.5
 20
20353.0192305276286788
 30
0.0
 11
6400.5
 21
20693.0192305276214029
 31
0.0
  0
LINE
  5
3F173
  8
SCALE
 10
6677.5000000000009095
 20
20603.0192305276214029
 30
0.0
 11
6777.5
 21
20603.0192305276214029
 31
0.0
  0
LINE
  5
3F174
  8
SCALE
 10
6300.5
 20
20603.0192305276214029
 30
0.0
 11
6200.5
 21
20603.0192305276214029
 31
0.0
  0
LINE
  5
3F175
  8
SCALE
 10
6577.5
 20
20603.0192305276214029
 30
0.0
 11
6400.5
 21
20603.0192305276214029
 31
0.0
  0
LINE
  5
3F179
  8
SCALE
 10
3697.500000000001819
 20
20253.0192305276395928
 30
0.0
 11
3107.5000000000190994
 21
20253.0192305276395928
 31
0.0
  0
LINE
  5
3F17A
  8
SCALE
 10
4165.0600000000031287
 20
19598.0192305276286788
 30
0.0
 11
3107.5000000000190994
 21
19598.0192305276286788
 31
0.0
  0
LINE
  5
3F17B
  8
SCALE
 10
3197.5000000000181899
 20
20153.0192305276395928
 30
0.0
 11
3197.5000000000181899
 21
19698.0192305276286788
 31
0.0
  0
LINE
  5
3F17F
  8
SCALE
 10
4165.0600000000031287
 20
19598.0192305276286788
 30
0.0
 11
3107.5000000000241016
 21
19598.0192305276286788
 31
0.0
  0
LINE
  5
3F180
  8
SCALE
 10
3697.500000000001819
 20
18943.0192305276286788
 30
0.0
 11
3107.5000000000241016
 21
18943.0192305276286788
 31
0.0
  0
LINE
  5
3F181
  8
SCALE
 10
3197.5000000000241016
 20
19498.0192305276286788
 30
0.0
 11
3197.5000000000250111
 21
19043.0192305276286788
 31
0.0
  0
LINE
  5
3F185
  8
SCALE
 10
4197.5000000000009095
 20
19443.0192305276286788
 30
0.0
 11
3457.5000000000400178
 21
19443.0192305276286788
 31
0.0
  0
LINE
  5
3F186
  8
SCALE
 10
4197.5000000000009095
 20
19753.0192305276286788
 30
0.0
 11
3457.5000000000391083
 21
19753.0192305276286788
 31
0.0
  0
LINE
  5
3F187
  8
SCALE
 10
3547.5000000000400178
 20
19543.0192305276286788
 30
0.0
 11
3547.5000000000400178
 21
19653.0192305276395928
 31
0.0
  0
LINE
  5
3F18B
  8
SCALE
 10
13847.5
 20
20373.0192305276286788
 30
0.0
 11
13847.5
 21
21063.0192305276286788
 31
0.0
  0
LINE
  5
3F18C
  8
SCALE
 10
14347.5
 20
19873.0192305276286788
 30
0.0
 11
14347.5
 21
21063.0192305276286788
 31
0.0
  0
LINE
  5
3F18D
  8
SCALE
 10
13947.5
 20
20973.0192305276286788
 30
0.0
 11
14247.5
 21
20973.0192305276286788
 31
0.0
  0
LINE
  5
3F191
  8
SCALE
 10
16677.5
 20
20373.0192305276286788
 30
0.0
 11
16677.5
 21
21063.0192305276286788
 31
0.0
  0
LINE
  5
3F192
  8
SCALE
 10
14347.5
 20
19873.0192305276286788
 30
0.0
 11
14347.5
 21
21063.0192305276286788
 31
0.0
  0
LINE
  5
3F193
  8
SCALE
 10
16577.5
 20
20973.0192305276286788
 30
0.0
 11
14447.5
 21
20973.0192305276286788
 31
0.0
  0
LINE
  5
3F197
  8
SCALE
 10
17177.5
 20
20373.0192305276286788
 30
0.0
 11
17177.5
 21
21063.0192305276286788
 31
0.0
  0
LINE
  5
3F198
  8
SCALE
 10
16677.5
 20
20373.0192305276286788
 30
0.0
 11
16677.5
 21
21063.0192305276286788
 31
0.0
  0
LINE
  5
3F199
  8
SCALE
 10
17077.5
 20
20973.0192305276286788
 30
0.0
 11
16777.5
 21
20973.0192305276286788
 31
0.0
  0
LINE
  5
3F19D
  8
SCALE
 10
16677.5
 20
20373.0192305276286788
 30
0.0
 11
16677.5
 21
20713.0192305276214029
 31
0.0
  0
LINE
  5
3F19E
  8
SCALE
 10
16479.5
 20
20373.0192305276286788
 30
0.0
 11
16479.5
 21
20713.0192305276214029
 31
0.0
  0
LINE
  5
3F19F
  8
SCALE
 10
16777.5
 20
20623.0192305276214029
 30
0.0
 11
16877.5
 21
20623.0192305276214029
 31
0.0
  0
LINE
  5
3F1A0
  8
SCALE
 10
16379.5
 20
20623.0192305276214029
 30
0.0
 11
16279.5
 21
20623.0192305276214029
 31
0.0
  0
LINE
  5
3F1A1
  8
SCALE
 10
16677.5
 20
20623.0192305276214029
 30
0.0
 11
16479.5
 21
20623.0192305276214029
 31
0.0
  0
LINE
  5
3F1A5
  8
SCALE
 10
13747.5000000000090949
 20
20273.0192305276395928
 30
0.0
 11
13157.5000000000691216
 21
20273.0192305276395928
 31
0.0
  0
LINE
  5
3F1A6
  8
SCALE
 10
14225.6600000000107684
 20
19598.0192305276286788
 30
0.0
 11
13157.5000000000691216
 21
19598.0192305276286788
 31
0.0
  0
LINE
  5
3F1A7
  8
SCALE
 10
13247.5000000000691216
 20
20173.0192305276395928
 30
0.0
 11
13247.5000000000691216
 21
19698.0192305276286788
 31
0.0
  0
LINE
  5
3F1AB
  8
SCALE
 10
14225.6599999999998545
 20
19598.0192305276286788
 30
0.0
 11
13157.5000000000891305
 21
19598.0192305276286788
 31
0.0
  0
LINE
  5
3F1AC
  8
SCALE
 10
13747.5000000000090949
 20
18923.0192305276286788
 30
0.0
 11
13157.5000000000891305
 21
18923.0192305276286788
 31
0.0
  0
LINE
  5
3F1AD
  8
SCALE
 10
13247.5000000000891305
 20
19498.0192305276286788
 30
0.0
 11
13247.5000000000891305
 21
19023.0192305276286788
 31
0.0
  0
LINE
  5
3F1B1
  8
SCALE
 10
14247.5000000000090949
 20
19423.0192305276286788
 30
0.0
 11
13657.5000000000600267
 21
19423.0192305276286788
 31
0.0
  0
LINE
  5
3F1B2
  8
SCALE
 10
14247.5000000000090949
 20
19773.0192305276286788
 30
0.0
 11
13657.5000000000600267
 21
19773.0192305276286788
 31
0.0
  0
LINE
  5
3F1B3
  8
SCALE
 10
13747.5000000000600267
 20
19523.0192305276286788
 30
0.0
 11
13747.5000000000600267
 21
19673.0192305276286788
 31
0.0
  0
LINE
  5
3F1B7
  8
SCALE
 10
23862.5
 20
20388.0192305276286788
 30
0.0
 11
23862.5
 21
21078.0192305276286788
 31
0.0
  0
LINE
  5
3F1B8
  8
SCALE
 10
24362.5
 20
19888.0192305276286788
 30
0.0
 11
24362.5
 21
21078.0192305276286788
 31
0.0
  0
LINE
  5
3F1B9
  8
SCALE
 10
23962.5
 20
20988.0192305276286788
 30
0.0
 11
24262.5
 21
20988.0192305276286788
 31
0.0
  0
LINE
  5
3F1BD
  8
SCALE
 10
26812.5
 20
20388.0192305276286788
 30
0.0
 11
26812.5
 21
21078.0192305276286788
 31
0.0
  0
LINE
  5
3F1BE
  8
SCALE
 10
24362.5
 20
19888.0192305276286788
 30
0.0
 11
24362.5
 21
21078.0192305276286788
 31
0.0
  0
LINE
  5
3F1BF
  8
SCALE
 10
26712.5
 20
20988.0192305276286788
 30
0.0
 11
24462.5
 21
20988.0192305276286788
 31
0.0
  0
LINE
  5
3F1C3
  8
SCALE
 10
27312.5
 20
20388.0192305276286788
 30
0.0
 11
27312.5
 21
21078.0192305276286788
 31
0.0
  0
LINE
  5
3F1C4
  8
SCALE
 10
26812.5
 20
20388.0192305276286788
 30
0.0
 11
26812.5
 21
21078.0192305276286788
 31
0.0
  0
LINE
  5
3F1C5
  8
SCALE
 10
27212.5
 20
20988.0192305276286788
 30
0.0
 11
26912.5
 21
20988.0192305276286788
 31
0.0
  0
LINE
  5
3F1C9
  8
SCALE
 10
26572.5
 20
20388.0192305276286788
 30
0.0
 11
26572.5
 21
20728.0192305276286788
 31
0.0
  0
LINE
  5
3F1CA
  8
SCALE
 10
26812.5
 20
20388.0192305276286788
 30
0.0
 11
26812.5
 21
20728.0192305276286788
 31
0.0
  0
LINE
  5
3F1CB
  8
SCALE
 10
26672.5
 20
20638.0192305276286788
 30
0.0
 11
26712.5
 21
20638.0192305276286788
 31
0.0
  0
LINE
  5
3F1CF
  8
SCALE
 10
23762.5000000000109139
 20
20288.0192305276395928
 30
0.0
 11
23172.5000000000800355
 21
20288.0192305276395928
 31
0.0
  0
LINE
  5
3F1D0
  8
SCALE
 10
24227.7300000000104774
 20
19598.0192305276286788
 30
0.0
 11
23172.5000000000800355
 21
19598.0192305276286788
 31
0.0
  0
LINE
  5
3F1D1
  8
SCALE
 10
23262.5000000000691216
 20
20188.0192305276395928
 30
0.0
 11
23262.5000000000691216
 21
19698.0192305276286788
 31
0.0
  0
LINE
  5
3F1D5
  8
SCALE
 10
24227.7300000000104774
 20
19598.0192305276286788
 30
0.0
 11
23172.5000000000909495
 21
19598.0192305276286788
 31
0.0
  0
LINE
  5
3F1D6
  8
SCALE
 10
23762.5000000000109139
 20
18908.0192305276286788
 30
0.0
 11
23172.5000000000909495
 21
18908.0192305276286788
 31
0.0
  0
LINE
  5
3F1D7
  8
SCALE
 10
23262.5000000000982254
 20
19498.0192305276286788
 30
0.0
 11
23262.5000000000982254
 21
19008.0192305276395928
 31
0.0
  0
LINE
  5
3F1DB
  8
SCALE
 10
24262.5000000000109139
 20
19408.0192305276286788
 30
0.0
 11
23522.5000000001309672
 21
19408.0192305276286788
 31
0.0
  0
LINE
  5
3F1DC
  8
SCALE
 10
24262.5000000000109139
 20
19788.0192305276286788
 30
0.0
 11
23522.5000000001309672
 21
19788.0192305276286788
 31
0.0
  0
LINE
  5
3F1DD
  8
SCALE
 10
23612.5000000001309672
 20
19508.0192305276395928
 30
0.0
 11
23612.5000000001309672
 21
19688.0192305276286788
 31
0.0
  0
LINE
  5
3F1E1
  8
SCALE
 10
33852.5
 20
20463.0192305276286788
 30
0.0
 11
33852.5
 21
21153.0192305276286788
 31
0.0
  0
LINE
  5
3F1E2
  8
SCALE
 10
34352.5
 20
19913.0192305276286788
 30
0.0
 11
34352.5
 21
21153.0192305276286788
 31
0.0
  0
LINE
  5
3F1E3
  8
SCALE
 10
33952.5
 20
21063.0192305276286788
 30
0.0
 11
34252.5
 21
21063.0192305276286788
 31
0.0
  0
LINE
  5
3F1E7
  8
SCALE
 10
36972.5
 20
20463.0192305276286788
 30
0.0
 11
36972.5
 21
21153.0192305276286788
 31
0.0
  0
LINE
  5
3F1E8
  8
SCALE
 10
34352.5
 20
19913.0192305276286788
 30
0.0
 11
34352.5
 21
21153.0192305276286788
 31
0.0
  0
LINE
  5
3F1E9
  8
SCALE
 10
36872.5
 20
21063.0192305276286788
 30
0.0
 11
34452.5
 21
21063.0192305276286788
 31
0.0
  0
LINE
  5
3F1ED
  8
SCALE
 10
37472.5
 20
20463.0192305276286788
 30
0.0
 11
37472.5
 21
21153.0192305276286788
 31
0.0
  0
LINE
  5
3F1EE
  8
SCALE
 10
36972.5
 20
20463.0192305276286788
 30
0.0
 11
36972.5
 21
21153.0192305276286788
 31
0.0
  0
LINE
  5
3F1EF
  8
SCALE
 10
37372.5
 20
21063.0192305276214029
 30
0.0
 11
37072.5
 21
21063.0192305276214029
 31
0.0
  0
LINE
  5
3F1F3
  8
SCALE
 10
36672.5
 20
20463.0192305276286788
 30
0.0
 11
36672.5
 21
20803.0192305276286788
 31
0.0
  0
LINE
  5
3F1F4
  8
SCALE
 10
36972.5
 20
20463.0192305276286788
 30
0.0
 11
36972.5
 21
20803.0192305276286788
 31
0.0
  0
LINE
  5
3F1F5
  8
SCALE
 10
36772.5
 20
20713.0192305276286788
 30
0.0
 11
36872.5
 21
20713.0192305276286788
 31
0.0
  0
LINE
  5
3F1F9
  8
SCALE
 10
33752.5000000000218279
 20
20363.0192305276286788
 30
0.0
 11
33162.5000000001527951
 21
20363.0192305276286788
 31
0.0
  0
LINE
  5
3F1FA
  8
SCALE
 10
34229.540000000022701
 20
19598.0192305276286788
 30
0.0
 11
33162.5000000001527951
 21
19598.0192305276286788
 31
0.0
  0
LINE
  5
3F1FB
  8
SCALE
 10
33252.5000000001527951
 20
20263.0192305276395928
 30
0.0
 11
33252.5000000001527951
 21
19698.0192305276286788
 31
0.0
  0
LINE
  5
3F1FF
  8
SCALE
 10
34229.540000000022701
 20
19598.0192305276286788
 30
0.0
 11
33162.5000000001891749
 21
19598.0192305276286788
 31
0.0
  0
LINE
  5
3F200
  8
SCALE
 10
33752.5000000000218279
 20
18833.0192305276286788
 30
0.0
 11
33162.5000000001891749
 21
18833.0192305276286788
 31
0.0
  0
LINE
  5
3F201
  8
SCALE
 10
33252.5000000001891749
 20
19498.0192305276286788
 30
0.0
 11
33252.5000000001891749
 21
18933.0192305276286788
 31
0.0
  0
LINE
  5
3F205
  8
SCALE
 10
34252.500000000007276
 20
19383.0192305276286788
 30
0.0
 11
33512.5000000002910383
 21
19383.0192305276286788
 31
0.0
  0
LINE
  5
3F206
  8
SCALE
 10
34252.500000000007276
 20
19813.0192305276395928
 30
0.0
 11
33512.5000000002910383
 21
19813.0192305276395928
 31
0.0
  0
LINE
  5
3F207
  8
SCALE
 10
33602.5000000002910383
 20
19483.0192305276286788
 30
0.0
 11
33602.5000000002910383
 21
19713.0192305276286788
 31
0.0
  0
LINE
  5
3F20B
  8
SCALE
 10
4500.5000000000009095
 20
15295.5410367590993701
 30
0.0
 11
3957.0377890609138376
 21
15295.5410367590993701
 31
0.0
  0
LINE
  5
3F20C
  8
SCALE
 10
4165.0600000000031287
 20
15283.5410367590993701
 30
0.0
 11
3957.0377890609138376
 21
15283.5410367590993701
 31
0.0
  0
LINE
  5
3F20D
  8
SCALE
 10
4047.0377890609129281
 20
15395.5410367590993701
 30
0.0
 11
4047.0377890609129281
 21
15495.5410367590993701
 31
0.0
  0
LINE
  5
3F20E
  8
SCALE
 10
4047.0377890609138376
 20
15183.5410367590993701
 30
0.0
 11
4047.0377890609138376
 21
15083.5410367590993701
 31
0.0
  0
LINE
  5
3F210
  8
SCALE
 10
4047.0377890609138376
 20
15295.5410367590993701
 30
0.0
 11
4047.0377890609138376
 21
15283.5410367590993701
 31
0.0
  0
LINE
  5
3F213
  8
SCALE
 10
4415.500000000001819
 20
15388.5410367590993701
 30
0.0
 11
5005.5000000000218279
 21
15388.5410367590993701
 31
0.0
  0
LINE
  5
3F214
  8
SCALE
 10
4415.500000000001819
 20
15488.5410367590993701
 30
0.0
 11
5005.5000000000218279
 21
15488.5410367590993701
 31
0.0
  0
LINE
  5
3F215
  8
SCALE
 10
4915.5000000000218279
 20
15388.5410367590993701
 30
0.0
 11
4915.5000000000218279
 21
15488.5410367590993701
 31
0.0
  0
LINE
  5
3F216
  8
SCALE
 10
4915.5000000000218279
 20
15488.5410367590993701
 30
0.0
 11
4915.5000000000218279
 21
15738.5410367590993701
 31
0.0
  0
LINE
  5
3F21A
  8
SCALE
 10
4415.500000000001819
 20
15178.5410367590993701
 30
0.0
 11
5005.5000000000309228
 21
15178.5410367590993701
 31
0.0
  0
LINE
  5
3F21B
  8
SCALE
 10
4415.500000000001819
 20
15078.5410367590993701
 30
0.0
 11
5005.5000000000309228
 21
15078.5410367590993701
 31
0.0
  0
LINE
  5
3F21C
  8
SCALE
 10
4915.5000000000309228
 20
15178.5410367590993701
 30
0.0
 11
4915.5000000000309228
 21
15078.5410367590993701
 31
0.0
  0
LINE
  5
3F21D
  8
SCALE
 10
4915.5000000000309228
 20
15078.5410367590993701
 30
0.0
 11
4915.5000000000309228
 21
14828.5410367590993701
 31
0.0
  0
LINE
  5
3F221
  8
SCALE
 10
14580.5
 20
15295.5410367590993701
 30
0.0
 11
14007.0377890609506721
 21
15295.5410367590993701
 31
0.0
  0
LINE
  5
3F222
  8
SCALE
 10
14225.6600000000107684
 20
15284.0410367590993701
 30
0.0
 11
14007.0377890609506721
 21
15284.0410367590993701
 31
0.0
  0
LINE
  5
3F223
  8
SCALE
 10
14097.0377890609506721
 20
15395.5410367590993701
 30
0.0
 11
14097.0377890609506721
 21
15495.5410367590993701
 31
0.0
  0
LINE
  5
3F224
  8
SCALE
 10
14097.0377890609506721
 20
15184.0410367590993701
 30
0.0
 11
14097.0377890609506721
 21
15084.0410367590993701
 31
0.0
  0
LINE
  5
3F226
  8
SCALE
 10
14097.0377890609506721
 20
15295.5410367590993701
 30
0.0
 11
14097.0377890609506721
 21
15284.0410367590993701
 31
0.0
  0
LINE
  5
3F229
  8
SCALE
 10
14465.5000000000090949
 20
15409.0410367590993701
 30
0.0
 11
15055.5000000000400178
 21
15409.0410367590993701
 31
0.0
  0
LINE
  5
3F22A
  8
SCALE
 10
14465.5000000000090949
 20
15509.0410367590993701
 30
0.0
 11
15055.5000000000400178
 21
15509.0410367590993701
 31
0.0
  0
LINE
  5
3F22B
  8
SCALE
 10
14965.5000000000400178
 20
15409.0410367590993701
 30
0.0
 11
14965.5000000000400178
 21
15509.0410367590993701
 31
0.0
  0
LINE
  5
3F22C
  8
SCALE
 10
14965.5000000000400178
 20
15509.0410367590993701
 30
0.0
 11
14965.5000000000400178
 21
15759.0410367590993701
 31
0.0
  0
LINE
  5
3F230
  8
SCALE
 10
14467.5000000000090949
 20
15159.0410367590993701
 30
0.0
 11
15055.5000000000600267
 21
15159.0410367590993701
 31
0.0
  0
LINE
  5
3F231
  8
SCALE
 10
14465.5000000000090949
 20
15059.0410367590993701
 30
0.0
 11
15055.5000000000600267
 21
15059.0410367590993701
 31
0.0
  0
LINE
  5
3F232
  8
SCALE
 10
14965.5000000000600267
 20
15159.0410367590993701
 30
0.0
 11
14965.5000000000600267
 21
15059.0410367590993701
 31
0.0
  0
LINE
  5
3F233
  8
SCALE
 10
14965.5000000000600267
 20
15059.0410367590993701
 30
0.0
 11
14965.5000000000600267
 21
14809.0410367590993701
 31
0.0
  0
LINE
  5
3F237
  8
SCALE
 10
24672.5000000000181899
 20
15295.5410367590993701
 30
0.0
 11
24022.0377890609488531
 21
15295.5410367590993701
 31
0.0
  0
LINE
  5
3F238
  8
SCALE
 10
24227.7300000000104774
 20
15271.5410367590993701
 30
0.0
 11
24022.0377890609488531
 21
15271.5410367590993701
 31
0.0
  0
LINE
  5
3F239
  8
SCALE
 10
24112.0377890609488531
 20
15395.5410367590993701
 30
0.0
 11
24112.0377890609488531
 21
15495.5410367590993701
 31
0.0
  0
LINE
  5
3F23A
  8
SCALE
 10
24112.0377890609488531
 20
15171.5410367590993701
 30
0.0
 11
24112.0377890609488531
 21
15071.5410367590993701
 31
0.0
  0
LINE
  5
3F23C
  8
SCALE
 10
24112.0377890609488531
 20
15295.5410367590993701
 30
0.0
 11
24112.0377890609488531
 21
15271.5410367590993701
 31
0.0
  0
LINE
  5
3F23F
  8
SCALE
 10
24480.5000000000109139
 20
15411.5410367590993701
 30
0.0
 11
25070.5000000000691216
 21
15411.5410367590993701
 31
0.0
  0
LINE
  5
3F240
  8
SCALE
 10
24480.5000000000109139
 20
15511.5410367590993701
 30
0.0
 11
25070.5000000000691216
 21
15511.5410367590993701
 31
0.0
  0
LINE
  5
3F241
  8
SCALE
 10
24980.5000000000691216
 20
15411.5410367590993701
 30
0.0
 11
24980.5000000000691216
 21
15511.5410367590993701
 31
0.0
  0
LINE
  5
3F242
  8
SCALE
 10
24980.5000000000691216
 20
15511.5410367590993701
 30
0.0
 11
24980.5000000000691216
 21
15761.5410367590993701
 31
0.0
  0
LINE
  5
3F246
  8
SCALE
 10
24484.5000000000109139
 20
15131.5410367590993701
 30
0.0
 11
25070.5000000000982254
 21
15131.5410367590993701
 31
0.0
  0
LINE
  5
3F247
  8
SCALE
 10
24480.5000000000109139
 20
15031.5410367590993701
 30
0.0
 11
25070.5000000000982254
 21
15031.5410367590993701
 31
0.0
  0
LINE
  5
3F248
  8
SCALE
 10
24980.5000000000982254
 20
15131.5410367590993701
 30
0.0
 11
24980.5000000000982254
 21
15031.5410367590993701
 31
0.0
  0
LINE
  5
3F249
  8
SCALE
 10
24980.5000000000982254
 20
15031.5410367590993701
 30
0.0
 11
24980.5000000000982254
 21
14781.5410367590993701
 31
0.0
  0
LINE
  5
3F24D
  8
SCALE
 10
34772.500000000007276
 20
15295.5410367590993701
 30
0.0
 11
34012.037789060981595
 21
15295.5410367590993701
 31
0.0
  0
LINE
  5
3F24E
  8
SCALE
 10
34229.540000000022701
 20
15271.0410367590993701
 30
0.0
 11
34012.037789060981595
 21
15271.0410367590993701
 31
0.0
  0
LINE
  5
3F24F
  8
SCALE
 10
34102.037789060981595
 20
15395.5410367590993701
 30
0.0
 11
34102.037789060981595
 21
15495.5410367590993701
 31
0.0
  0
LINE
  5
3F250
  8
SCALE
 10
34102.037789060981595
 20
15171.0410367590993701
 30
0.0
 11
34102.037789060981595
 21
15071.0410367590993701
 31
0.0
  0
LINE
  5
3F252
  8
SCALE
 10
34102.037789060981595
 20
15295.5410367590993701
 30
0.0
 11
34102.037789060981595
 21
15271.0410367590993701
 31
0.0
  0
LINE
  5
3F255
  8
SCALE
 10
34470.5000000000218279
 20
15436.0410367590993701
 30
0.0
 11
35060.5000000000727596
 21
15436.0410367590993701
 31
0.0
  0
LINE
  5
3F256
  8
SCALE
 10
34470.5000000000218279
 20
15536.0410367590993701
 30
0.0
 11
35060.5000000000727596
 21
15536.0410367590993701
 31
0.0
  0
LINE
  5
3F257
  8
SCALE
 10
34970.5000000000727596
 20
15436.0410367590993701
 30
0.0
 11
34970.5000000000727596
 21
15536.0410367590993701
 31
0.0
  0
LINE
  5
3F258
  8
SCALE
 10
34970.5000000000727596
 20
15536.0410367590993701
 30
0.0
 11
34970.5000000000727596
 21
15786.0410367590993701
 31
0.0
  0
LINE
  5
3F25C
  8
SCALE
 10
34474.5000000000218279
 20
15106.0410367590993701
 30
0.0
 11
35060.5000000001309672
 21
15106.0410367590993701
 31
0.0
  0
LINE
  5
3F25D
  8
SCALE
 10
34470.5000000000218279
 20
15006.0410367590993701
 30
0.0
 11
35060.5000000001309672
 21
15006.0410367590993701
 31
0.0
  0
LINE
  5
3F25E
  8
SCALE
 10
34970.5000000001309672
 20
15106.0410367590993701
 30
0.0
 11
34970.5000000001309672
 21
15006.0410367590993701
 31
0.0
  0
LINE
  5
3F25F
  8
SCALE
 10
34970.5000000001309672
 20
15006.0410367590993701
 30
0.0
 11
34970.5000000001309672
 21
14756.0410367590993701
 31
0.0
  0
LINE
  5
3F263
  8
0
 10
3797.5
 20
20953.0192305276286788
 30
0.0
 11
3897.5
 21
20979.8141497707401868
 31
0.0
  0
LINE
  5
3F264
  8
0
 10
3797.5
 20
20953.0192305276286788
 30
0.0
 11
3897.5
 21
20926.2243112845208088
 31
0.0
  0
LINE
  5
3F265
  8
0
 10
3897.5
 20
20953.0192305276286788
 30
0.0
 11
3797.5
 21
20953.0192305276286788
 31
0.0
  0
LINE
  5
3F266
  8
0
 10
4297.5
 20
20953.0192305276286788
 30
0.0
 11
4197.5
 21
20926.2243112845208088
 31
0.0
  0
LINE
  5
3F267
  8
0
 10
4297.5
 20
20953.0192305276286788
 30
0.0
 11
4197.5
 21
20979.8141497707401868
 31
0.0
  0
LINE
  5
3F268
  8
0
 10
4197.5
 20
20953.0192305276286788
 30
0.0
 11
4297.5
 21
20953.0192305276286788
 31
0.0
  0
TEXT
  5
3F269
  8
SCALE
 10
3960.0
 20
20990.5192305276286788
 30
0.0
 40
75.0
  1
500
  0
LINE
  5
3F26A
  8
0
 10
6577.5
 20
20953.0192305276214029
 30
0.0
 11
6477.5
 21
20926.2243112845098949
 31
0.0
  0
LINE
  5
3F26B
  8
0
 10
6577.5
 20
20953.0192305276214029
 30
0.0
 11
6477.5
 21
20979.8141497707292729
 31
0.0
  0
LINE
  5
3F26C
  8
0
 10
6477.5
 20
20953.0192305276214029
 30
0.0
 11
6577.5
 21
20953.0192305276214029
 31
0.0
  0
LINE
  5
3F26D
  8
0
 10
4297.5
 20
20953.0192305276214029
 30
0.0
 11
4397.4999999999990905
 21
20979.8141497707292729
 31
0.0
  0
LINE
  5
3F26E
  8
0
 10
4297.5
 20
20953.0192305276214029
 30
0.0
 11
4397.4999999999990905
 21
20926.2243112845098949
 31
0.0
  0
LINE
  5
3F26F
  8
0
 10
4397.4999999999990905
 20
20953.0192305276214029
 30
0.0
 11
4297.5
 21
20953.0192305276214029
 31
0.0
  0
TEXT
  5
3F270
  8
SCALE
 10
5113.75
 20
20990.5192305276214029
 30
0.0
 40
75.0
  1
取付面間:2280
  0
LINE
  5
3F271
  8
0
 10
7077.5
 20
20953.0192305276214029
 30
0.0
 11
6977.5
 21
20926.2243112845098949
 31
0.0
  0
LINE
  5
3F272
  8
0
 10
7077.5
 20
20953.0192305276214029
 30
0.0
 11
6977.5
 21
20979.8141497707292729
 31
0.0
  0
LINE
  5
3F273
  8
0
 10
6977.5
 20
20953.0192305276214029
 30
0.0
 11
7077.5
 21
20953.0192305276214029
 31
0.0
  0
LINE
  5
3F274
  8
0
 10
6577.5
 20
20953.0192305276214029
 30
0.0
 11
6677.5000000000009095
 21
20979.8141497707292729
 31
0.0
  0
LINE
  5
3F275
  8
0
 10
6577.5
 20
20953.0192305276214029
 30
0.0
 11
6677.5000000000009095
 21
20926.2243112845098949
 31
0.0
  0
LINE
  5
3F276
  8
0
 10
6677.5000000000009095
 20
20953.0192305276214029
 30
0.0
 11
6577.5
 21
20953.0192305276214029
 31
0.0
  0
TEXT
  5
3F277
  8
SCALE
 10
6740.0
 20
20990.5192305276214029
 30
0.0
 40
75.0
  1
500
  0
LINE
  5
3F278
  8
0
 10
6577.5
 20
20603.0192305276214029
 30
0.0
 11
6677.5000000000009095
 21
20629.8141497707292729
 31
0.0
  0
LINE
  5
3F279
  8
0
 10
6577.5
 20
20603.0192305276214029
 30
0.0
 11
6677.5000000000009095
 21
20576.2243112845098949
 31
0.0
  0
LINE
  5
3F27A
  8
0
 10
6677.5000000000009095
 20
20603.0192305276214029
 30
0.0
 11
6577.5
 21
20603.0192305276214029
 31
0.0
  0
LINE
  5
3F27B
  8
0
 10
6400.5
 20
20603.0192305276214029
 30
0.0
 11
6300.5
 21
20576.2243112845098949
 31
0.0
  0
LINE
  5
3F27C
  8
0
 10
6400.5
 20
20603.0192305276214029
 30
0.0
 11
6300.5
 21
20629.8141497707292729
 31
0.0
  0
LINE
  5
3F27D
  8
0
 10
6300.5
 20
20603.0192305276214029
 30
0.0
 11
6400.5
 21
20603.0192305276214029
 31
0.0
  0
TEXT
  5
3F27E
  8
SCALE
 10
6401.5
 20
20640.5192305276214029
 30
0.0
 40
75.0
  1
177
  0
LINE
  5
3F27F
  8
0
 10
3197.5000000000181899
 20
20253.0192305276395928
 30
0.0
 11
3224.2949192431287884
 21
20153.0192305276395928
 31
0.0
  0
LINE
  5
3F280
  8
0
 10
3197.5000000000181899
 20
20253.0192305276395928
 30
0.0
 11
3170.7050807569089557
 21
20153.0192305276395928
 31
0.0
  0
LINE
  5
3F281
  8
0
 10
3197.5000000000181899
 20
20153.0192305276395928
 30
0.0
 11
3197.5000000000181899
 21
20253.0192305276395928
 31
0.0
  0
LINE
  5
3F282
  8
0
 10
3197.5000000000181899
 20
19598.0192305276286788
 30
0.0
 11
3170.7050807569089557
 21
19698.0192305276286788
 31
0.0
  0
LINE
  5
3F283
  8
0
 10
3197.5000000000181899
 20
19598.0192305276286788
 30
0.0
 11
3224.2949192431287884
 21
19698.0192305276286788
 31
0.0
  0
LINE
  5
3F284
  8
0
 10
3197.5000000000181899
 20
19698.0192305276286788
 30
0.0
 11
3197.5000000000181899
 21
19598.0192305276286788
 31
0.0
  0
TEXT
  5
3F285
  8
SCALE
 10
3160.0000000000231921
 20
19825.5192305276286788
 30
0.0
 40
75.0
  1
655
 50
90.0
  0
LINE
  5
3F286
  8
0
 10
3197.5000000000241016
 20
19598.0192305276286788
 30
0.0
 11
3224.2949192431337906
 21
19498.0192305276286788
 31
0.0
  0
LINE
  5
3F287
  8
0
 10
3197.5000000000241016
 20
19598.0192305276286788
 30
0.0
 11
3170.7050807569139579
 21
19498.0192305276286788
 31
0.0
  0
LINE
  5
3F288
  8
0
 10
3197.5000000000241016
 20
19498.0192305276286788
 30
0.0
 11
3197.5000000000241016
 21
19598.0192305276286788
 31
0.0
  0
LINE
  5
3F289
  8
0
 10
3197.5000000000250111
 20
18943.0192305276286788
 30
0.0
 11
3170.7050807569139579
 21
19043.0192305276286788
 31
0.0
  0
LINE
  5
3F28A
  8
0
 10
3197.5000000000250111
 20
18943.0192305276286788
 30
0.0
 11
3224.2949192431351548
 21
19043.0192305276286788
 31
0.0
  0
LINE
  5
3F28B
  8
0
 10
3197.5000000000250111
 20
19043.0192305276286788
 30
0.0
 11
3197.5000000000250111
 21
18943.0192305276286788
 31
0.0
  0
TEXT
  5
3F28C
  8
SCALE
 10
3160.0000000000291038
 20
19170.5192305276286788
 30
0.0
 40
75.0
  1
655
 50
90.0
  0
LINE
  5
3F28D
  8
0
 10
3547.5000000000400178
 20
19443.0192305276286788
 30
0.0
 11
3520.705080756929874
 21
19543.0192305276286788
 31
0.0
  0
LINE
  5
3F28E
  8
0
 10
3547.5000000000400178
 20
19443.0192305276286788
 30
0.0
 11
3574.294919243151071
 21
19543.0192305276286788
 31
0.0
  0
LINE
  5
3F28F
  8
0
 10
3547.5000000000400178
 20
19543.0192305276286788
 30
0.0
 11
3547.5000000000400178
 21
19443.0192305276286788
 31
0.0
  0
LINE
  5
3F290
  8
0
 10
3547.5000000000400178
 20
19753.0192305276286788
 30
0.0
 11
3574.294919243151071
 21
19653.0192305276395928
 31
0.0
  0
LINE
  5
3F291
  8
0
 10
3547.5000000000400178
 20
19753.0192305276286788
 30
0.0
 11
3520.705080756929874
 21
19653.0192305276395928
 31
0.0
  0
LINE
  5
3F292
  8
0
 10
3547.5000000000400178
 20
19653.0192305276395928
 30
0.0
 11
3547.5000000000400178
 21
19753.0192305276286788
 31
0.0
  0
TEXT
  5
3F293
  8
SCALE
 10
3510.00000000004502
 20
19516.7692305276286788
 30
0.0
 40
75.0
  1
310
 50
90.0
  0
LINE
  5
3F294
  8
0
 10
13847.5
 20
20973.0192305276286788
 30
0.0
 11
13947.5
 21
20999.8141497707401868
 31
0.0
  0
LINE
  5
3F295
  8
0
 10
13847.5
 20
20973.0192305276286788
 30
0.0
 11
13947.5
 21
20946.2243112845208088
 31
0.0
  0
LINE
  5
3F296
  8
0
 10
13947.5
 20
20973.0192305276286788
 30
0.0
 11
13847.5
 21
20973.0192305276286788
 31
0.0
  0
LINE
  5
3F297
  8
0
 10
14347.5
 20
20973.0192305276286788
 30
0.0
 11
14247.5
 21
20946.2243112845208088
 31
0.0
  0
LINE
  5
3F298
  8
0
 10
14347.5
 20
20973.0192305276286788
 30
0.0
 11
14247.5
 21
20999.8141497707401868
 31
0.0
  0
LINE
  5
3F299
  8
0
 10
14247.5
 20
20973.0192305276286788
 30
0.0
 11
14347.5
 21
20973.0192305276286788
 31
0.0
  0
TEXT
  5
3F29A
  8
SCALE
 10
14010.0
 20
21010.5192305276286788
 30
0.0
 40
75.0
  1
500
  0
LINE
  5
3F29B
  8
0
 10
16677.5
 20
20973.0192305276286788
 30
0.0
 11
16577.5
 21
20946.2243112845208088
 31
0.0
  0
LINE
  5
3F29C
  8
0
 10
16677.5
 20
20973.0192305276286788
 30
0.0
 11
16577.5
 21
20999.8141497707401868
 31
0.0
  0
LINE
  5
3F29D
  8
0
 10
16577.5
 20
20973.0192305276286788
 30
0.0
 11
16677.5
 21
20973.0192305276286788
 31
0.0
  0
LINE
  5
3F29E
  8
0
 10
14347.5
 20
20973.0192305276286788
 30
0.0
 11
14447.5
 21
20999.8141497707401868
 31
0.0
  0
LINE
  5
3F29F
  8
0
 10
14347.5
 20
20973.0192305276286788
 30
0.0
 11
14447.5
 21
20946.2243112845208088
 31
0.0
  0
LINE
  5
3F2A0
  8
0
 10
14447.5
 20
20973.0192305276286788
 30
0.0
 11
14347.5
 21
20973.0192305276286788
 31
0.0
  0
TEXT
  5
3F2A1
  8
SCALE
 10
15188.75
 20
21010.5192305276286788
 30
0.0
 40
75.0
  1
取付面間:2330
  0
LINE
  5
3F2A2
  8
0
 10
17177.5
 20
20973.0192305276286788
 30
0.0
 11
17077.5
 21
20946.2243112845208088
 31
0.0
  0
LINE
  5
3F2A3
  8
0
 10
17177.5
 20
20973.0192305276286788
 30
0.0
 11
17077.5
 21
20999.8141497707401868
 31
0.0
  0
LINE
  5
3F2A4
  8
0
 10
17077.5
 20
20973.0192305276286788
 30
0.0
 11
17177.5
 21
20973.0192305276286788
 31
0.0
  0
LINE
  5
3F2A5
  8
0
 10
16677.5
 20
20973.0192305276286788
 30
0.0
 11
16777.5
 21
20999.8141497707401868
 31
0.0
  0
LINE
  5
3F2A6
  8
0
 10
16677.5
 20
20973.0192305276286788
 30
0.0
 11
16777.5
 21
20946.2243112845208088
 31
0.0
  0
LINE
  5
3F2A7
  8
0
 10
16777.5
 20
20973.0192305276286788
 30
0.0
 11
16677.5
 21
20973.0192305276286788
 31
0.0
  0
TEXT
  5
3F2A8
  8
SCALE
 10
16840.0
 20
21010.5192305276286788
 30
0.0
 40
75.0
  1
500
  0
LINE
  5
3F2A9
  8
0
 10
16677.5
 20
20623.0192305276214029
 30
0.0
 11
16777.5
 21
20649.8141497707292729
 31
0.0
  0
LINE
  5
3F2AA
  8
0
 10
16677.5
 20
20623.0192305276214029
 30
0.0
 11
16777.5
 21
20596.2243112845098949
 31
0.0
  0
LINE
  5
3F2AB
  8
0
 10
16777.5
 20
20623.0192305276214029
 30
0.0
 11
16677.5
 21
20623.0192305276214029
 31
0.0
  0
LINE
  5
3F2AC
  8
0
 10
16479.5
 20
20623.0192305276214029
 30
0.0
 11
16379.5
 21
20596.2243112845098949
 31
0.0
  0
LINE
  5
3F2AD
  8
0
 10
16479.5
 20
20623.0192305276214029
 30
0.0
 11
16379.5
 21
20649.8141497707292729
 31
0.0
  0
LINE
  5
3F2AE
  8
0
 10
16379.5
 20
20623.0192305276214029
 30
0.0
 11
16479.5
 21
20623.0192305276214029
 31
0.0
  0
TEXT
  5
3F2AF
  8
SCALE
 10
16491.0
 20
20660.5192305276214029
 30
0.0
 40
75.0
  1
198
  0
LINE
  5
3F2B0
  8
0
 10
13247.5000000000691216
 20
20273.0192305276395928
 30
0.0
 11
13274.2949192431806296
 21
20173.0192305276395928
 31
0.0
  0
LINE
  5
3F2B1
  8
0
 10
13247.5000000000691216
 20
20273.0192305276395928
 30
0.0
 11
13220.7050807569594326
 21
20173.0192305276395928
 31
0.0
  0
LINE
  5
3F2B2
  8
0
 10
13247.5000000000691216
 20
20173.0192305276395928
 30
0.0
 11
13247.5000000000691216
 21
20273.0192305276395928
 31
0.0
  0
LINE
  5
3F2B3
  8
0
 10
13247.5000000000691216
 20
19598.0192305276286788
 30
0.0
 11
13220.7050807569594326
 21
19698.0192305276286788
 31
0.0
  0
LINE
  5
3F2B4
  8
0
 10
13247.5000000000691216
 20
19598.0192305276286788
 30
0.0
 11
13274.2949192431806296
 21
19698.0192305276286788
 31
0.0
  0
LINE
  5
3F2B5
  8
0
 10
13247.5000000000691216
 20
19698.0192305276286788
 30
0.0
 11
13247.5000000000691216
 21
19598.0192305276286788
 31
0.0
  0
TEXT
  5
3F2B6
  8
SCALE
 10
13210.0000000000691216
 20
19835.5192305276286788
 30
0.0
 40
75.0
  1
675
 50
90.0
  0
LINE
  5
3F2B7
  8
0
 10
13247.5000000000891305
 20
19598.0192305276286788
 30
0.0
 11
13274.2949192432006384
 21
19498.0192305276286788
 31
0.0
  0
LINE
  5
3F2B8
  8
0
 10
13247.5000000000891305
 20
19598.0192305276286788
 30
0.0
 11
13220.7050807569794415
 21
19498.0192305276286788
 31
0.0
  0
LINE
  5
3F2B9
  8
0
 10
13247.5000000000891305
 20
19498.0192305276286788
 30
0.0
 11
13247.5000000000891305
 21
19598.0192305276286788
 31
0.0
  0
LINE
  5
3F2BA
  8
0
 10
13247.5000000000891305
 20
18923.0192305276286788
 30
0.0
 11
13220.7050807569794415
 21
19023.0192305276286788
 31
0.0
  0
LINE
  5
3F2BB
  8
0
 10
13247.5000000000891305
 20
18923.0192305276286788
 30
0.0
 11
13274.2949192432006384
 21
19023.0192305276286788
 31
0.0
  0
LINE
  5
3F2BC
  8
0
 10
13247.5000000000891305
 20
19023.0192305276286788
 30
0.0
 11
13247.5000000000891305
 21
18923.0192305276286788
 31
0.0
  0
TEXT
  5
3F2BD
  8
SCALE
 10
13210.0000000000891305
 20
19160.5192305276286788
 30
0.0
 40
75.0
  1
675
 50
90.0
  0
LINE
  5
3F2BE
  8
0
 10
13747.5000000000600267
 20
19423.0192305276286788
 30
0.0
 11
13720.7050807569503377
 21
19523.0192305276286788
 31
0.0
  0
LINE
  5
3F2BF
  8
0
 10
13747.5000000000600267
 20
19423.0192305276286788
 30
0.0
 11
13774.2949192431697156
 21
19523.0192305276286788
 31
0.0
  0
LINE
  5
3F2C0
  8
0
 10
13747.5000000000600267
 20
19523.0192305276286788
 30
0.0
 11
13747.5000000000600267
 21
19423.0192305276286788
 31
0.0
  0
LINE
  5
3F2C1
  8
0
 10
13747.5000000000600267
 20
19773.0192305276286788
 30
0.0
 11
13774.2949192431697156
 21
19673.0192305276286788
 31
0.0
  0
LINE
  5
3F2C2
  8
0
 10
13747.5000000000600267
 20
19773.0192305276286788
 30
0.0
 11
13720.7050807569503377
 21
19673.0192305276286788
 31
0.0
  0
LINE
  5
3F2C3
  8
0
 10
13747.5000000000600267
 20
19673.0192305276286788
 30
0.0
 11
13747.5000000000600267
 21
19773.0192305276286788
 31
0.0
  0
TEXT
  5
3F2C4
  8
SCALE
 10
13710.0000000000691216
 20
19504.2692305276286788
 30
0.0
 40
75.0
  1
350
 50
90.0
  0
LINE
  5
3F2C5
  8
0
 10
23862.5
 20
20988.0192305276286788
 30
0.0
 11
23962.5
 21
21014.8141497707401868
 31
0.0
  0
LINE
  5
3F2C6
  8
0
 10
23862.5
 20
20988.0192305276286788
 30
0.0
 11
23962.5
 21
20961.2243112845208088
 31
0.0
  0
LINE
  5
3F2C7
  8
0
 10
23962.5
 20
20988.0192305276286788
 30
0.0
 11
23862.5
 21
20988.0192305276286788
 31
0.0
  0
LINE
  5
3F2C8
  8
0
 10
24362.5
 20
20988.0192305276286788
 30
0.0
 11
24262.5
 21
20961.2243112845208088
 31
0.0
  0
LINE
  5
3F2C9
  8
0
 10
24362.5
 20
20988.0192305276286788
 30
0.0
 11
24262.5
 21
21014.8141497707401868
 31
0.0
  0
LINE
  5
3F2CA
  8
0
 10
24262.5
 20
20988.0192305276286788
 30
0.0
 11
24362.5
 21
20988.0192305276286788
 31
0.0
  0
TEXT
  5
3F2CB
  8
SCALE
 10
24025.0
 20
21025.5192305276286788
 30
0.0
 40
75.0
  1
500
  0
LINE
  5
3F2CC
  8
0
 10
26812.5
 20
20988.0192305276286788
 30
0.0
 11
26712.5
 21
20961.2243112845208088
 31
0.0
  0
LINE
  5
3F2CD
  8
0
 10
26812.5
 20
20988.0192305276286788
 30
0.0
 11
26712.5
 21
21014.8141497707401868
 31
0.0
  0
LINE
  5
3F2CE
  8
0
 10
26712.5
 20
20988.0192305276286788
 30
0.0
 11
26812.5
 21
20988.0192305276286788
 31
0.0
  0
LINE
  5
3F2CF
  8
0
 10
24362.5
 20
20988.0192305276286788
 30
0.0
 11
24462.5
 21
21014.8141497707401868
 31
0.0
  0
LINE
  5
3F2D0
  8
0
 10
24362.5
 20
20988.0192305276286788
 30
0.0
 11
24462.5
 21
20961.2243112845208088
 31
0.0
  0
LINE
  5
3F2D1
  8
0
 10
24462.5
 20
20988.0192305276286788
 30
0.0
 11
24362.5
 21
20988.0192305276286788
 31
0.0
  0
TEXT
  5
3F2D2
  8
SCALE
 10
25263.75
 20
21025.5192305276286788
 30
0.0
 40
75.0
  1
取付面間:2450
  0
LINE
  5
3F2D3
  8
0
 10
27312.5
 20
20988.0192305276286788
 30
0.0
 11
27212.5
 21
20961.2243112845208088
 31
0.0
  0
LINE
  5
3F2D4
  8
0
 10
27312.5
 20
20988.0192305276286788
 30
0.0
 11
27212.5
 21
21014.8141497707401868
 31
0.0
  0
LINE
  5
3F2D5
  8
0
 10
27212.5
 20
20988.0192305276286788
 30
0.0
 11
27312.5
 21
20988.0192305276286788
 31
0.0
  0
LINE
  5
3F2D6
  8
0
 10
26812.5
 20
20988.0192305276286788
 30
0.0
 11
26912.5
 21
21014.8141497707401868
 31
0.0
  0
LINE
  5
3F2D7
  8
0
 10
26812.5
 20
20988.0192305276286788
 30
0.0
 11
26912.5
 21
20961.2243112845208088
 31
0.0
  0
LINE
  5
3F2D8
  8
0
 10
26912.5
 20
20988.0192305276286788
 30
0.0
 11
26812.5
 21
20988.0192305276286788
 31
0.0
  0
TEXT
  5
3F2D9
  8
SCALE
 10
26975.0
 20
21025.5192305276286788
 30
0.0
 40
75.0
  1
500
  0
LINE
  5
3F2DA
  8
0
 10
26572.5
 20
20638.0192305276286788
 30
0.0
 11
26672.5
 21
20664.8141497707401868
 31
0.0
  0
LINE
  5
3F2DB
  8
0
 10
26572.5
 20
20638.0192305276286788
 30
0.0
 11
26672.5
 21
20611.2243112845208088
 31
0.0
  0
LINE
  5
3F2DC
  8
0
 10
26672.5
 20
20638.0192305276286788
 30
0.0
 11
26572.5
 21
20638.0192305276286788
 31
0.0
  0
LINE
  5
3F2DD
  8
0
 10
26812.5
 20
20638.0192305276286788
 30
0.0
 11
26712.5
 21
20611.2243112845208088
 31
0.0
  0
LINE
  5
3F2DE
  8
0
 10
26812.5
 20
20638.0192305276286788
 30
0.0
 11
26712.5
 21
20664.8141497707401868
 31
0.0
  0
LINE
  5
3F2DF
  8
0
 10
26712.5
 20
20638.0192305276286788
 30
0.0
 11
26812.5
 21
20638.0192305276286788
 31
0.0
  0
TEXT
  5
3F2E0
  8
SCALE
 10
26598.75
 20
20675.5192305276286788
 30
0.0
 40
75.0
  1
240
  0
LINE
  5
3F2E1
  8
0
 10
23262.5000000000691216
 20
20288.0192305276395928
 30
0.0
 11
23289.2949192431915435
 21
20188.0192305276395928
 31
0.0
  0
LINE
  5
3F2E2
  8
0
 10
23262.5000000000691216
 20
20288.0192305276395928
 30
0.0
 11
23235.7050807569612516
 21
20188.0192305276395928
 31
0.0
  0
LINE
  5
3F2E3
  8
0
 10
23262.5000000000691216
 20
20188.0192305276395928
 30
0.0
 11
23262.5000000000691216
 21
20288.0192305276395928
 31
0.0
  0
LINE
  5
3F2E4
  8
0
 10
23262.5000000000691216
 20
19598.0192305276286788
 30
0.0
 11
23235.7050807569612516
 21
19698.0192305276286788
 31
0.0
  0
LINE
  5
3F2E5
  8
0
 10
23262.5000000000691216
 20
19598.0192305276286788
 30
0.0
 11
23289.2949192431915435
 21
19698.0192305276286788
 31
0.0
  0
LINE
  5
3F2E6
  8
0
 10
23262.5000000000691216
 20
19698.0192305276286788
 30
0.0
 11
23262.5000000000691216
 21
19598.0192305276286788
 31
0.0
  0
TEXT
  5
3F2E7
  8
SCALE
 10
23225.0000000000691216
 20
19849.2692305276286788
 30
0.0
 40
75.0
  1
690
 50
90.0
  0
LINE
  5
3F2E8
  8
0
 10
23262.5000000000982254
 20
19598.0192305276286788
 30
0.0
 11
23289.2949192432097334
 21
19498.0192305276286788
 31
0.0
  0
LINE
  5
3F2E9
  8
0
 10
23262.5000000000982254
 20
19598.0192305276286788
 30
0.0
 11
23235.7050807569794415
 21
19498.0192305276286788
 31
0.0
  0
LINE
  5
3F2EA
  8
0
 10
23262.5000000000982254
 20
19498.0192305276286788
 30
0.0
 11
23262.5000000000982254
 21
19598.0192305276286788
 31
0.0
  0
LINE
  5
3F2EB
  8
0
 10
23262.5000000000982254
 20
18908.0192305276286788
 30
0.0
 11
23235.7050807569794415
 21
19008.0192305276395928
 31
0.0
  0
LINE
  5
3F2EC
  8
0
 10
23262.5000000000982254
 20
18908.0192305276286788
 30
0.0
 11
23289.2949192432097334
 21
19008.0192305276395928
 31
0.0
  0
LINE
  5
3F2ED
  8
0
 10
23262.5000000000982254
 20
19008.0192305276395928
 30
0.0
 11
23262.5000000000982254
 21
18908.0192305276286788
 31
0.0
  0
TEXT
  5
3F2EE
  8
SCALE
 10
23225.0000000000982254
 20
19159.2692305276286788
 30
0.0
 40
75.0
  1
690
 50
90.0
  0
LINE
  5
3F2EF
  8
0
 10
23612.5000000001309672
 20
19408.0192305276286788
 30
0.0
 11
23585.7050807570194593
 21
19508.0192305276395928
 31
0.0
  0
LINE
  5
3F2F0
  8
0
 10
23612.5000000001309672
 20
19408.0192305276286788
 30
0.0
 11
23639.2949192432388372
 21
19508.0192305276395928
 31
0.0
  0
LINE
  5
3F2F1
  8
0
 10
23612.5000000001309672
 20
19508.0192305276395928
 30
0.0
 11
23612.5000000001309672
 21
19408.0192305276286788
 31
0.0
  0
LINE
  5
3F2F2
  8
0
 10
23612.5000000001309672
 20
19788.0192305276286788
 30
0.0
 11
23639.2949192432388372
 21
19688.0192305276286788
 31
0.0
  0
LINE
  5
3F2F3
  8
0
 10
23612.5000000001309672
 20
19788.0192305276286788
 30
0.0
 11
23585.7050807570194593
 21
19688.0192305276286788
 31
0.0
  0
LINE
  5
3F2F4
  8
0
 10
23612.5000000001309672
 20
19688.0192305276286788
 30
0.0
 11
23612.5000000001309672
 21
19788.0192305276286788
 31
0.0
  0
TEXT
  5
3F2F5
  8
SCALE
 10
23575.0000000001309672
 20
19504.2692305276286788
 30
0.0
 40
75.0
  1
380
 50
90.0
  0
LINE
  5
3F2F6
  8
0
 10
33852.5
 20
21063.0192305276286788
 30
0.0
 11
33952.5
 21
21089.8141497707401868
 31
0.0
  0
LINE
  5
3F2F7
  8
0
 10
33852.5
 20
21063.0192305276286788
 30
0.0
 11
33952.5
 21
21036.2243112845208088
 31
0.0
  0
LINE
  5
3F2F8
  8
0
 10
33952.5
 20
21063.0192305276286788
 30
0.0
 11
33852.5
 21
21063.0192305276286788
 31
0.0
  0
LINE
  5
3F2F9
  8
0
 10
34352.5
 20
21063.0192305276286788
 30
0.0
 11
34252.5
 21
21036.2243112845208088
 31
0.0
  0
LINE
  5
3F2FA
  8
0
 10
34352.5
 20
21063.0192305276286788
 30
0.0
 11
34252.5
 21
21089.8141497707401868
 31
0.0
  0
LINE
  5
3F2FB
  8
0
 10
34252.5
 20
21063.0192305276286788
 30
0.0
 11
34352.5
 21
21063.0192305276286788
 31
0.0
  0
TEXT
  5
3F2FC
  8
SCALE
 10
34015.0
 20
21100.5192305276286788
 30
0.0
 40
75.0
  1
500
  0
LINE
  5
3F2FD
  8
0
 10
36972.5
 20
21063.0192305276286788
 30
0.0
 11
36872.5
 21
21036.2243112845208088
 31
0.0
  0
LINE
  5
3F2FE
  8
0
 10
36972.5
 20
21063.0192305276286788
 30
0.0
 11
36872.5
 21
21089.8141497707401868
 31
0.0
  0
LINE
  5
3F2FF
  8
0
 10
36872.5
 20
21063.0192305276286788
 30
0.0
 11
36972.5
 21
21063.0192305276286788
 31
0.0
  0
LINE
  5
3F300
  8
0
 10
34352.5
 20
21063.0192305276286788
 30
0.0
 11
34452.5
 21
21089.8141497707401868
 31
0.0
  0
LINE
  5
3F301
  8
0
 10
34352.5
 20
21063.0192305276286788
 30
0.0
 11
34452.5
 21
21036.2243112845208088
 31
0.0
  0
LINE
  5
3F302
  8
0
 10
34452.5
 20
21063.0192305276286788
 30
0.0
 11
34352.5
 21
21063.0192305276286788
 31
0.0
  0
TEXT
  5
3F303
  8
SCALE
 10
35338.75
 20
21100.5192305276286788
 30
0.0
 40
75.0
  1
取付面間:2620
  0
LINE
  5
3F304
  8
0
 10
37472.5
 20
21063.0192305276214029
 30
0.0
 11
37372.5
 21
21036.2243112845098949
 31
0.0
  0
LINE
  5
3F305
  8
0
 10
37472.5
 20
21063.0192305276214029
 30
0.0
 11
37372.5
 21
21089.8141497707401868
 31
0.0
  0
LINE
  5
3F306
  8
0
 10
37372.5
 20
21063.0192305276214029
 30
0.0
 11
37472.5
 21
21063.0192305276214029
 31
0.0
  0
LINE
  5
3F307
  8
0
 10
36972.5
 20
21063.0192305276214029
 30
0.0
 11
37072.5
 21
21089.8141497707401868
 31
0.0
  0
LINE
  5
3F308
  8
0
 10
36972.5
 20
21063.0192305276214029
 30
0.0
 11
37072.5
 21
21036.2243112845098949
 31
0.0
  0
LINE
  5
3F309
  8
0
 10
37072.5
 20
21063.0192305276214029
 30
0.0
 11
36972.5
 21
21063.0192305276214029
 31
0.0
  0
TEXT
  5
3F30A
  8
SCALE
 10
37135.0
 20
21100.5192305276286788
 30
0.0
 40
75.0
  1
500
  0
LINE
  5
3F30B
  8
0
 10
36672.5
 20
20713.0192305276286788
 30
0.0
 11
36772.5
 21
20739.8141497707401868
 31
0.0
  0
LINE
  5
3F30C
  8
0
 10
36672.5
 20
20713.0192305276286788
 30
0.0
 11
36772.5
 21
20686.2243112845208088
 31
0.0
  0
LINE
  5
3F30D
  8
0
 10
36772.5
 20
20713.0192305276286788
 30
0.0
 11
36672.5
 21
20713.0192305276286788
 31
0.0
  0
LINE
  5
3F30E
  8
0
 10
36972.5
 20
20713.0192305276286788
 30
0.0
 11
36872.5
 21
20686.2243112845208088
 31
0.0
  0
LINE
  5
3F30F
  8
0
 10
36972.5
 20
20713.0192305276286788
 30
0.0
 11
36872.5
 21
20739.8141497707401868
 31
0.0
  0
LINE
  5
3F310
  8
0
 10
36872.5
 20
20713.0192305276286788
 30
0.0
 11
36972.5
 21
20713.0192305276286788
 31
0.0
  0
TEXT
  5
3F311
  8
SCALE
 10
36735.0
 20
20750.5192305276286788
 30
0.0
 40
75.0
  1
300
  0
LINE
  5
3F312
  8
0
 10
33252.5000000001527951
 20
20363.0192305276286788
 30
0.0
 11
33279.2949192432570271
 21
20263.0192305276395928
 31
0.0
  0
LINE
  5
3F313
  8
0
 10
33252.5000000001527951
 20
20363.0192305276286788
 30
0.0
 11
33225.7050807570267352
 21
20263.0192305276395928
 31
0.0
  0
LINE
  5
3F314
  8
0
 10
33252.5000000001527951
 20
20263.0192305276395928
 30
0.0
 11
33252.5000000001527951
 21
20363.0192305276286788
 31
0.0
  0
LINE
  5
3F315
  8
0
 10
33252.5000000001527951
 20
19598.0192305276286788
 30
0.0
 11
33225.7050807570267352
 21
19698.0192305276286788
 31
0.0
  0
LINE
  5
3F316
  8
0
 10
33252.5000000001527951
 20
19598.0192305276286788
 30
0.0
 11
33279.2949192432570271
 21
19698.0192305276286788
 31
0.0
  0
LINE
  5
3F317
  8
0
 10
33252.5000000001527951
 20
19698.0192305276286788
 30
0.0
 11
33252.5000000001527951
 21
19598.0192305276286788
 31
0.0
  0
TEXT
  5
3F318
  8
SCALE
 10
33215.0000000001382432
 20
19880.5192305276214029
 30
0.0
 40
75.0
  1
765
 50
90.0
  0
LINE
  5
3F319
  8
0
 10
33252.5000000001891749
 20
19598.0192305276286788
 30
0.0
 11
33279.2949192433006829
 21
19498.0192305276286788
 31
0.0
  0
LINE
  5
3F31A
  8
0
 10
33252.5000000001891749
 20
19598.0192305276286788
 30
0.0
 11
33225.7050807570776669
 21
19498.0192305276286788
 31
0.0
  0
LINE
  5
3F31B
  8
0
 10
33252.5000000001891749
 20
19498.0192305276286788
 30
0.0
 11
33252.5000000001891749
 21
19598.0192305276286788
 31
0.0
  0
LINE
  5
3F31C
  8
0
 10
33252.5000000001891749
 20
18833.0192305276286788
 30
0.0
 11
33225.7050807570776669
 21
18933.0192305276286788
 31
0.0
  0
LINE
  5
3F31D
  8
0
 10
33252.5000000001891749
 20
18833.0192305276286788
 30
0.0
 11
33279.2949192433006829
 21
18933.0192305276286788
 31
0.0
  0
LINE
  5
3F31E
  8
0
 10
33252.5000000001891749
 20
18933.0192305276286788
 30
0.0
 11
33252.5000000001891749
 21
18833.0192305276286788
 31
0.0
  0
TEXT
  5
3F31F
  8
SCALE
 10
33215.0000000001891749
 20
19115.5192305276214029
 30
0.0
 40
75.0
  1
765
 50
90.0
  0
LINE
  5
3F320
  8
0
 10
33602.5000000002910383
 20
19383.0192305276286788
 30
0.0
 11
33575.7050807571795303
 21
19483.0192305276286788
 31
0.0
  0
LINE
  5
3F321
  8
0
 10
33602.5000000002910383
 20
19383.0192305276286788
 30
0.0
 11
33629.2949192434025463
 21
19483.0192305276286788
 31
0.0
  0
LINE
  5
3F322
  8
0
 10
33602.5000000002910383
 20
19483.0192305276286788
 30
0.0
 11
33602.5000000002910383
 21
19383.0192305276286788
 31
0.0
  0
LINE
  5
3F323
  8
0
 10
33602.5000000002910383
 20
19813.0192305276395928
 30
0.0
 11
33629.2949192434025463
 21
19713.0192305276286788
 31
0.0
  0
LINE
  5
3F324
  8
0
 10
33602.5000000002910383
 20
19813.0192305276395928
 30
0.0
 11
33575.7050807571795303
 21
19713.0192305276286788
 31
0.0
  0
LINE
  5
3F325
  8
0
 10
33602.5000000002910383
 20
19713.0192305276286788
 30
0.0
 11
33602.5000000002910383
 21
19813.0192305276395928
 31
0.0
  0
TEXT
  5
3F326
  8
SCALE
 10
33565.0000000002910383
 20
19504.2692305276214029
 30
0.0
 40
75.0
  1
430
 50
90.0
  0
TEXT
  5
3F327
  8
SCALE
 10
3957.0377890609170208
 20
15239.5410367590902752
 30
0.0
 40
75.0
  1
12
 50
90.0
  0
LINE
  5
3F328
  8
0
 10
4047.0377890609138376
 20
15295.5410367590993701
 30
0.0
 11
4020.2428698178041486
 21
15395.5410367590993701
 31
0.0
  0
LINE
  5
3F329
  8
0
 10
4047.0377890609138376
 20
15295.5410367590993701
 30
0.0
 11
4073.8327083040239813
 21
15395.5410367590993701
 31
0.0
  0
LINE
  5
3F32A
  8
0
 10
4047.0377890609138376
 20
15395.5410367590993701
 30
0.0
 11
4047.0377890609138376
 21
15295.5410367590993701
 31
0.0
  0
LINE
  5
3F32B
  8
0
 10
4047.0377890609138376
 20
15283.5410367590993701
 30
0.0
 11
4073.8327083040239813
 21
15183.5410367590993701
 31
0.0
  0
LINE
  5
3F32C
  8
0
 10
4047.0377890609138376
 20
15283.5410367590993701
 30
0.0
 11
4020.2428698178041486
 21
15183.5410367590993701
 31
0.0
  0
LINE
  5
3F32D
  8
0
 10
4047.0377890609138376
 20
15183.5410367590993701
 30
0.0
 11
4047.0377890609138376
 21
15283.5410367590993701
 31
0.0
  0
TEXT
  5
3F330
  8
SCALE
 10
4878.0000000000245564
 20
15588.5410367590902752
 30
0.0
 40
75.0
  1
100
 50
90.0
  0
TEXT
  5
3F333
  8
SCALE
 10
4878.0000000000345608
 20
14828.5410367590993701
 30
0.0
 40
75.0
  1
100
 50
90.0
  0
TEXT
  5
3F334
  8
SCALE
 10
14007.0377890609506721
 20
15202.2910367590902752
 30
0.0
 40
75.0
  1
11.5
 50
90.0
  0
LINE
  5
3F335
  8
0
 10
14097.0377890609506721
 20
15295.5410367590993701
 30
0.0
 11
14070.2428698178391642
 21
15395.5410367590993701
 31
0.0
  0
LINE
  5
3F336
  8
0
 10
14097.0377890609506721
 20
15295.5410367590993701
 30
0.0
 11
14123.8327083040603611
 21
15395.5410367590993701
 31
0.0
  0
LINE
  5
3F337
  8
0
 10
14097.0377890609506721
 20
15395.5410367590993701
 30
0.0
 11
14097.0377890609506721
 21
15295.5410367590993701
 31
0.0
  0
LINE
  5
3F338
  8
0
 10
14097.0377890609506721
 20
15284.0410367590993701
 30
0.0
 11
14123.8327083040603611
 21
15184.0410367590993701
 31
0.0
  0
LINE
  5
3F339
  8
0
 10
14097.0377890609506721
 20
15284.0410367590993701
 30
0.0
 11
14070.2428698178391642
 21
15184.0410367590993701
 31
0.0
  0
LINE
  5
3F33A
  8
0
 10
14097.0377890609506721
 20
15184.0410367590993701
 30
0.0
 11
14097.0377890609506721
 21
15284.0410367590993701
 31
0.0
  0
TEXT
  5
3F33D
  8
SCALE
 10
14928.0000000000400178
 20
15609.0410367590902752
 30
0.0
 40
75.0
  1
100
 50
90.0
  0
TEXT
  5
3F340
  8
SCALE
 10
14928.0000000000691216
 20
14809.0410367590902752
 30
0.0
 40
75.0
  1
100
 50
90.0
  0
TEXT
  5
3F341
  8
SCALE
 10
24022.0377890609488531
 20
15221.0410367590902752
 30
0.0
 40
75.0
  1
24
 50
90.0
  0
LINE
  5
3F342
  8
0
 10
24112.0377890609488531
 20
15295.5410367590993701
 30
0.0
 11
24085.2428698178409832
 21
15395.5410367590993701
 31
0.0
  0
LINE
  5
3F343
  8
0
 10
24112.0377890609488531
 20
15295.5410367590993701
 30
0.0
 11
24138.8327083040603611
 21
15395.5410367590993701
 31
0.0
  0
LINE
  5
3F344
  8
0
 10
24112.0377890609488531
 20
15395.5410367590993701
 30
0.0
 11
24112.0377890609488531
 21
15295.5410367590993701
 31
0.0
  0
LINE
  5
3F345
  8
0
 10
24112.0377890609488531
 20
15271.5410367590993701
 30
0.0
 11
24138.8327083040603611
 21
15171.5410367590993701
 31
0.0
  0
LINE
  5
3F346
  8
0
 10
24112.0377890609488531
 20
15271.5410367590993701
 30
0.0
 11
24085.2428698178409832
 21
15171.5410367590993701
 31
0.0
  0
LINE
  5
3F347
  8
0
 10
24112.0377890609488531
 20
15171.5410367590993701
 30
0.0
 11
24112.0377890609488531
 21
15271.5410367590993701
 31
0.0
  0
TEXT
  5
3F34A
  8
SCALE
 10
24943.0000000000582077
 20
15611.5410367590902752
 30
0.0
 40
75.0
  1
100
 50
90.0
  0
TEXT
  5
3F34D
  8
SCALE
 10
24943.0000000000982254
 20
14781.5410367590902752
 30
0.0
 40
75.0
  1
100
 50
90.0
  0
TEXT
  5
3F34E
  8
SCALE
 10
34012.037789060981595
 20
15170.7910367590902752
 30
0.0
 40
75.0
  1
24.5
 50
90.0
  0
LINE
  5
3F34F
  8
0
 10
34102.037789060981595
 20
15295.5410367590993701
 30
0.0
 11
34075.242869817870087
 21
15395.5410367590993701
 31
0.0
  0
LINE
  5
3F350
  8
0
 10
34102.037789060981595
 20
15295.5410367590993701
 30
0.0
 11
34128.8327083040931029
 21
15395.5410367590993701
 31
0.0
  0
LINE
  5
3F351
  8
0
 10
34102.037789060981595
 20
15395.5410367590993701
 30
0.0
 11
34102.037789060981595
 21
15295.5410367590993701
 31
0.0
  0
LINE
  5
3F352
  8
0
 10
34102.037789060981595
 20
15271.0410367590993701
 30
0.0
 11
34128.8327083040931029
 21
15171.0410367590993701
 31
0.0
  0
LINE
  5
3F353
  8
0
 10
34102.037789060981595
 20
15271.0410367590993701
 30
0.0
 11
34075.242869817870087
 21
15171.0410367590993701
 31
0.0
  0
LINE
  5
3F354
  8
0
 10
34102.037789060981595
 20
15171.0410367590993701
 30
0.0
 11
34102.037789060981595
 21
15271.0410367590993701
 31
0.0
  0
TEXT
  5
3F357
  8
SCALE
 10
34933.0000000000582077
 20
15636.0410367590902752
 30
0.0
 40
75.0
  1
100
 50
90.0
  0
TEXT
  5
3F35A
  8
SCALE
 10
34933.0000000001164153
 20
14756.0410367590902752
 30
0.0
 40
75.0
  1
100
 50
90.0
  0
ARC
  5
3F35B
  8
0
  6
BYBLOCK
 62
     0
 10
4915.5000000000218279
 20
15388.5410367590993701
 30
0.0
 40
6.25
 50
90.0
 51
270.0
  0
ARC
  5
3F35C
  8
0
  6
BYBLOCK
 62
     0
 10
4915.5000000000218279
 20
15388.5410367590993701
 30
0.0
 40
6.25
 50
270.0
 51
90.0
  0
ARC
  5
3F35D
  8
0
  6
BYBLOCK
 62
     0
 10
4915.5000000000218279
 20
15488.5410367590993701
 30
0.0
 40
6.25
 50
270.0
 51
90.0
  0
ARC
  5
3F35E
  8
0
  6
BYBLOCK
 62
     0
 10
4915.5000000000218279
 20
15488.5410367590993701
 30
0.0
 40
6.25
 50
90.0
 51
270.0
  0
ARC
  5
3F35F
  8
0
  6
BYBLOCK
 62
     0
 10
4915.5000000000309228
 20
15178.5410367590993701
 30
0.0
 40
6.25
 50
270.0
 51
90.0
  0
ARC
  5
3F360
  8
0
  6
BYBLOCK
 62
     0
 10
4915.5000000000309228
 20
15178.5410367590993701
 30
0.0
 40
6.25
 50
90.0
 51
270.0
  0
ARC
  5
3F361
  8
0
  6
BYBLOCK
 62
     0
 10
4915.5000000000309228
 20
15078.5410367590993701
 30
0.0
 40
6.25
 50
90.0
 51
270.0
  0
ARC
  5
3F362
  8
0
  6
BYBLOCK
 62
     0
 10
4915.5000000000309228
 20
15078.5410367590993701
 30
0.0
 40
6.25
 50
270.0
 51
90.0
  0
ARC
  5
3F363
  8
0
  6
BYBLOCK
 62
     0
 10
14965.5000000000400178
 20
15409.0410367590993701
 30
0.0
 40
6.25
 50
90.0
 51
270.0
  0
ARC
  5
3F364
  8
0
  6
BYBLOCK
 62
     0
 10
14965.5000000000400178
 20
15409.0410367590993701
 30
0.0
 40
6.25
 50
270.0
 51
90.0
  0
ARC
  5
3F365
  8
0
  6
BYBLOCK
 62
     0
 10
14965.5000000000400178
 20
15509.0410367590993701
 30
0.0
 40
6.25
 50
270.0
 51
90.0
  0
ARC
  5
3F366
  8
0
  6
BYBLOCK
 62
     0
 10
14965.5000000000400178
 20
15509.0410367590993701
 30
0.0
 40
6.25
 50
90.0
 51
270.0
  0
ARC
  5
3F367
  8
0
  6
BYBLOCK
 62
     0
 10
14965.5000000000600267
 20
15159.0410367590993701
 30
0.0
 40
6.25
 50
270.0
 51
90.0
  0
ARC
  5
3F368
  8
0
  6
BYBLOCK
 62
     0
 10
14965.5000000000600267
 20
15159.0410367590993701
 30
0.0
 40
6.25
 50
90.0
 51
270.0
  0
ARC
  5
3F369
  8
0
  6
BYBLOCK
 62
     0
 10
14965.5000000000600267
 20
15059.0410367590993701
 30
0.0
 40
6.25
 50
90.0
 51
270.0
  0
ARC
  5
3F36A
  8
0
  6
BYBLOCK
 62
     0
 10
14965.5000000000600267
 20
15059.0410367590993701
 30
0.0
 40
6.25
 50
270.0
 51
90.0
  0
ARC
  5
3F36B
  8
0
  6
BYBLOCK
 62
     0
 10
24980.5000000000691216
 20
15411.5410367590993701
 30
0.0
 40
6.25
 50
90.0
 51
270.0
  0
ARC
  5
3F36C
  8
0
  6
BYBLOCK
 62
     0
 10
24980.5000000000691216
 20
15411.5410367590993701
 30
0.0
 40
6.25
 50
270.0
 51
90.0
  0
ARC
  5
3F36D
  8
0
  6
BYBLOCK
 62
     0
 10
24980.5000000000691216
 20
15511.5410367590993701
 30
0.0
 40
6.25
 50
270.0
 51
90.0
  0
ARC
  5
3F36E
  8
0
  6
BYBLOCK
 62
     0
 10
24980.5000000000691216
 20
15511.5410367590993701
 30
0.0
 40
6.25
 50
90.0
 51
270.0
  0
ARC
  5
3F36F
  8
0
  6
BYBLOCK
 62
     0
 10
24980.5000000000982254
 20
15131.5410367590993701
 30
0.0
 40
6.25
 50
270.0
 51
90.0
  0
ARC
  5
3F370
  8
0
  6
BYBLOCK
 62
     0
 10
24980.5000000000982254
 20
15131.5410367590993701
 30
0.0
 40
6.25
 50
90.0
 51
270.0
  0
ARC
  5
3F371
  8
0
  6
BYBLOCK
 62
     0
 10
24980.5000000000982254
 20
15031.5410367590993701
 30
0.0
 40
6.25
 50
90.0
 51
270.0
  0
ARC
  5
3F372
  8
0
  6
BYBLOCK
 62
     0
 10
24980.5000000000982254
 20
15031.5410367590993701
 30
0.0
 40
6.25
 50
270.0
 51
90.0
  0
ARC
  5
3F373
  8
0
  6
BYBLOCK
 62
     0
 10
34970.5000000000727596
 20
15436.0410367590993701
 30
0.0
 40
6.25
 50
90.0
 51
270.0
  0
ARC
  5
3F374
  8
0
  6
BYBLOCK
 62
     0
 10
34970.5000000000727596
 20
15436.0410367590993701
 30
0.0
 40
6.25
 50
270.0
 51
90.0
  0
ARC
  5
3F375
  8
0
  6
BYBLOCK
 62
     0
 10
34970.5000000000727596
 20
15536.0410367590993701
 30
0.0
 40
6.25
 50
270.0
 51
90.0
  0
ARC
  5
3F376
  8
0
  6
BYBLOCK
 62
     0
 10
34970.5000000000727596
 20
15536.0410367590993701
 30
0.0
 40
6.25
 50
90.0
 51
270.0
  0
ARC
  5
3F377
  8
0
  6
BYBLOCK
 62
     0
 10
34970.5000000001309672
 20
15106.0410367590993701
 30
0.0
 40
6.25
 50
270.0
 51
90.0
  0
ARC
  5
3F378
  8
0
  6
BYBLOCK
 62
     0
 10
34970.5000000001309672
 20
15106.0410367590993701
 30
0.0
 40
6.25
 50
90.0
 51
270.0
  0
ARC
  5
3F379
  8
0
  6
BYBLOCK
 62
     0
 10
34970.5000000001309672
 20
15006.0410367590993701
 30
0.0
 40
6.25
 50
90.0
 51
270.0
  0
ARC
  5
3F37A
  8
0
  6
BYBLOCK
 62
     0
 10
34970.5000000001309672
 20
15006.0410367590993701
 30
0.0
 40
6.25
 50
270.0
 51
90.0
  0
ENDSEC
  0
EOF
