  0
SECTION
  2
HEADER
  9
$ACADVER
  1
AC1021
  9
$ACADMAINTVER
 70
    50
  9
$DWGCODEPAGE
  3
ANSI_932
  9
$LASTSAVEDBY
  1
mino-t
  9
$INSBASE
 10
0.0
 20
0.0
 30
0.0
  9
$EXTMIN
 10
207.2472600117908
 20
-0.9063029206663486
 30
-0.0015258207003583
  9
$EXTMAX
 10
40700.64783193013
 20
27752.20648778162
 30
0.0000000349246037
  9
$LIMMIN
 10
0.0
 20
0.0
  9
$LIMMAX
 10
42050.0
 20
29700.0
  9
$ORTHOMODE
 70
     0
  9
$REGENMODE
 70
     1
  9
$FILLMODE
 70
     1
  9
$QTEXTMODE
 70
     0
  9
$MIRRTEXT
 70
     0
  9
$LTSCALE
 40
400.0
  9
$ATTMODE
 70
     1
  9
$TEXTSIZE
 40
150.0
  9
$TRACEWID
 40
0.05
  9
$TEXTSTYLE
  7
STANDARD
  9
$CLAYER
  8
SCALE
  9
$CELTYPE
  6
BYLAYER
  9
$CECOLOR
 62
   256
  9
$CELTSCALE
 40
1.0
  9
$DISPSILH
 70
     0
  9
$DIMSCALE
 40
50.0
  9
$DIMASZ
 40
2.0
  9
$DIMEXO
 40
2.0
  9
$DIMDLI
 40
7.0
  9
$DIMRND
 40
0.0
  9
$DIMDLE
 40
0.0
  9
$DIMEXE
 40
1.8
  9
$DIMTP
 40
0.0
  9
$DIMTM
 40
0.0
  9
$DIMTXT
 40
2.0
  9
$DIMCEN
 40
0.1
  9
$DIMTSZ
 40
0.0
  9
$DIMTOL
 70
     0
  9
$DIMLIM
 70
     0
  9
$DIMTIH
 70
     0
  9
$DIMTOH
 70
     0
  9
$DIMSE1
 70
     0
  9
$DIMSE2
 70
     0
  9
$DIMTAD
 70
     0
  9
$DIMZIN
 70
     9
  9
$DIMBLK
  1

  9
$DIMASO
 70
     1
  9
$DIMSHO
 70
     1
  9
$DIMPOST
  1

  9
$DIMAPOST
  1

  9
$DIMALT
 70
     0
  9
$DIMALTD
 70
     2
  9
$DIMALTF
 40
25.4
  9
$DIMLFAC
 40
1.0
  9
$DIMTOFL
 70
     1
  9
$DIMTVP
 40
1.0
  9
$DIMTIX
 70
     0
  9
$DIMSOXD
 70
     0
  9
$DIMSAH
 70
     1
  9
$DIMBLK1
  1
YAZ1
  9
$DIMBLK2
  1
YAZ1
  9
$DIMSTYLE
  2
YAZ1
  9
$DIMCLRD
 70
   256
  9
$DIMCLRE
 70
   256
  9
$DIMCLRT
 70
   256
  9
$DIMTFAC
 40
1.0
  9
$DIMGAP
 40
0.0
  9
$DIMJUST
 70
     0
  9
$DIMSD1
 70
     0
  9
$DIMSD2
 70
     0
  9
$DIMTOLJ
 70
     1
  9
$DIMTZIN
 70
     9
  9
$DIMALTZ
 70
     9
  9
$DIMALTTZ
 70
     9
  9
$DIMUPT
 70
     0
  9
$DIMDEC
 70
     3
  9
$DIMTDEC
 70
     3
  9
$DIMALTU
 70
     2
  9
$DIMALTTD
 70
     2
  9
$DIMTXSTY
  7
STANDARD
  9
$DIMAUNIT
 70
     0
  9
$DIMADEC
 70
     0
  9
$DIMALTRND
 40
0.0
  9
$DIMAZIN
 70
     0
  9
$DIMDSEP
 70
    46
  9
$DIMATFIT
 70
     3
  9
$DIMFRAC
 70
     0
  9
$DIMLDRBLK
  1
YAZ1
  9
$DIMLUNIT
 70
     2
  9
$DIMLWD
 70
    -2
  9
$DIMLWE
 70
    -2
  9
$DIMTMOVE
 70
     0
  9
$DIMFXL
 40
1.0
  9
$DIMFXLON
 70
     0
  9
$DIMJOGANG
 40
0.7853981633974483
  9
$DIMTFILL
 70
     0
  9
$DIMTFILLCLR
 70
     0
  9
$DIMARCSYM
 70
     0
  9
$DIMLTYPE
  6

  9
$DIMLTEX1
  6

  9
$DIMLTEX2
  6

  9
$LUNITS
 70
     2
  9
$LUPREC
 70
     3
  9
$SKETCHINC
 40
0.1
  9
$FILLETRAD
 40
0.0
  9
$AUNITS
 70
     0
  9
$AUPREC
 70
     2
  9
$MENU
  1
amecex
  9
$ELEVATION
 40
0.0
  9
$PELEVATION
 40
0.0
  9
$THICKNESS
 40
0.0
  9
$LIMCHECK
 70
     0
  9
$CHAMFERA
 40
0.0
  9
$CHAMFERB
 40
0.0
  9
$CHAMFERC
 40
0.0
  9
$CHAMFERD
 40
0.0
  9
$SKPOLY
 70
     0
  9
$TDCREATE
 40
2453896.465833333
  9
$TDUCREATE
 40
2453896.090833334
  9
$TDUPDATE
 40
2459601.607060185
  9
$TDUUPDATE
 40
2459601.232060185
  9
$TDINDWG
 40
1.4309005440
  9
$TDUSRTIMER
 40
1.4309005440
  9
$USRTIMER
 70
     1
  9
$ANGBASE
 50
0.0
  9
$ANGDIR
 70
     0
  9
$PDMODE
 70
     0
  9
$PDSIZE
 40
0.0
  9
$PLINEWID
 40
0.0
  9
$SPLFRAME
 70
     0
  9
$SPLINETYPE
 70
     6
  9
$SPLINESEGS
 70
     8
  9
$HANDSEED
  5
3C80B
  9
$SURFTAB1
 70
     6
  9
$SURFTAB2
 70
     6
  9
$SURFTYPE
 70
     6
  9
$SURFU
 70
     6
  9
$SURFV
 70
     6
  9
$UCSBASE
  2

  9
$UCSNAME
  2

  9
$UCSORG
 10
0.0
 20
0.0
 30
0.0
  9
$UCSXDIR
 10
1.0
 20
0.0
 30
0.0
  9
$UCSYDIR
 10
0.0
 20
1.0
 30
0.0
  9
$UCSORTHOREF
  2

  9
$UCSORTHOVIEW
 70
     0
  9
$UCSORGTOP
 10
0.0
 20
0.0
 30
0.0
  9
$UCSORGBOTTOM
 10
0.0
 20
0.0
 30
0.0
  9
$UCSORGLEFT
 10
0.0
 20
0.0
 30
0.0
  9
$UCSORGRIGHT
 10
0.0
 20
0.0
 30
0.0
  9
$UCSORGFRONT
 10
0.0
 20
0.0
 30
0.0
  9
$UCSORGBACK
 10
0.0
 20
0.0
 30
0.0
  9
$PUCSBASE
  2

  9
$PUCSNAME
  2

  9
$PUCSORG
 10
0.0
 20
0.0
 30
0.0
  9
$PUCSXDIR
 10
1.0
 20
0.0
 30
0.0
  9
$PUCSYDIR
 10
0.0
 20
1.0
 30
0.0
  9
$PUCSORTHOREF
  2

  9
$PUCSORTHOVIEW
 70
     0
  9
$PUCSORGTOP
 10
0.0
 20
0.0
 30
0.0
  9
$PUCSORGBOTTOM
 10
0.0
 20
0.0
 30
0.0
  9
$PUCSORGLEFT
 10
0.0
 20
0.0
 30
0.0
  9
$PUCSORGRIGHT
 10
0.0
 20
0.0
 30
0.0
  9
$PUCSORGFRONT
 10
0.0
 20
0.0
 30
0.0
  9
$PUCSORGBACK
 10
0.0
 20
0.0
 30
0.0
  9
$USERI1
 70
     0
  9
$USERI2
 70
     0
  9
$USERI3
 70
     0
  9
$USERI4
 70
     0
  9
$USERI5
 70
     0
  9
$USERR1
 40
30.0
  9
$USERR2
 40
0.0
  9
$USERR3
 40
0.0
  9
$USERR4
 40
0.0
  9
$USERR5
 40
0.0
  9
$WORLDVIEW
 70
     1
  9
$SHADEDGE
 70
     3
  9
$SHADEDIF
 70
    70
  9
$TILEMODE
 70
     1
  9
$MAXACTVP
 70
    16
  9
$PINSBASE
 10
0.0
 20
0.0
 30
0.0
  9
$PLIMCHECK
 70
     0
  9
$PEXTMIN
 10
1.000000000000000E+20
 20
1.000000000000000E+20
 30
1.000000000000000E+20
  9
$PEXTMAX
 10
-1.000000000000000E+20
 20
-1.000000000000000E+20
 30
-1.000000000000000E+20
  9
$PLIMMIN
 10
0.0
 20
0.0
  9
$PLIMMAX
 10
12.0
 20
9.0
  9
$UNITMODE
 70
     0
  9
$VISRETAIN
 70
     0
  9
$PLINEGEN
 70
     0
  9
$PSLTSCALE
 70
     0
  9
$TREEDEPTH
 70
  3020
  9
$CMLSTYLE
  2
STANDARD
  9
$CMLJUST
 70
     0
  9
$CMLSCALE
 40
1.0
  9
$PROXYGRAPHICS
 70
     1
  9
$MEASUREMENT
 70
     0
  9
$CELWEIGHT
370
    -1
  9
$ENDCAPS
280
     0
  9
$JOINSTYLE
280
     0
  9
$LWDISPLAY
290
     0
  9
$INSUNITS
 70
     0
  9
$HYPERLINKBASE
  1

  9
$STYLESHEET
  1

  9
$XEDIT
290
     1
  9
$CEPSNTYPE
380
     0
  9
$PSTYLEMODE
290
     1
  9
$FINGERPRINTGUID
  2
{1FFD63E6-9FB4-2245-B1DA-03542CB8000A}
  9
$VERSIONGUID
  2
{956A4E84-2FAF-7E4E-949E-DD6AE8C2B5AD}
  9
$EXTNAMES
290
     1
  9
$PSVPSCALE
 40
0.0
  9
$OLESTARTUP
290
     0
  9
$SORTENTS
280
   127
  9
$INDEXCTL
280
     0
  9
$HIDETEXT
280
     0
  9
$XCLIPFRAME
290
     0
  9
$HALOGAP
280
     0
  9
$OBSCOLOR
 70
   257
  9
$OBSLTYPE
280
     0
  9
$INTERSECTIONDISPLAY
280
     0
  9
$INTERSECTIONCOLOR
 70
   257
  9
$DIMASSOC
280
     1
  9
$PROJECTNAME
  1

  9
$CAMERADISPLAY
290
     0
  9
$LENSLENGTH
 40
50.0
  9
$CAMERAHEIGHT
 40
0.0
  9
$STEPSPERSEC
 40
2.0
  9
$STEPSIZE
 40
6.0
  9
$3DDWFPREC
 40
2.0
  9
$PSOLWIDTH
 40
0.25
  9
$PSOLHEIGHT
 40
4.0
  9
$LOFTANG1
 40
1.570796326794896
  9
$LOFTANG2
 40
1.570796326794896
  9
$LOFTMAG1
 40
0.0
  9
$LOFTMAG2
 40
0.0
  9
$LOFTPARAM
 70
     7
  9
$LOFTNORMALS
280
     1
  9
$LATITUDE
 40
37.795
  9
$LONGITUDE
 40
-122.394
  9
$NORTHDIRECTION
 40
0.0
  9
$TIMEZONE
 70
 -8000
  9
$LIGHTGLYPHDISPLAY
280
     1
  9
$TILEMODELIGHTSYNCH
280
     1
  9
$CMATERIAL
347
3C6DD
  9
$SOLIDHIST
280
     0
  9
$SHOWHIST
280
     1
  9
$DWFFRAME
280
     2
  9
$DGNFRAME
280
     0
  9
$REALWORLDSCALE
290
     1
  9
$INTERFERECOLOR
 62
     1
  9
$INTERFEREOBJVS
345
3C6FF
  9
$INTERFEREVPVS
346
3C6FC
  9
$CSHADOW
280
     0
  9
$SHADOWPLANELOCATION
 40
0.0
  0
ENDSEC
  0
SECTION
  2
CLASSES
  0
CLASS
  1
ACDBDICTIONARYWDFLT
  2
AcDbDictionaryWithDefault
  3
ObjectDBX Classes
 90
        0
 91
        1
280
     0
281
     0
  0
CLASS
  1
DICTIONARYVAR
  2
AcDbDictionaryVar
  3
ObjectDBX Classes
 90
        0
 91
       10
280
     0
281
     0
  0
CLASS
  1
MATERIAL
  2
AcDbMaterial
  3
ObjectDBX Classes
 90
     1153
 91
        3
280
     0
281
     0
  0
CLASS
  1
VISUALSTYLE
  2
AcDbVisualStyle
  3
ObjectDBX Classes
 90
     4095
 91
       24
280
     0
281
     0
  0
CLASS
  1
TABLESTYLE
  2
AcDbTableStyle
  3
ObjectDBX Classes
 90
     4095
 91
        1
280
     0
281
     0
  0
CLASS
  1
SCALE
  2
AcDbScale
  3
ObjectDBX Classes
 90
     1153
 91
       17
280
     0
281
     0
  0
CLASS
  1
MLEADERSTYLE
  2
AcDbMLeaderStyle
  3
ACDB_MLEADERSTYLE_CLASS
 90
     4095
 91
        1
280
     0
281
     0
  0
CLASS
  1
ACDBSECTIONVIEWSTYLE
  2
AcDbSectionViewStyle
  3
ObjectDBX Classes
 90
     1025
 91
        2
280
     0
281
     0
  0
CLASS
  1
ACDBDETAILVIEWSTYLE
  2
AcDbDetailViewStyle
  3
ObjectDBX Classes
 90
     1025
 91
        2
280
     0
281
     0
  0
CLASS
  1
AMGSETTINGSOBJ
  2
AmgSettingsObj
  3
"AcadM|Product Description: AutoCAD Mechanical|Company: Autodesk, Inc."
 90
     1024
 91
        2
280
     0
281
     0
  0
CLASS
  1
ACME_DOCUMENT
  2
AcMeDbDoc
  3
AcMeServices
 90
     1024
 91
        1
280
     0
281
     0
  0
CLASS
  1
ACMESCOPE
  2
AcMeScope
  3
AcMeServices
 90
     1024
 91
        1
280
     0
281
     0
  0
CLASS
  1
ACMECOMMANDHISTORY
  2
AcMeCommandHistory
  3
AcMeServices
 90
     1024
 91
        1
280
     0
281
     0
  0
CLASS
  1
ACIMSYSVARMAN
  2
AcImSysVarManager
  3
AcMeServices
 90
     1024
 91
        3
280
     0
281
     0
  0
CLASS
  1
ACIMINTSYSVAR
  2
AcImIntSysVar
  3
AcMeServices
 90
     1024
 91
        2
280
     0
281
     0
  0
CLASS
  1
ACMESTATEMGR
  2
AcMeStateMgr
  3
AcMeServices
 90
     1024
 91
        1
280
     0
281
     0
  0
CLASS
  1
ACDBENTITYCACHE
  2
AcMeEntityCache
  3
AcMeServices
 90
     1024
 91
        1
280
     0
281
     0
  0
CLASS
  1
ACGREFMASTER
  2
AcGrefMaster
  3
AcAttribServices
 90
     1024
 91
        1
280
     0
281
     0
  0
CLASS
  1
ACME_DATABASE
  2
AcMeDbDatabase
  3
AcMeServices
 90
     1024
 91
        1
280
     0
281
     0
  0
CLASS
  1
ACRFINSADJUSTERMGR
  2
AcRfInsAdjusterMgr
  3
AcMeServices
 90
     1024
 91
        1
280
     0
281
     0
  0
CLASS
  1
ACGREFACADMASTER
  2
AcGrefacadMaster
  3
AcGrefServices
 90
     1024
 91
        1
280
     0
281
     0
  0
CLASS
  1
AMIMASTER
  2
AmiMaster
  3
AmiServices
 90
     1024
 91
        1
280
     0
281
     0
  0
CLASS
  1
AMDTMENUSTATEMGR
  2
AmdtMenuStateMgr
  3
McadcomServices
 90
     1024
 91
        1
280
     0
281
     0
  0
CLASS
  1
AMDTMCOMMENUSTATE
  2
AmdtMcomMenuState
  3
McadcomServices
 90
     1024
 91
        1
280
     0
281
     0
  0
CLASS
  1
MAPIAMMOUDLE
  2
MApiAmModule
  3
MApiAmServices
 90
     1024
 91
        1
280
     0
281
     0
  0
CLASS
  1
ACIMSTRSYSVAR
  2
AcImStrSysVar
  3
AcMeServices
 90
     1024
 91
        5
280
     0
281
     0
  0
CLASS
  1
AMDTAMMENUSTATE
  2
AmdtAmMenuState
  3
DesignerAssemblies_arx
 90
     1024
 91
        1
280
     0
281
     0
  0
CLASS
  1
ACAMPROJECT
  2
AcAmProject
  3
DesignerAssemblies
 90
     1024
 91
        1
280
     0
281
     0
  0
CLASS
  1
ACAMGRCOMPDEF
  2
AcAmGrCompDef
  3
DesignerAssemblies
 90
     1024
 91
        1
280
     0
281
     0
  0
CLASS
  1
ACAMCOMPDEF
  2
AcAmCompDef
  3
DesignerAssemblies
 90
     1024
 91
        1
280
     0
281
     0
  0
CLASS
  1
ACAMCOMPDEFMGR
  2
AcAmCompDefMgr
  3
DesignerAssemblies
 90
     1024
 91
        1
280
     0
281
     0
  0
CLASS
  1
AMCONTEXTMGR
  2
AcAmContextMgr
  3
DesignerAssemblies
 90
     1024
 91
        1
280
     0
281
     0
  0
CLASS
  1
ACAMCONTEXTMODELER
  2
AcAmContextModeler
  3
DesignerAssemblies
 90
     1024
 91
        1
280
     0
281
     0
  0
CLASS
  1
ACMDATADICTIONARY
  2
AcmDataDictionary
  3
"AcmSymBB|Product Description: AutoCAD Mechanical|Company: Autodesk, Inc."
 90
     1024
 91
        1
280
     0
281
     0
  0
CLASS
  1
ACAMGRCOMPDEFSET
  2
AcAmGrCompDefSet
  3
DesignerAssemblies
 90
     1024
 91
        1
280
     0
281
     0
  0
CLASS
  1
AMDTBROWSERDBTAB
  2
AmdtBrowserDbTab
  3
McadcomServices
 90
     1024
 91
        1
280
     0
281
     0
  0
CLASS
  1
CBROWSERAPPOBJECT
  2
CBrowserAppObject
  3
McadcomServices
 90
     1024
 91
        2
280
     0
281
     0
  0
CLASS
  1
DM_PLACEHOLDER
  2
AcDmSelsetPlaceholder
  3
McadcomServices
 90
     1024
 91
        1
280
     0
281
     0
  0
CLASS
  1
ACMSTANDARDANSI
  2
AcmStandardANSI
  3
"Amdt_StdImp|Product Description: AutoCAD Mechanical|Company: Autodesk, Inc."
 90
     1024
 91
        1
280
     0
281
     0
  0
CLASS
  1
ACMSURFSTANDARDANSI
  2
AcmSurfTextStdANSI
  3
"Amdt_StdImp|Product Description: AutoCAD Mechanical|Company: Autodesk, Inc."
 90
     1024
 91
        1
280
     0
281
     0
  0
CLASS
  1
ACMFCFSTANDARDANSI
  2
AcmFCFStdANSI
  3
"Amdt_StdImp|Product Description: AutoCAD Mechanical|Company: Autodesk, Inc."
 90
     1024
 91
        1
280
     0
281
     0
  0
CLASS
  1
ACMWELDSTANDARDANSI
  2
AcmWeldingStdANSI
  3
"Amdt_StdImp|Product Description: AutoCAD Mechanical|Company: Autodesk, Inc."
 90
     1024
 91
        1
280
     0
281
     0
  0
CLASS
  1
ACMIDSTANDARDANSI
  2
AcmIdStdANSI
  3
"Amdt_StdImp|Product Description: AutoCAD Mechanical|Company: Autodesk, Inc."
 90
     1024
 91
        1
280
     0
281
     0
  0
CLASS
  1
ACMDATUMSTANDARDANSI
  2
AcmDatumStdANSI
  3
"Amdt_StdImp|Product Description: AutoCAD Mechanical|Company: Autodesk, Inc."
 90
     1024
 91
        1
280
     0
281
     0
  0
CLASS
  1
ACMBOMSTANDARDANSI
  2
AcmBOMStdANSI
  3
"Amdt_StdImp|Product Description: AutoCAD Mechanical|Company: Autodesk, Inc."
 90
     1024
 91
        1
280
     0
281
     0
  0
CLASS
  1
ACMDETAILSTANDARDANSI
  2
AmdtDetailSymStdANSI
  3
"Amdt_StdImp|Product Description: AutoCAD Mechanical|Company: Autodesk, Inc."
 90
     1024
 91
        1
280
     0
281
     0
  0
CLASS
  1
ACMSECTIONSTANDARDANSI
  2
AmdtSectionSymStdANSI
  3
"Amdt_StdImp|Product Description: AutoCAD Mechanical|Company: Autodesk, Inc."
 90
     1024
 91
        1
280
     0
281
     0
  0
CLASS
  1
ACMCENTERLINESTANDARDANSI
  2
AmdtCenterLineStdANSI
  3
"Amdt_StdImp|Product Description: AutoCAD Mechanical|Company: Autodesk, Inc."
 90
     1024
 91
        1
280
     0
281
     0
  0
CLASS
  1
ACMTHREADLINESTANDARDANSI
  2
AmdtThreadLineStdANSI
  3
"Amdt_StdImp|Product Description: AutoCAD Mechanical|Company: Autodesk, Inc."
 90
     1024
 91
        1
280
     0
281
     0
  0
CLASS
  1
ACMNOTESTANDARDANSI
  2
AmdtNoteStdANSI
  3
"Amdt_StdImp|Product Description: AutoCAD Mechanical|Company: Autodesk, Inc."
 90
     1024
 91
        1
280
     0
281
     0
  0
CLASS
  1
ACMTAPERSTANDARDANSI
  2
AcmTaperStdANSI
  3
"Amdt_StdImp|Product Description: AutoCAD Mechanical|Company: Autodesk, Inc."
 90
     1024
 91
        1
280
     0
281
     0
  0
CLASS
  1
ACMANOOTATIONVIEWSTANDARDANSI
  2
AmdtAnViewStdANSI
  3
"Amdt_StdImp|Product Description: AutoCAD Mechanical|Company: Autodesk, Inc."
 90
     1024
 91
        1
280
     0
281
     0
  0
CLASS
  1
ACAMGLAYSTD
  2
AcAmgLayStd
  3
"AmgLay|Product Description: AutoCAD Mechanical|Company: Autodesk, Inc."
 90
     1024
 91
        1
280
     0
281
     0
  0
CLASS
  1
ACAMGTITLESTD
  2
AcAmgTitleStd
  3
"AmgTitle|Product Description: AutoCAD Mechanical|Company: Autodesk, Inc."
 90
     1024
 91
        1
280
     0
281
     0
  0
CLASS
  1
ACAMGDIMSTD
  2
AcAmgDimStd
  3
"AmgDim|Product Description: AutoCAD Mechanical|Company: Autodesk, Inc."
 90
     1024
 91
        1
280
     0
281
     0
  0
CLASS
  1
AMGOBJPROPCFG
  2
AmgObjPropCfg
  3
"AmgLay|Product Description: AutoCAD Mechanical|Company: Autodesk, Inc."
 90
     1024
 91
        1
280
     0
281
     0
  0
CLASS
  1
ACAMGHOLECHARTSTDANSI
  2
AcAmgHoleChartStdANSI
  3
"AmgDim" "Product Description: AutoCAD Mechanical|Company: Autodesk, Inc."
 90
     1024
 91
        1
280
     0
281
     0
  0
CLASS
  1
ACMSECTIONSTANDARDCUSTOM
  2
AmdtSectionSymStdCustom
  3
"Amdt_StdImp|Product Description: AutoCAD Mechanical|Company: Autodesk, Inc."
 90
     1024
 91
        1
280
     0
281
     0
  0
CLASS
  1
ACMDETAILTANDARDCUSTOM
  2
AmdtDetailSymStdCustom
  3
"Amdt_StdImp|Product Description: AutoCAD Mechanical|Company: Autodesk, Inc."
 90
     1024
 91
        1
280
     0
281
     0
  0
CLASS
  1
FIELD
  2
AcDbField
  3
ObjectDBX Classes
 90
     1152
 91
        8
280
     0
281
     0
  0
CLASS
  1
FIELDLIST
  2
AcDbFieldList
  3
ObjectDBX Classes
 90
     1152
 91
        1
280
     0
281
     0
  0
CLASS
  1
AMDTNOTETEMPLATEDB
  2
AmdtNoteTemplateDB
  3
"AcmSymBB" "Product Description: AutoCAD Mechanical|Company: Autodesk, Inc."
 90
     1024
 91
        7
280
     0
281
     0
  0
CLASS
  1
ACAMGFILTERDAT
  2
AcAmgFilterDat
  3
"AcadM|Product Description: AutoCAD Mechanical|Company: Autodesk, Inc."
 90
     1024
 91
        6
280
     0
281
     0
  0
CLASS
  1
CELLSTYLEMAP
  2
AcDbCellStyleMap
  3
ObjectDBX Classes
 90
     1152
 91
        1
280
     0
281
     0
  0
ENDSEC
  0
SECTION
  2
TABLES
  0
TABLE
  2
VPORT
  5
1C9
330
0
100
AcDbSymbolTable
 70
     1
  0
VPORT
  5
3C523
330
1C9
100
AcDbSymbolTableRecord
100
AcDbViewportTableRecord
  2
*ACTIVE
 70
     0
 10
0.0
 20
0.0
 11
1.0
 21
1.0
 12
20453.94754597096
 22
13875.65009243047
 13
0.0
 23
0.0
 14
1.0
 24
1.0
 15
0.0
 25
0.0
 16
0.0
 26
0.0
 36
1.0
 17
0.0
 27
0.0
 37
0.0
 40
27953.25543101985
 41
1.901323706377858
 42
50.0
 43
0.0
 44
0.0
 50
0.0
 51
0.0
 71
     0
 72
   100
 73
     1
 74
     1
 75
     0
 76
     0
 77
     0
 78
     0
281
     0
 65
     0
110
0.0
120
0.0
130
0.0
111
1.0
121
0.0
131
0.0
112
0.0
122
1.0
132
0.0
 79
     0
146
0.0
348
3C6FB
 60
     3
 61
     5
292
     1
282
     1
141
0.0
142
0.0
 63
   250
421
  3355443
1001
ACAD_NAV_VCDISPLAY
1070
     3
  0
ENDTAB
  0
TABLE
  2
LTYPE
  5
1C6
330
0
100
AcDbSymbolTable
 70
    19
  0
LTYPE
  5
1D3
330
1C6
100
AcDbSymbolTableRecord
100
AcDbLinetypeTableRecord
  2
BYBLOCK
 70
     0
  3

 72
    65
 73
     0
 40
0.0
  0
LTYPE
  5
1D4
330
1C6
100
AcDbSymbolTableRecord
100
AcDbLinetypeTableRecord
  2
BYLAYER
 70
     0
  3

 72
    65
 73
     0
 40
0.0
  0
LTYPE
  5
1D5
330
1C6
100
AcDbSymbolTableRecord
100
AcDbLinetypeTableRecord
  2
CONTINUOUS
 70
     0
  3
実線
 72
    65
 73
     0
 40
0.0
  0
LTYPE
  5
1EB
330
1C6
100
AcDbSymbolTableRecord
100
AcDbLinetypeTableRecord
  2
CENTER
 70
     0
  3
____ _ ____ _ ____ _ ____ _ ____ _ ____ _ ____
 72
    65
 73
     4
 40
2.0
 49
1.25
 74
     0
 49
-0.25
 74
     0
 49
0.25
 74
     0
 49
-0.25
 74
     0
  0
LTYPE
  5
1ED
330
1C6
100
AcDbSymbolTableRecord
100
AcDbLinetypeTableRecord
  2
DASHED
 70
     0
  3
__ __ __ __ __ __ __ __ __ __ __ __ __ __ __
 72
    65
 73
     2
 40
0.75
 49
0.5
 74
     0
 49
-0.25
 74
     0
  0
LTYPE
  5
287
330
1C6
100
AcDbSymbolTableRecord
100
AcDbLinetypeTableRecord
  2
PHANTOM
 70
     0
  3
______  __  __  ______  __  __  ______  __  __ 
 72
    65
 73
     6
 40
2.5
 49
1.25
 74
     0
 49
-0.25
 74
     0
 49
0.25
 74
     0
 49
-0.25
 74
     0
 49
0.25
 74
     0
 49
-0.25
 74
     0
  0
LTYPE
  5
3C739
330
1C6
100
AcDbSymbolTableRecord
100
AcDbLinetypeTableRecord
  2
HIDDEN
 70
     0
  3
Hidden __ __ __ __ __ __ __ __ __ __ __ __ __ _
 72
    65
 73
     2
 40
0.375
 49
0.25
 74
     0
 49
-0.125
 74
     0
  0
LTYPE
  5
3C73A
330
1C6
100
AcDbSymbolTableRecord
100
AcDbLinetypeTableRecord
  2
PHANTOM2
 70
     0
  3
Phantom (.5x) ___ _ _ ___ _ _ ___ _ _ ___ _ _
 72
    65
 73
     6
 40
1.25
 49
0.625
 74
     0
 49
-0.125
 74
     0
 49
0.125
 74
     0
 49
-0.125
 74
     0
 49
0.125
 74
     0
 49
-0.125
 74
     0
  0
LTYPE
  5
3C775
330
1C6
100
AcDbSymbolTableRecord
100
AcDbLinetypeTableRecord
  2
AM_ISO02W050
 70
     0
  3
__ __ __ __ __ __ __ __ __ __ __ __ __ __ __
 72
    65
 73
     2
 40
7.5
 49
6.0
 74
     0
 49
-1.5
 74
     0
  0
LTYPE
  5
3C776
330
1C6
100
AcDbSymbolTableRecord
100
AcDbLinetypeTableRecord
  2
AM_ISO08W050
 70
     0
  3
____ . ____ . ____ . ____ . ____ . ____ . ____
 72
    65
 73
     4
 40
18.0
 49
12.0
 74
     0
 49
-1.5
 74
     0
 49
3.0
 74
     0
 49
-1.5
 74
     0
  0
LTYPE
  5
3C777
330
1C6
100
AcDbSymbolTableRecord
100
AcDbLinetypeTableRecord
  2
AM_ISO09W050
 70
     0
  3
_____ . . _____ . . _____ . . ____ .. ____
 72
    65
 73
     6
 40
22.5
 49
12.0
 74
     0
 49
-1.5
 74
     0
 49
3.0
 74
     0
 49
-1.5
 74
     0
 49
3.0
 74
     0
 49
-1.5
 74
     0
  0
LTYPE
  5
3C778
330
1C6
100
AcDbSymbolTableRecord
100
AcDbLinetypeTableRecord
  2
Amconstr
 70
     0
  3
_______________________
 72
    65
 73
     2
 40
9999.0
 49
9999.0
 74
     0
 49
0.0
 74
     0
  0
LTYPE
  5
3C779
330
1C6
100
AcDbSymbolTableRecord
100
AcDbLinetypeTableRecord
  2
AM_ISO08W050x2
 70
     0
  3
__ . __ . __ . __ . __ . __
 72
    65
 73
     4
 40
9.0
 49
6.0
 74
     0
 49
-0.75
 74
     0
 49
1.5
 74
     0
 49
-0.75
 74
     0
  0
LTYPE
  5
3C77A
330
1C6
100
AcDbSymbolTableRecord
100
AcDbLinetypeTableRecord
  2
AM_ISO02W050x2
 70
     0
  3
 _ _ _ _ _ _ _ _ _ _ _ _
 72
    65
 73
     2
 40
3.75
 49
3.0
 74
     0
 49
-0.75
 74
     0
  0
LTYPE
  5
3C77D
330
1C6
100
AcDbSymbolTableRecord
100
AcDbLinetypeTableRecord
  2
Amzigzag
 70
     0
  3
/\/-/\/-/\/-/\/-/\/-/\/
 72
    65
 73
     2
 40
11.0001
 49
0.0001
 74
     4
 75
   136
340
3C77C
 46
0.04
 50
0.0
 44
0.0
 45
0.0
 49
-11.0
 74
     0
  0
LTYPE
  5
3C77E
330
1C6
100
AcDbSymbolTableRecord
100
AcDbLinetypeTableRecord
  2
CENTER2
 70
     0
  3
Center (.5x) ___ _ ___ _ ___ _ ___ _ ___ _ ___
 72
    65
 73
     4
 40
1.125
 49
0.75
 74
     0
 49
-0.125
 74
     0
 49
0.125
 74
     0
 49
-0.125
 74
     0
  0
LTYPE
  5
3C77F
330
1C6
100
AcDbSymbolTableRecord
100
AcDbLinetypeTableRecord
  2
HIDDEN2
 70
     0
  3
Hidden (.5x) _ _ _ _ _ _ _ _ _ _ _ _ _ _ _ _ _
 72
    65
 73
     2
 40
0.1875
 49
0.125
 74
     0
 49
-0.0625
 74
     0
  0
LTYPE
  5
3C780
330
1C6
100
AcDbSymbolTableRecord
100
AcDbLinetypeTableRecord
  2
Amzigzag2
 70
     0
  3
/\/-/\/-/\/-/\/-/\/-/\/
 72
    65
 73
     2
 40
0.4401
 49
0.0001
 74
     4
 75
   136
340
3C77C
 46
0.0016
 50
0.0
 44
0.0
 45
0.0
 49
-0.4400000000000001
 74
     0
  0
LTYPE
  5
3C78F
330
1C6
100
AcDbSymbolTableRecord
100
AcDbLinetypeTableRecord
  2
ACANSTGB
 70
     0
  3
__ . . __ . .
 72
    65
 73
     6
 40
0.35433070866
 49
0.15748031496
 74
     0
 49
-0.03937007874
 74
     0
 49
0.03937007874
 74
     0
 49
-0.03937007874
 74
     0
 49
0.03937007874
 74
     0
 49
-0.03937007874
 74
     0
  0
LTYPE
  5
3C790
330
1C6
100
AcDbSymbolTableRecord
100
AcDbLinetypeTableRecord
  2
ACANSTGL
 70
     0
  3
_ _ _ _ _
 72
    65
 73
     2
 40
0.11811023622
 49
0.07874015748
 74
     0
 49
-0.03937007874
 74
     0
  0
ENDTAB
  0
TABLE
  2
LAYER
  5
1C3
102
{ACAD_XDICTIONARY
360
2BC9D
102
}
330
0
100
AcDbSymbolTable
 70
     9
  0
LAYER
  5
1D0
102
{ACAD_XDICTIONARY
360
3C7B6
102
}
330
1C3
100
AcDbSymbolTableRecord
100
AcDbLayerTableRecord
  2
0
 70
     0
 62
     7
  6
CONTINUOUS
370
    -3
390
3C6DB
347
3C6ED
  0
LAYER
  5
1F8
102
{ACAD_XDICTIONARY
360
3C7B8
102
}
330
1C3
100
AcDbSymbolTableRecord
100
AcDbLayerTableRecord
  2
1
 70
     0
 62
     4
  6
CONTINUOUS
370
    -3
390
3C6DB
347
3C6ED
  0
LAYER
  5
1FA
102
{ACAD_XDICTIONARY
360
3C7BA
102
}
330
1C3
100
AcDbSymbolTableRecord
100
AcDbLayerTableRecord
  2
CENTER
 70
     0
 62
     1
  6
CENTER
370
    -3
390
3C6DB
347
3C6ED
  0
LAYER
  5
1FB
102
{ACAD_XDICTIONARY
360
3C7BC
102
}
330
1C3
100
AcDbSymbolTableRecord
100
AcDbLayerTableRecord
  2
GAWA
 70
     0
 62
     2
  6
CONTINUOUS
370
    -3
390
3C6DB
347
3C6ED
  0
LAYER
  5
1FD
102
{ACAD_XDICTIONARY
360
3C7BE
102
}
330
1C3
100
AcDbSymbolTableRecord
100
AcDbLayerTableRecord
  2
SCALE
 70
     0
 62
     4
  6
CONTINUOUS
370
    -3
390
3C6DB
347
3C6ED
  0
LAYER
  5
1FE
102
{ACAD_XDICTIONARY
360
3C7C0
102
}
330
1C3
100
AcDbSymbolTableRecord
100
AcDbLayerTableRecord
  2
UL1
 70
     0
 62
     3
  6
PHANTOM
370
    -3
390
3C6DB
347
3C6ED
  0
LAYER
  5
205
102
{ACAD_XDICTIONARY
360
3C7C2
102
}
330
1C3
100
AcDbSymbolTableRecord
100
AcDbLayerTableRecord
  2
KARISEN
 70
     0
 62
     5
  6
DASHED
370
    -3
390
3C6DB
347
3C6ED
  0
LAYER
  5
10732
102
{ACAD_XDICTIONARY
360
3C7C4
102
}
330
1C3
100
AcDbSymbolTableRecord
100
AcDbLayerTableRecord
  2
255
 70
     0
 62
     7
  6
CONTINUOUS
370
    -3
390
3C6DB
347
3C6ED
  0
LAYER
  5
10C21
102
{ACAD_XDICTIONARY
360
3C7C6
102
}
330
1C3
100
AcDbSymbolTableRecord
100
AcDbLayerTableRecord
  2
3
 70
     0
 62
     7
  6
CONTINUOUS
370
    -3
390
3C6DB
347
3C6ED
  0
ENDTAB
  0
TABLE
  2
STYLE
  5
1C4
330
0
100
AcDbSymbolTable
 70
     4
  0
STYLE
  5
1D1
330
1C4
100
AcDbSymbolTableRecord
100
AcDbTextStyleTableRecord
  2
STANDARD
 70
     0
 40
0.0
 41
1.0
 50
0.0
 71
     0
 42
150.0
  3
TXT
  4
BIGFONT
  0
STYLE
  5
3C77C
330
1C4
100
AcDbSymbolTableRecord
100
AcDbTextStyleTableRecord
  2

 70
     1
 40
0.0
 41
1.0
 50
0.0
 71
     0
 42
150.0
  3
genltshp.shx
  4

  0
STYLE
  5
3C78D
330
1C4
100
AcDbSymbolTableRecord
100
AcDbTextStyleTableRecord
  2
ACANSTS
 70
     0
 40
0.0
 41
1.0
 50
0.0
 71
     0
 42
150.0
  3
romans.shx
  4

  0
STYLE
  5
3C78E
330
1C4
100
AcDbSymbolTableRecord
100
AcDbTextStyleTableRecord
  2
ACANSGDT
 70
     0
 40
0.0
 41
1.0
 50
0.0
 71
     0
 42
150.0
  3
amgdt.shx
  4

  0
ENDTAB
  0
TABLE
  2
VIEW
  5
1C7
330
0
100
AcDbSymbolTable
 70
     0
  0
ENDTAB
  0
TABLE
  2
UCS
  5
1C8
330
0
100
AcDbSymbolTable
 70
     0
  0
ENDTAB
  0
TABLE
  2
APPID
  5
1CA
330
0
100
AcDbSymbolTable
 70
    11
  0
APPID
  5
1D2
330
1CA
100
AcDbSymbolTableRecord
100
AcDbRegAppTableRecord
  2
ACAD
 70
     0
  0
APPID
  5
286
330
1CA
100
AcDbSymbolTableRecord
100
AcDbRegAppTableRecord
  2
ACE-LT__COPYRIGHT_TRIALSOFT-JPN
 70
     0
  0
APPID
  5
3C732
330
1CA
100
AcDbSymbolTableRecord
100
AcDbRegAppTableRecord
  2
MCAD_NO_VIS
 70
     0
  0
APPID
  5
3C733
330
1CA
100
AcDbSymbolTableRecord
100
AcDbRegAppTableRecord
  2
ACAD_TEMP_GRAPHIC
 70
     0
  0
APPID
  5
3C73F
330
1CA
100
AcDbSymbolTableRecord
100
AcDbRegAppTableRecord
  2
ACATTRIBSERVICES
 70
     0
  0
APPID
  5
3C757
330
1CA
100
AcDbSymbolTableRecord
100
AcDbRegAppTableRecord
  2
DESIGNERASSEMBLIES
 70
     0
  0
APPID
  5
3C772
330
1CA
100
AcDbSymbolTableRecord
100
AcDbRegAppTableRecord
  2
ACAD_DSTYLE_DIMJAG
 70
     0
  0
APPID
  5
3C773
330
1CA
100
AcDbSymbolTableRecord
100
AcDbRegAppTableRecord
  2
ACAD_DSTYLE_DIMBREAK
 70
     0
  0
APPID
  5
3C7AC
330
1CA
100
AcDbSymbolTableRecord
100
AcDbRegAppTableRecord
  2
ACAD_NAV_VCDISPLAY
 70
     0
  0
APPID
  5
3C7AD
330
1CA
100
AcDbSymbolTableRecord
100
AcDbRegAppTableRecord
  2
ACAD_EXEMPT_FROM_CAD_STANDARDS
 70
     0
  0
APPID
  5
3C806
330
1CA
100
AcDbSymbolTableRecord
100
AcDbRegAppTableRecord
  2
ACAD_MLEADERVER
 70
     0
  0
ENDTAB
  0
TABLE
  2
DIMSTYLE
  5
1CB
330
0
100
AcDbSymbolTable
 70
     7
100
AcDbDimStyleTable
 71
     0
  0
DIMSTYLE
105
1F1
330
1CB
100
AcDbSymbolTableRecord
100
AcDbDimStyleTableRecord
  2
YAZ1
 70
     0
 40
50.0
 41
2.0
 42
0.1
 43
7.0
 44
1.8
 73
     0
 74
     0
 78
     9
140
2.5
141
0.1
145
1.0
147
0.0
172
     1
173
     1
176
   256
177
   256
178
   256
271
     3
272
     3
284
     9
285
     9
286
     9
340
1D1
341
254
343
254
344
254
  0
DIMSTYLE
105
3C771
102
{ACAD_REACTORS
330
3C760
102
}
330
1CB
100
AcDbSymbolTableRecord
100
AcDbDimStyleTableRecord
  2
AM_ANSI
 70
     0
  4
mm
 41
0.12
 42
0.05
 43
0.5
 44
0.1
 47
0.1
 48
0.1
 78
     7
 79
     2
 90
        1
140
0.12
141
0.0
146
0.71
147
0.06
176
   256
177
   256
178
     2
274
     4
284
     7
340
1D1
345
1D3
346
1D3
347
1D3
371
    -1
372
    -1
1001
ACAD_DSTYLE_DIMJAG
1070
   388
1040
1.5
1001
ACAD_DSTYLE_DIMBREAK
1070
   391
1040
0.125
  0
DIMSTYLE
105
3C781
330
1CB
100
AcDbSymbolTableRecord
100
AcDbDimStyleTableRecord
  2
AM_ANSI$3
 70
     0
  4
mm
 41
0.12
 42
0.05
 43
0.5
 44
0.1
 47
0.1
 48
0.1
 78
     7
 79
     2
 90
        1
140
0.12
141
0.0
146
0.71
147
0.06
176
   256
177
   256
178
     2
274
     4
284
     7
288
     1
289
     0
340
1D1
345
1D3
346
1D3
347
1D3
371
    -1
372
    -1
1001
ACAD_DSTYLE_DIMBREAK
1070
   391
1040
0.125
1001
ACAD_DSTYLE_DIMJAG
1070
   388
1040
1.5
  0
DIMSTYLE
105
3C782
330
1CB
100
AcDbSymbolTableRecord
100
AcDbDimStyleTableRecord
  2
AM_ANSI$4
 70
     0
  4
mm
 41
0.12
 42
0.05
 43
0.5
 44
0.1
 47
0.1
 48
0.1
 78
     7
 79
     2
 90
        1
140
0.12
141
0.0
146
0.71
147
0.06
176
   256
177
   256
178
     2
274
     4
284
     7
288
     1
289
     0
340
1D1
345
1D3
346
1D3
347
1D3
371
    -1
372
    -1
1001
ACAD_DSTYLE_DIMBREAK
1070
   391
1040
0.125
1001
ACAD_DSTYLE_DIMJAG
1070
   388
1040
1.5
  0
DIMSTYLE
105
3C783
330
1CB
100
AcDbSymbolTableRecord
100
AcDbDimStyleTableRecord
  2
AM_ANSI$7
 70
     0
  4
mm
 41
0.12
 42
0.05
 43
0.5
 44
0.1
 47
0.1
 48
0.1
 78
     7
 79
     2
 90
        1
140
0.12
141
0.0
146
0.71
147
0.06
176
   256
177
   256
178
     2
274
     4
284
     7
340
1D1
345
1D3
346
1D3
347
1D3
371
    -1
372
    -1
1001
ACAD_DSTYLE_DIMBREAK
1070
   391
1040
0.125
1001
ACAD_DSTYLE_DIMJAG
1070
   388
1040
1.5
  0
DIMSTYLE
105
3C784
330
1CB
100
AcDbSymbolTableRecord
100
AcDbDimStyleTableRecord
  2
AM_ANSI$SF
 70
     0
  4
mm
 41
0.12
 42
0.05
 43
0.5
 44
0.1
 47
0.1
 48
0.1
 75
     1
 76
     1
 78
     7
 79
     2
 90
        1
140
0.12
141
0.0
146
0.71
147
0.06
176
   256
177
   256
178
     2
274
     4
284
     7
340
1D1
345
1D3
346
1D3
347
1D3
371
    -1
372
    -1
1001
ACAD_DSTYLE_DIMBREAK
1070
   391
1040
0.125
1001
ACAD_DSTYLE_DIMJAG
1070
   388
1040
1.5
  0
DIMSTYLE
105
3C789
330
1CB
100
AcDbSymbolTableRecord
100
AcDbDimStyleTableRecord
  2
AM_ANSI$SH
 70
     0
  4
mm
 41
0.12
 42
0.05
 43
0.5
 44
0.1
 47
0.1
 48
0.1
 75
     1
 76
     1
 78
     7
 79
     2
 90
        1
140
0.12
141
0.0
146
0.71
147
0.06
173
     1
176
   256
177
   256
178
     2
274
     4
284
     7
340
1D1
343
3C785
345
1D3
346
1D3
347
1D3
371
    -1
372
    -1
1001
ACAD_DSTYLE_DIMBREAK
1070
   391
1040
0.125
1001
ACAD_DSTYLE_DIMJAG
1070
   388
1040
1.5
  0
ENDTAB
  0
TABLE
  2
BLOCK_RECORD
  5
1C2
330
0
100
AcDbSymbolTable
 70
    12
  0
BLOCK_RECORD
  5
1D9
102
{ACAD_XDICTIONARY
360
3C529
102
}
330
1C2
100
AcDbSymbolTableRecord
100
AcDbBlockTableRecord
  2
*MODEL_SPACE
340
3C729
 70
     0
280
     1
281
     0
  0
BLOCK_RECORD
  5
1D6
102
{ACAD_XDICTIONARY
360
3C527
102
}
330
1C2
100
AcDbSymbolTableRecord
100
AcDbBlockTableRecord
  2
*PAPER_SPACE
340
3C72A
 70
     0
280
     1
281
     0
  0
BLOCK_RECORD
  5
254
330
1C2
100
AcDbSymbolTableRecord
100
AcDbBlockTableRecord
  2
YAZ1
340
0
 70
     0
280
     1
281
     0
  0
BLOCK_RECORD
  5
2F0
330
1C2
100
AcDbSymbolTableRecord
100
AcDbBlockTableRecord
  2
INSLYTXT
340
0
102
{BLKREFS
331
378
102
}
 70
     0
280
     1
281
     0
  0
BLOCK_RECORD
  5
3C564
330
1C2
100
AcDbSymbolTableRecord
100
AcDbBlockTableRecord
  2
*X2
340
0
 70
     0
280
     1
281
     0
  0
BLOCK_RECORD
  5
3C591
330
1C2
100
AcDbSymbolTableRecord
100
AcDbBlockTableRecord
  2
*X3
340
0
 70
     0
280
     1
281
     0
  0
BLOCK_RECORD
  5
3C5C0
330
1C2
100
AcDbSymbolTableRecord
100
AcDbBlockTableRecord
  2
*X4
340
0
 70
     0
280
     1
281
     0
  0
BLOCK_RECORD
  5
3C5DE
330
1C2
100
AcDbSymbolTableRecord
100
AcDbBlockTableRecord
  2
*X5
340
0
 70
     0
280
     1
281
     0
  0
BLOCK_RECORD
  5
3C5F9
330
1C2
100
AcDbSymbolTableRecord
100
AcDbBlockTableRecord
  2
*X6
340
0
 70
     0
280
     1
281
     0
  0
BLOCK_RECORD
  5
3C648
330
1C2
100
AcDbSymbolTableRecord
100
AcDbBlockTableRecord
  2
*X7
340
0
 70
     0
280
     1
281
     0
  0
BLOCK_RECORD
  5
3C68F
330
1C2
100
AcDbSymbolTableRecord
100
AcDbBlockTableRecord
  2
*X8
340
0
 70
     0
280
     1
281
     0
  0
BLOCK_RECORD
  5
3C785
330
1C2
100
AcDbSymbolTableRecord
100
AcDbBlockTableRecord
  2
GENAXEH
340
0
 70
     0
280
     1
281
     0
  0
BLOCK_RECORD
  5
3C792
330
1C2
100
AcDbSymbolTableRecord
100
AcDbBlockTableRecord
  2
_ACMFILLEDHALF
340
0
 70
     0
280
     1
281
     0
  0
ENDTAB
  0
ENDSEC
  0
SECTION
  2
BLOCKS
  0
BLOCK
  5
20A
330
1D9
100
AcDbEntity
  8
0
100
AcDbBlockBegin
  2
*MODEL_SPACE
 70
     0
 10
0.0
 20
0.0
 30
0.0
  3
*MODEL_SPACE
  1

  0
ENDBLK
  5
20B
330
1D9
100
AcDbEntity
  8
0
100
AcDbBlockEnd
  0
BLOCK
  5
208
330
1D6
100
AcDbEntity
 67
     1
  8
0
100
AcDbBlockBegin
  2
*PAPER_SPACE
 70
     0
 10
0.0
 20
0.0
 30
0.0
  3
*PAPER_SPACE
  1

  0
ENDBLK
  5
209
330
1D6
100
AcDbEntity
 67
     1
  8
0
100
AcDbBlockEnd
  0
BLOCK
  5
258
330
254
100
AcDbEntity
  8
0
100
AcDbBlockBegin
  2
YAZ1
 70
     0
 10
0.0
 20
0.0
 30
0.0
  3
YAZ1
  1

  0
LINE
  5
255
330
254
100
AcDbEntity
  8
0
100
AcDbLine
 10
0.0
 20
0.0
 30
0.0
 11
-1.0
 21
-0.2679491924311037
 31
0.0
  0
LINE
  5
256
330
254
100
AcDbEntity
  8
0
100
AcDbLine
 10
0.0
 20
0.0
 30
0.0
 11
-1.0
 21
0.2679491924311037
 31
0.0
  0
LINE
  5
257
330
254
100
AcDbEntity
  8
0
100
AcDbLine
 10
-1.0
 20
0.0
 30
0.0
 11
0.0
 21
0.0
 31
0.0
  0
ENDBLK
  5
259
330
254
100
AcDbEntity
  8
0
100
AcDbBlockEnd
  0
BLOCK
  5
2F1
330
2F0
100
AcDbEntity
  8
0
100
AcDbBlockBegin
  2
INSLYTXT
 70
     0
 10
0.0
 20
0.0
 30
0.0
  3
INSLYTXT
  1

  0
ENDBLK
  5
2F2
330
2F0
100
AcDbEntity
  8
0
100
AcDbBlockEnd
  0
BLOCK
  5
3C58F
330
3C564
100
AcDbEntity
  8
0
100
AcDbBlockBegin
  2
*X2
 70
     1
 10
0.0
 20
0.0
 30
0.0
  3
*X2
  1

  0
LINE
  5
3C565
330
3C564
100
AcDbEntity
  8
0
 62
     0
100
AcDbLine
 10
2214.053201147446
 20
3870.495280056468
 30
0.0
 11
2316.837849971935
 21
3973.279928880956
 31
0.0
  0
LINE
  5
3C566
330
3C564
100
AcDbEntity
  8
0
 62
     0
100
AcDbLine
 10
2216.837849971935
 20
4007.983770696994
 30
0.0
 11
2316.837849971935
 21
4107.983770696994
 31
0.0
  0
LINE
  5
3C567
330
3C564
100
AcDbEntity
  8
0
 62
     0
100
AcDbLine
 10
2079.349359331409
 20
3870.495280056468
 30
0.0
 11
2179.349359331409
 21
3970.495280056468
 31
0.0
  0
LINE
  5
3C568
330
3C564
100
AcDbEntity
  8
0
 62
     0
100
AcDbLine
 10
2216.837849971935
 20
4142.687612513031
 30
0.0
 11
2316.837849971935
 21
4242.687612513031
 31
0.0
  0
LINE
  5
3C569
330
3C564
100
AcDbEntity
  8
0
 62
     0
100
AcDbLine
 10
1944.645517515372
 20
3870.495280056468
 30
0.0
 11
2044.645517515372
 21
3970.495280056468
 31
0.0
  0
LINE
  5
3C56A
330
3C564
100
AcDbEntity
  8
0
 62
     0
100
AcDbLine
 10
2216.837849971935
 20
4277.391454329069
 30
0.0
 11
2316.837849971935
 21
4377.391454329068
 31
0.0
  0
LINE
  5
3C56B
330
3C564
100
AcDbEntity
  8
0
 62
     0
100
AcDbLine
 10
1809.941675699334
 20
3870.495280056468
 30
0.0
 11
1909.941675699334
 21
3970.495280056468
 31
0.0
  0
LINE
  5
3C56C
330
3C564
100
AcDbEntity
  8
0
 62
     0
100
AcDbLine
 10
2216.837849971935
 20
4412.095296145106
 30
0.0
 11
2316.837849971935
 21
4512.095296145106
 31
0.0
  0
LINE
  5
3C56D
330
3C564
100
AcDbEntity
  8
0
 62
     0
100
AcDbLine
 10
1675.237833883297
 20
3870.495280056468
 30
0.0
 11
1775.237833883298
 21
3970.495280056468
 31
0.0
  0
LINE
  5
3C56E
330
3C564
100
AcDbEntity
  8
0
 62
     0
100
AcDbLine
 10
2216.837849971935
 20
4546.799137961143
 30
0.0
 11
2316.837849971935
 21
4646.799137961143
 31
0.0
  0
LINE
  5
3C56F
330
3C564
100
AcDbEntity
  8
0
 62
     0
100
AcDbLine
 10
1540.53399206726
 20
3870.495280056468
 30
0.0
 11
1640.53399206726
 21
3970.495280056468
 31
0.0
  0
LINE
  5
3C570
330
3C564
100
AcDbEntity
  8
0
 62
     0
100
AcDbLine
 10
2216.837849971935
 20
4681.502979777181
 30
0.0
 11
2316.837849971935
 21
4781.502979777179
 31
0.0
  0
LINE
  5
3C571
330
3C564
100
AcDbEntity
  8
0
 62
     0
100
AcDbLine
 10
1405.830150251222
 20
3870.495280056468
 30
0.0
 11
1505.830150251223
 21
3970.495280056468
 31
0.0
  0
LINE
  5
3C572
330
3C564
100
AcDbEntity
  8
0
 62
     0
100
AcDbLine
 10
2216.837849971935
 20
4816.206821593215
 30
0.0
 11
2316.837849971935
 21
4916.206821593218
 31
0.0
  0
LINE
  5
3C573
330
3C564
100
AcDbEntity
  8
0
 62
     0
100
AcDbLine
 10
1271.126308435185
 20
3870.495280056468
 30
0.0
 11
1371.126308435185
 21
3970.495280056468
 31
0.0
  0
LINE
  5
3C574
330
3C564
100
AcDbEntity
  8
0
 62
     0
100
AcDbLine
 10
2216.837849971935
 20
4950.910663409254
 30
0.0
 11
2316.837849971935
 21
5050.910663409255
 31
0.0
  0
LINE
  5
3C575
330
3C564
100
AcDbEntity
  8
0
 62
     0
100
AcDbLine
 10
1216.837849971938
 20
3950.910663409258
 30
0.0
 11
1316.837849971937
 21
4050.910663409257
 31
0.0
  0
LINE
  5
3C576
330
3C564
100
AcDbEntity
  8
0
 62
     0
100
AcDbLine
 10
2216.837849971935
 20
5085.614505225291
 30
0.0
 11
2316.837849971935
 21
5185.614505225291
 31
0.0
  0
LINE
  5
3C577
330
3C564
100
AcDbEntity
  8
0
 62
     0
100
AcDbLine
 10
1216.837849971938
 20
4085.614505225295
 30
0.0
 11
1316.837849971937
 21
4185.614505225294
 31
0.0
  0
LINE
  5
3C578
330
3C564
100
AcDbEntity
  8
0
 62
     0
100
AcDbLine
 10
2216.837849971935
 20
5220.318347041327
 30
0.0
 11
2316.837849971935
 21
5320.31834704133
 31
0.0
  0
LINE
  5
3C579
330
3C564
100
AcDbEntity
  8
0
 62
     0
100
AcDbLine
 10
1216.837849971938
 20
4220.318347041331
 30
0.0
 11
1316.837849971937
 21
4320.318347041331
 31
0.0
  0
LINE
  5
3C57A
330
3C564
100
AcDbEntity
  8
0
 62
     0
100
AcDbLine
 10
2216.837849971935
 20
5355.022188857366
 30
0.0
 11
2316.837849971935
 21
5455.022188857367
 31
0.0
  0
LINE
  5
3C57B
330
3C564
100
AcDbEntity
  8
0
 62
     0
100
AcDbLine
 10
1216.837849971938
 20
4355.022188857367
 30
0.0
 11
1316.837849971937
 21
4455.022188857369
 31
0.0
  0
LINE
  5
3C57C
330
3C564
100
AcDbEntity
  8
0
 62
     0
100
AcDbLine
 10
2216.837849971935
 20
5489.726030673402
 30
0.0
 11
2316.837849971935
 21
5589.726030673404
 31
0.0
  0
LINE
  5
3C57D
330
3C564
100
AcDbEntity
  8
0
 62
     0
100
AcDbLine
 10
1216.837849971938
 20
4489.726030673406
 30
0.0
 11
1316.837849971937
 21
4589.726030673406
 31
0.0
  0
LINE
  5
3C57E
330
3C564
100
AcDbEntity
  8
0
 62
     0
100
AcDbLine
 10
2216.837849971935
 20
5624.429872489439
 30
0.0
 11
2316.837849971935
 21
5724.429872489441
 31
0.0
  0
LINE
  5
3C57F
330
3C564
100
AcDbEntity
  8
0
 62
     0
100
AcDbLine
 10
1216.837849971937
 20
4624.429872489444
 30
0.0
 11
1316.837849971937
 21
4724.429872489444
 31
0.0
  0
LINE
  5
3C580
330
3C564
100
AcDbEntity
  8
0
 62
     0
100
AcDbLine
 10
2194.12524201199
 20
5736.421106345535
 30
0.0
 11
2294.125242011992
 21
5836.421106345536
 31
0.0
  0
LINE
  5
3C581
330
3C564
100
AcDbEntity
  8
0
 62
     0
100
AcDbLine
 10
1216.837849971937
 20
4759.13371430548
 30
0.0
 11
1316.837849971937
 21
4859.133714305481
 31
0.0
  0
LINE
  5
3C582
330
3C564
100
AcDbEntity
  8
0
 62
     0
100
AcDbLine
 10
2059.421400195953
 20
5736.421106345535
 30
0.0
 11
2159.421400195955
 21
5836.421106345536
 31
0.0
  0
LINE
  5
3C583
330
3C564
100
AcDbEntity
  8
0
 62
     0
100
AcDbLine
 10
1216.837849971937
 20
4893.837556121519
 30
0.0
 11
1316.837849971937
 21
4993.837556121518
 31
0.0
  0
LINE
  5
3C584
330
3C564
100
AcDbEntity
  8
0
 62
     0
100
AcDbLine
 10
1924.717558379917
 20
5736.421106345535
 30
0.0
 11
2024.717558379918
 21
5836.421106345536
 31
0.0
  0
LINE
  5
3C585
330
3C564
100
AcDbEntity
  8
0
 62
     0
100
AcDbLine
 10
1216.837849971937
 20
5028.541397937555
 30
0.0
 11
1316.837849971937
 21
5128.541397937556
 31
0.0
  0
LINE
  5
3C586
330
3C564
100
AcDbEntity
  8
0
 62
     0
100
AcDbLine
 10
1790.01371656388
 20
5736.421106345535
 30
0.0
 11
1890.013716563881
 21
5836.421106345536
 31
0.0
  0
LINE
  5
3C587
330
3C564
100
AcDbEntity
  8
0
 62
     0
100
AcDbLine
 10
1216.837849971938
 20
5163.245239753592
 30
0.0
 11
1316.837849971937
 21
5263.245239753594
 31
0.0
  0
LINE
  5
3C588
330
3C564
100
AcDbEntity
  8
0
 62
     0
100
AcDbLine
 10
1655.309874747842
 20
5736.421106345535
 30
0.0
 11
1755.309874747844
 21
5836.421106345536
 31
0.0
  0
LINE
  5
3C589
330
3C564
100
AcDbEntity
  8
0
 62
     0
100
AcDbLine
 10
1216.837849971938
 20
5297.94908156963
 30
0.0
 11
1316.837849971937
 21
5397.94908156963
 31
0.0
  0
LINE
  5
3C58A
330
3C564
100
AcDbEntity
  8
0
 62
     0
100
AcDbLine
 10
1520.606032931806
 20
5736.421106345535
 30
0.0
 11
1620.606032931806
 21
5836.421106345536
 31
0.0
  0
LINE
  5
3C58B
330
3C564
100
AcDbEntity
  8
0
 62
     0
100
AcDbLine
 10
1216.837849971938
 20
5432.652923385667
 30
0.0
 11
1316.837849971937
 21
5532.652923385668
 31
0.0
  0
LINE
  5
3C58C
330
3C564
100
AcDbEntity
  8
0
 62
     0
100
AcDbLine
 10
1385.902191115769
 20
5736.421106345535
 30
0.0
 11
1485.902191115769
 21
5836.421106345536
 31
0.0
  0
LINE
  5
3C58D
330
3C564
100
AcDbEntity
  8
0
 62
     0
100
AcDbLine
 10
1216.837849971938
 20
5567.356765201704
 30
0.0
 11
1316.837849971937
 21
5667.356765201706
 31
0.0
  0
LINE
  5
3C58E
330
3C564
100
AcDbEntity
  8
0
 62
     0
100
AcDbLine
 10
1216.837849971938
 20
5702.060607017742
 30
0.0
 11
1351.198349299732
 21
5836.421106345536
 31
0.0
  0
ENDBLK
  5
3C590
330
3C564
100
AcDbEntity
  8
0
100
AcDbBlockEnd
  0
BLOCK
  5
3C5BE
330
3C591
100
AcDbEntity
  8
0
100
AcDbBlockBegin
  2
*X3
 70
     1
 10
0.0
 20
0.0
 30
0.0
  3
*X3
  1

  0
LINE
  5
3C592
330
3C591
100
AcDbEntity
  8
0
 62
     0
100
AcDbLine
 10
2316.837849971934
 20
3453.679929436225
 30
0.0
 11
2516.837849971935
 21
3653.679929436226
 31
0.0
  0
LINE
  5
3C593
330
3C591
100
AcDbEntity
  8
0
 62
     0
100
AcDbLine
 10
2316.837849971935
 20
3902.692735489684
 30
0.0
 11
2516.837849971937
 21
4102.692735489685
 31
0.0
  0
LINE
  5
3C594
330
3C591
100
AcDbEntity
  8
0
 62
     0
100
AcDbLine
 10
2316.837849971935
 20
4351.705541543142
 30
0.0
 11
2516.837849971936
 21
4551.705541543141
 31
0.0
  0
LINE
  5
3C595
330
3C591
100
AcDbEntity
  8
0
 62
     0
100
AcDbLine
 10
1197.761525097738
 20
3232.629216668945
 30
0.0
 11
1216.837849971939
 21
3251.705541543146
 31
0.0
  0
LINE
  5
3C596
330
3C591
100
AcDbEntity
  8
0
 62
     0
100
AcDbLine
 10
2316.837849971935
 20
4800.7183475966
 30
0.0
 11
2516.837849971937
 21
5000.718347596603
 31
0.0
  0
LINE
  5
3C597
330
3C591
100
AcDbEntity
  8
0
 62
     0
100
AcDbLine
 10
1016.837849971935
 20
3500.7183475966
 30
0.0
 11
1216.837849971938
 21
3700.718347596602
 31
0.0
  0
LINE
  5
3C598
330
3C591
100
AcDbEntity
  8
0
 62
     0
100
AcDbLine
 10
2316.837849971935
 20
5249.731153650056
 30
0.0
 11
2516.837849971937
 21
5449.731153650058
 31
0.0
  0
LINE
  5
3C599
330
3C591
100
AcDbEntity
  8
0
 62
     0
100
AcDbLine
 10
1016.837849971936
 20
3949.731153650058
 30
0.0
 11
1216.837849971938
 21
4149.73115365006
 31
0.0
  0
LINE
  5
3C59A
330
3C591
100
AcDbEntity
  8
0
 62
     0
100
AcDbLine
 10
2316.837849971935
 20
5698.743959703516
 30
0.0
 11
2516.837849971937
 21
5898.743959703516
 31
0.0
  0
LINE
  5
3C59B
330
3C591
100
AcDbEntity
  8
0
 62
     0
100
AcDbLine
 10
1016.837849971936
 20
4398.743959703515
 30
0.0
 11
1216.837849971937
 21
4598.743959703517
 31
0.0
  0
LINE
  5
3C59C
330
3C591
100
AcDbEntity
  8
0
 62
     0
100
AcDbLine
 10
2316.837849971936
 20
6147.756765756973
 30
0.0
 11
2516.837849971937
 21
6347.756765756973
 31
0.0
  0
LINE
  5
3C59D
330
3C591
100
AcDbEntity
  8
0
 62
     0
100
AcDbLine
 10
1016.837849971936
 20
4847.756765756973
 30
0.0
 11
1216.837849971936
 21
5047.756765756975
 31
0.0
  0
LINE
  5
3C59E
330
3C591
100
AcDbEntity
  8
0
 62
     0
100
AcDbLine
 10
1016.837849971936
 20
5296.769571810433
 30
0.0
 11
1216.837849971937
 21
5496.769571810432
 31
0.0
  0
LINE
  5
3C59F
330
3C591
100
AcDbEntity
  8
0
 62
     0
100
AcDbLine
 10
1016.837849971936
 20
5745.782377863889
 30
0.0
 11
1216.837849971936
 21
5945.782377863888
 31
0.0
  0
LINE
  5
3C5A0
330
3C591
100
AcDbEntity
  8
0
 62
     0
100
AcDbLine
 10
1016.837849971935
 20
6194.795183917348
 30
0.0
 11
1216.837849971935
 21
6394.795183917348
 31
0.0
  0
LINE
  5
3C5A1
330
3C591
100
AcDbEntity
  8
0
 62
     0
100
AcDbLine
 10
2316.837849971935
 20
3397.553328679542
 30
0.0
 11
2516.837849971935
 21
3597.553328679544
 31
0.0
  0
LINE
  5
3C5A2
330
3C591
100
AcDbEntity
  8
0
 62
     0
100
AcDbLine
 10
2316.837849971935
 20
3846.566134733
 30
0.0
 11
2516.837849971935
 21
4046.566134733001
 31
0.0
  0
LINE
  5
3C5A3
330
3C591
100
AcDbEntity
  8
0
 62
     0
100
AcDbLine
 10
2316.837849971935
 20
4295.578940786458
 30
0.0
 11
2516.837849971935
 21
4495.578940786457
 31
0.0
  0
LINE
  5
3C5A4
330
3C591
100
AcDbEntity
  8
0
 62
     0
100
AcDbLine
 10
2316.837849971935
 20
4744.591746839916
 30
0.0
 11
2516.837849971936
 21
4944.591746839916
 31
0.0
  0
LINE
  5
3C5A5
330
3C591
100
AcDbEntity
  8
0
 62
     0
100
AcDbLine
 10
1016.837849971936
 20
3444.591746839917
 30
0.0
 11
1216.837849971938
 21
3644.59174683992
 31
0.0
  0
LINE
  5
3C5A6
330
3C591
100
AcDbEntity
  8
0
 62
     0
100
AcDbLine
 10
2316.837849971935
 20
5193.604552893376
 30
0.0
 11
2516.837849971937
 21
5393.604552893375
 31
0.0
  0
LINE
  5
3C5A7
330
3C591
100
AcDbEntity
  8
0
 62
     0
100
AcDbLine
 10
1016.837849971936
 20
3893.604552893375
 30
0.0
 11
1216.837849971938
 21
4093.604552893377
 31
0.0
  0
LINE
  5
3C5A8
330
3C591
100
AcDbEntity
  8
0
 62
     0
100
AcDbLine
 10
2316.837849971936
 20
5642.617358946832
 30
0.0
 11
2516.837849971937
 21
5842.617358946832
 31
0.0
  0
LINE
  5
3C5A9
330
3C591
100
AcDbEntity
  8
0
 62
     0
100
AcDbLine
 10
1016.837849971935
 20
4342.617358946832
 30
0.0
 11
1216.837849971937
 21
4542.617358946834
 31
0.0
  0
LINE
  5
3C5AA
330
3C591
100
AcDbEntity
  8
0
 62
     0
100
AcDbLine
 10
2316.837849971936
 20
6091.630165000291
 30
0.0
 11
2516.837849971937
 21
6291.630165000292
 31
0.0
  0
LINE
  5
3C5AB
330
3C591
100
AcDbEntity
  8
0
 62
     0
100
AcDbLine
 10
1016.837849971935
 20
4791.63016500029
 30
0.0
 11
1216.837849971937
 21
4991.630165000291
 31
0.0
  0
LINE
  5
3C5AC
330
3C591
100
AcDbEntity
  8
0
 62
     0
100
AcDbLine
 10
1016.837849971935
 20
5240.642971053748
 30
0.0
 11
1216.837849971936
 21
5440.642971053748
 31
0.0
  0
LINE
  5
3C5AD
330
3C591
100
AcDbEntity
  8
0
 62
     0
100
AcDbLine
 10
1016.837849971935
 20
5689.655777107206
 30
0.0
 11
1216.837849971936
 21
5889.655777107206
 31
0.0
  0
LINE
  5
3C5AE
330
3C591
100
AcDbEntity
  8
0
 62
     0
100
AcDbLine
 10
1016.837849971936
 20
6138.668583160664
 30
0.0
 11
1216.837849971935
 21
6338.668583160663
 31
0.0
  0
LINE
  5
3C5AF
330
3C591
100
AcDbEntity
  8
0
 62
     0
100
AcDbLine
 10
2316.837849971935
 20
3341.426727922861
 30
0.0
 11
2516.837849971935
 21
3541.426727922861
 31
0.0
  0
LINE
  5
3C5B0
330
3C591
100
AcDbEntity
  8
0
 62
     0
100
AcDbLine
 10
2316.837849971935
 20
3790.439533976319
 30
0.0
 11
2516.837849971935
 21
3990.439533976319
 31
0.0
  0
LINE
  5
3C5B1
330
3C591
100
AcDbEntity
  8
0
 62
     0
100
AcDbLine
 10
2316.837849971935
 20
4239.452340029775
 30
0.0
 11
2516.837849971937
 21
4439.452340029777
 31
0.0
  0
LINE
  5
3C5B2
330
3C591
100
AcDbEntity
  8
0
 62
     0
100
AcDbLine
 10
2316.837849971935
 20
4688.465146083234
 30
0.0
 11
2516.837849971937
 21
4888.465146083238
 31
0.0
  0
LINE
  5
3C5B3
330
3C591
100
AcDbEntity
  8
0
 62
     0
100
AcDbLine
 10
1016.837849971936
 20
3388.465146083236
 30
0.0
 11
1216.837849971939
 21
3588.465146083239
 31
0.0
  0
LINE
  5
3C5B4
330
3C591
100
AcDbEntity
  8
0
 62
     0
100
AcDbLine
 10
2316.837849971935
 20
5137.477952136691
 30
0.0
 11
2516.837849971937
 21
5337.477952136694
 31
0.0
  0
LINE
  5
3C5B5
330
3C591
100
AcDbEntity
  8
0
 62
     0
100
AcDbLine
 10
1016.837849971935
 20
3837.477952136693
 30
0.0
 11
1216.837849971938
 21
4037.477952136695
 31
0.0
  0
LINE
  5
3C5B6
330
3C591
100
AcDbEntity
  8
0
 62
     0
100
AcDbLine
 10
2316.837849971936
 20
5586.490758190151
 30
0.0
 11
2516.837849971937
 21
5786.490758190152
 31
0.0
  0
LINE
  5
3C5B7
330
3C591
100
AcDbEntity
  8
0
 62
     0
100
AcDbLine
 10
1016.837849971936
 20
4286.490758190152
 30
0.0
 11
1216.837849971938
 21
4486.490758190153
 31
0.0
  0
LINE
  5
3C5B8
330
3C591
100
AcDbEntity
  8
0
 62
     0
100
AcDbLine
 10
2316.837849971935
 20
6035.503564243608
 30
0.0
 11
2516.837849971937
 21
6235.50356424361
 31
0.0
  0
LINE
  5
3C5B9
330
3C591
100
AcDbEntity
  8
0
 62
     0
100
AcDbLine
 10
1016.837849971936
 20
4735.503564243607
 30
0.0
 11
1216.837849971938
 21
4935.50356424361
 31
0.0
  0
LINE
  5
3C5BA
330
3C591
100
AcDbEntity
  8
0
 62
     0
100
AcDbLine
 10
2316.837849971936
 20
6484.516370297066
 30
0.0
 11
2339.913880669818
 21
6507.592400994949
 31
0.0
  0
LINE
  5
3C5BB
330
3C591
100
AcDbEntity
  8
0
 62
     0
100
AcDbLine
 10
1016.837849971936
 20
5184.516370297068
 30
0.0
 11
1216.837849971936
 21
5384.516370297068
 31
0.0
  0
LINE
  5
3C5BC
330
3C591
100
AcDbEntity
  8
0
 62
     0
100
AcDbLine
 10
1016.837849971936
 20
5633.529176350524
 30
0.0
 11
1216.837849971936
 21
5833.529176350523
 31
0.0
  0
LINE
  5
3C5BD
330
3C591
100
AcDbEntity
  8
0
 62
     0
100
AcDbLine
 10
1016.837849971937
 20
6082.541982403983
 30
0.0
 11
1216.837849971936
 21
6282.541982403982
 31
0.0
  0
ENDBLK
  5
3C5BF
330
3C591
100
AcDbEntity
  8
0
100
AcDbBlockEnd
  0
BLOCK
  5
3C5DC
330
3C5C0
100
AcDbEntity
  8
0
100
AcDbBlockBegin
  2
*X4
 70
     1
 10
0.0
 20
0.0
 30
0.0
  3
*X4
  1

  0
LINE
  5
3C5C1
330
3C5C0
100
AcDbEntity
  8
0
 62
     0
100
AcDbLine
 10
2468.385246434047
 20
-0.0000047957983043
 30
0.0
 11
2516.837849971935
 21
48.45259874208932
 31
0.0
  0
LINE
  5
3C5C2
330
3C5C0
100
AcDbEntity
  8
0
 62
     0
100
AcDbLine
 10
2316.837849971935
 20
297.4654047955473
 30
0.0
 11
2516.837849971936
 21
497.4654047955477
 31
0.0
  0
LINE
  5
3C5C3
330
3C5C0
100
AcDbEntity
  8
0
 62
     0
100
AcDbLine
 10
2316.837849971935
 20
746.4782108490053
 30
0.0
 11
2516.837849971937
 21
946.4782108490055
 31
0.0
  0
LINE
  5
3C5C4
330
3C5C0
100
AcDbEntity
  8
0
 62
     0
100
AcDbLine
 10
2316.837849971935
 20
1195.491016902463
 30
0.0
 11
2516.837849971937
 21
1395.491016902463
 31
0.0
  0
LINE
  5
3C5C5
330
3C5C0
100
AcDbEntity
  8
0
 62
     0
100
AcDbLine
 10
1121.346828273674
 20
-0.0000047957983043
 30
0.0
 11
1216.837849971938
 21
95.49101690246541
 31
0.0
  0
LINE
  5
3C5C6
330
3C5C0
100
AcDbEntity
  8
0
 62
     0
100
AcDbLine
 10
2316.837849971935
 20
1644.503822955921
 30
0.0
 11
2516.837849971937
 21
1844.503822955921
 31
0.0
  0
LINE
  5
3C5C7
330
3C5C0
100
AcDbEntity
  8
0
 62
     0
100
AcDbLine
 10
1016.837849971938
 20
344.5038229559228
 30
0.0
 11
1216.837849971937
 21
544.5038229559221
 31
0.0
  0
LINE
  5
3C5C8
330
3C5C0
100
AcDbEntity
  8
0
 62
     0
100
AcDbLine
 10
1016.837849971937
 20
793.5166290093797
 30
0.0
 11
1216.837849971937
 21
993.5166290093796
 31
0.0
  0
LINE
  5
3C5C9
330
3C5C0
100
AcDbEntity
  8
0
 62
     0
100
AcDbLine
 10
1016.837849971937
 20
1242.529435062837
 30
0.0
 11
1216.837849971937
 21
1442.529435062837
 31
0.0
  0
LINE
  5
3C5CA
330
3C5C0
100
AcDbEntity
  8
0
 62
     0
100
AcDbLine
 10
1016.837849971936
 20
1691.542241116294
 30
0.0
 11
1216.837849971936
 21
1891.542241116294
 31
0.0
  0
LINE
  5
3C5CB
330
3C5C0
100
AcDbEntity
  8
0
 62
     0
100
AcDbLine
 10
2316.837849971935
 20
241.3388040388645
 30
0.0
 11
2516.837849971935
 21
441.338804038864
 31
0.0
  0
LINE
  5
3C5CC
330
3C5C0
100
AcDbEntity
  8
0
 62
     0
100
AcDbLine
 10
2316.837849971935
 20
690.3516100923219
 30
0.0
 11
2516.837849971935
 21
890.3516100923221
 31
0.0
  0
LINE
  5
3C5CD
330
3C5C0
100
AcDbEntity
  8
0
 62
     0
100
AcDbLine
 10
2316.837849971935
 20
1139.364416145779
 30
0.0
 11
2516.837849971937
 21
1339.36441614578
 31
0.0
  0
LINE
  5
3C5CE
330
3C5C0
100
AcDbEntity
  8
0
 62
     0
100
AcDbLine
 10
1177.473429030357
 20
-0.0000047957983043
 30
0.0
 11
1216.837849971937
 21
39.36441614578166
 31
0.0
  0
LINE
  5
3C5CF
330
3C5C0
100
AcDbEntity
  8
0
 62
     0
100
AcDbLine
 10
2316.837849971935
 20
1588.377222199237
 30
0.0
 11
2516.837849971937
 21
1788.377222199238
 31
0.0
  0
LINE
  5
3C5D0
330
3C5C0
100
AcDbEntity
  8
0
 62
     0
100
AcDbLine
 10
1016.837849971938
 20
288.3772221992399
 30
0.0
 11
1216.837849971937
 21
488.377222199239
 31
0.0
  0
LINE
  5
3C5D1
330
3C5C0
100
AcDbEntity
  8
0
 62
     0
100
AcDbLine
 10
1016.837849971937
 20
737.3900282526968
 30
0.0
 11
1216.837849971937
 21
937.3900282526966
 31
0.0
  0
LINE
  5
3C5D2
330
3C5C0
100
AcDbEntity
  8
0
 62
     0
100
AcDbLine
 10
1016.837849971936
 20
1186.402834306153
 30
0.0
 11
1216.837849971937
 21
1386.402834306154
 31
0.0
  0
LINE
  5
3C5D3
330
3C5C0
100
AcDbEntity
  8
0
 62
     0
100
AcDbLine
 10
1016.837849971936
 20
1635.415640359611
 30
0.0
 11
1216.837849971936
 21
1835.415640359611
 31
0.0
  0
LINE
  5
3C5D4
330
3C5C0
100
AcDbEntity
  8
0
 62
     0
100
AcDbLine
 10
2316.837849971935
 20
185.2122032821825
 30
0.0
 11
2516.837849971935
 21
385.2122032821826
 31
0.0
  0
LINE
  5
3C5D5
330
3C5C0
100
AcDbEntity
  8
0
 62
     0
100
AcDbLine
 10
2316.837849971935
 20
634.2250093356401
 30
0.0
 11
2516.837849971937
 21
834.225009335641
 31
0.0
  0
LINE
  5
3C5D6
330
3C5C0
100
AcDbEntity
  8
0
 62
     0
100
AcDbLine
 10
2316.837849971935
 20
1083.237815389098
 30
0.0
 11
2516.837849971936
 21
1283.237815389098
 31
0.0
  0
LINE
  5
3C5D7
330
3C5C0
100
AcDbEntity
  8
0
 62
     0
100
AcDbLine
 10
2316.837849971936
 20
1532.250621442556
 30
0.0
 11
2516.837849971937
 21
1732.250621442556
 31
0.0
  0
LINE
  5
3C5D8
330
3C5C0
100
AcDbEntity
  8
0
 62
     0
100
AcDbLine
 10
1016.837849971938
 20
232.2506214425582
 30
0.0
 11
1216.837849971937
 21
432.2506214425575
 31
0.0
  0
LINE
  5
3C5D9
330
3C5C0
100
AcDbEntity
  8
0
 62
     0
100
AcDbLine
 10
1016.837849971937
 20
681.2634274960154
 30
0.0
 11
1216.837849971937
 21
881.2634274960151
 31
0.0
  0
LINE
  5
3C5DA
330
3C5C0
100
AcDbEntity
  8
0
 62
     0
100
AcDbLine
 10
1016.837849971937
 20
1130.276233549472
 30
0.0
 11
1216.837849971937
 21
1330.276233549472
 31
0.0
  0
LINE
  5
3C5DB
330
3C5C0
100
AcDbEntity
  8
0
 62
     0
100
AcDbLine
 10
1016.837849971936
 20
1579.289039602929
 30
0.0
 11
1216.837849971936
 21
1779.289039602929
 31
0.0
  0
ENDBLK
  5
3C5DD
330
3C5C0
100
AcDbEntity
  8
0
100
AcDbBlockEnd
  0
BLOCK
  5
3C5F7
330
3C5DE
100
AcDbEntity
  8
0
100
AcDbBlockBegin
  2
*X5
 70
     1
 10
0.0
 20
0.0
 30
0.0
  3
*X5
  1

  0
LINE
  5
3C5DF
330
3C5DE
100
AcDbEntity
  8
0
 62
     0
100
AcDbLine
 10
2288.366869377343
 20
605.7540287410484
 30
0.0
 11
2316.837849971935
 21
634.2250093356401
 31
0.0
  0
LINE
  5
3C5E0
330
3C5DE
100
AcDbEntity
  8
0
 62
     0
100
AcDbLine
 10
2153.663027561306
 20
605.7540287410484
 30
0.0
 11
2316.837849971935
 21
768.9288511516778
 31
0.0
  0
LINE
  5
3C5E1
330
3C5DE
100
AcDbEntity
  8
0
 62
     0
100
AcDbLine
 10
2216.837849971935
 20
803.6326929677153
 30
0.0
 11
2316.837849971936
 21
903.6326929677155
 31
0.0
  0
LINE
  5
3C5E2
330
3C5DE
100
AcDbEntity
  8
0
 62
     0
100
AcDbLine
 10
2018.959185745269
 20
605.7540287410484
 30
0.0
 11
2118.959185745268
 21
705.7540287410478
 31
0.0
  0
LINE
  5
3C5E3
330
3C5DE
100
AcDbEntity
  8
0
 62
     0
100
AcDbLine
 10
2216.837849971935
 20
938.3365347837523
 30
0.0
 11
2316.837849971936
 21
1038.336534783753
 31
0.0
  0
LINE
  5
3C5E4
330
3C5DE
100
AcDbEntity
  8
0
 62
     0
100
AcDbLine
 10
1884.255343929231
 20
605.7540287410484
 30
0.0
 11
1984.255343929231
 21
705.7540287410484
 31
0.0
  0
LINE
  5
3C5E5
330
3C5DE
100
AcDbEntity
  8
0
 62
     0
100
AcDbLine
 10
2216.837849971935
 20
1073.04037659979
 30
0.0
 11
2316.837849971936
 21
1173.04037659979
 31
0.0
  0
LINE
  5
3C5E6
330
3C5DE
100
AcDbEntity
  8
0
 62
     0
100
AcDbLine
 10
1749.551502113194
 20
605.7540287410484
 30
0.0
 11
1849.551502113194
 21
705.7540287410484
 31
0.0
  0
LINE
  5
3C5E7
330
3C5DE
100
AcDbEntity
  8
0
 62
     0
100
AcDbLine
 10
2216.837849971935
 20
1207.744218415827
 30
0.0
 11
2316.837849971936
 21
1307.744218415827
 31
0.0
  0
LINE
  5
3C5E8
330
3C5DE
100
AcDbEntity
  8
0
 62
     0
100
AcDbLine
 10
1614.847660297157
 20
605.7540287410484
 30
0.0
 11
1714.847660297157
 21
705.7540287410484
 31
0.0
  0
LINE
  5
3C5E9
330
3C5DE
100
AcDbEntity
  8
0
 62
     0
100
AcDbLine
 10
2090.143818481119
 20
1215.754028741048
 30
0.0
 11
2190.143818481119
 21
1315.754028741048
 31
0.0
  0
LINE
  5
3C5EA
330
3C5DE
100
AcDbEntity
  8
0
 62
     0
100
AcDbLine
 10
1480.143818481119
 20
605.7540287410479
 30
0.0
 11
1580.143818481119
 21
705.7540287410484
 31
0.0
  0
LINE
  5
3C5EB
330
3C5DE
100
AcDbEntity
  8
0
 62
     0
100
AcDbLine
 10
1955.439976665082
 20
1215.754028741048
 30
0.0
 11
2055.439976665082
 21
1315.754028741048
 31
0.0
  0
LINE
  5
3C5EC
330
3C5DE
100
AcDbEntity
  8
0
 62
     0
100
AcDbLine
 10
1345.439976665082
 20
605.7540287410484
 30
0.0
 11
1445.439976665082
 21
705.7540287410484
 31
0.0
  0
LINE
  5
3C5ED
330
3C5DE
100
AcDbEntity
  8
0
 62
     0
100
AcDbLine
 10
1820.736134849045
 20
1215.754028741048
 30
0.0
 11
1920.736134849045
 21
1315.754028741048
 31
0.0
  0
LINE
  5
3C5EE
330
3C5DE
100
AcDbEntity
  8
0
 62
     0
100
AcDbLine
 10
1216.837849971937
 20
611.8557438639409
 30
0.0
 11
1316.837849971937
 21
711.8557438639409
 31
0.0
  0
LINE
  5
3C5EF
330
3C5DE
100
AcDbEntity
  8
0
 62
     0
100
AcDbLine
 10
1686.032293033008
 20
1215.754028741048
 30
0.0
 11
1786.032293033008
 21
1315.754028741048
 31
0.0
  0
LINE
  5
3C5F0
330
3C5DE
100
AcDbEntity
  8
0
 62
     0
100
AcDbLine
 10
1216.837849971937
 20
746.5595856799778
 30
0.0
 11
1316.837849971937
 21
846.5595856799778
 31
0.0
  0
LINE
  5
3C5F1
330
3C5DE
100
AcDbEntity
  8
0
 62
     0
100
AcDbLine
 10
1551.32845121697
 20
1215.754028741048
 30
0.0
 11
1651.328451216971
 21
1315.754028741048
 31
0.0
  0
LINE
  5
3C5F2
330
3C5DE
100
AcDbEntity
  8
0
 62
     0
100
AcDbLine
 10
1216.837849971937
 20
881.2634274960151
 30
0.0
 11
1316.837849971937
 21
981.2634274960144
 31
0.0
  0
LINE
  5
3C5F3
330
3C5DE
100
AcDbEntity
  8
0
 62
     0
100
AcDbLine
 10
1416.624609400933
 20
1215.754028741048
 30
0.0
 11
1516.624609400933
 21
1315.754028741048
 31
0.0
  0
LINE
  5
3C5F4
330
3C5DE
100
AcDbEntity
  8
0
 62
     0
100
AcDbLine
 10
1216.837849971937
 20
1015.967269312052
 30
0.0
 11
1316.837849971937
 21
1115.967269312051
 31
0.0
  0
LINE
  5
3C5F5
330
3C5DE
100
AcDbEntity
  8
0
 62
     0
100
AcDbLine
 10
1216.837849971937
 20
1150.671111128089
 30
0.0
 11
1381.920767584896
 21
1315.754028741048
 31
0.0
  0
LINE
  5
3C5F6
330
3C5DE
100
AcDbEntity
  8
0
 62
     0
100
AcDbLine
 10
1216.837849971937
 20
1285.374952944126
 30
0.0
 11
1247.216925768859
 21
1315.754028741048
 31
0.0
  0
ENDBLK
  5
3C5F8
330
3C5DE
100
AcDbEntity
  8
0
100
AcDbBlockEnd
  0
BLOCK
  5
3C646
330
3C5F9
100
AcDbEntity
  8
0
100
AcDbBlockBegin
  2
*X6
 70
     1
 10
0.0
 20
0.0
 30
0.0
  3
*X6
  1

  0
LINE
  5
3C5FA
330
3C5F9
100
AcDbEntity
  8
0
 62
     0
100
AcDbLine
 10
-2.235894388868473
 20
-1564.490319548671
 30
0.0
 11
-11.46500171161205
 21
-1555.261212225927
 31
0.0
  0
LINE
  5
3C5FB
330
3C5F9
100
AcDbEntity
  8
0
 62
     0
100
AcDbLine
 10
-120.2293550076866
 20
-1581.200700745889
 30
0.0
 11
-146.1688435276491
 21
-1555.261212225927
 31
0.0
  0
LINE
  5
3C5FC
330
3C5F9
100
AcDbEntity
  8
0
 62
     0
100
AcDbLine
 10
-50.16884352764964
 20
-1651.261212225927
 30
0.0
 11
-52.87743409966799
 21
-1648.552621653908
 31
0.0
  0
LINE
  5
3C5FD
330
3C5F9
100
AcDbEntity
  8
0
 62
     0
100
AcDbLine
 10
-254.9331968237239
 20
-1581.200700745889
 30
0.0
 11
-280.8726853436864
 21
-1555.261212225927
 31
0.0
  0
LINE
  5
3C5FE
330
3C5F9
100
AcDbEntity
  8
0
 62
     0
100
AcDbLine
 10
-184.8726853436869
 20
-1651.261212225927
 30
0.0
 11
-187.5812759157053
 21
-1648.552621653908
 31
0.0
  0
LINE
  5
3C5FF
330
3C5F9
100
AcDbEntity
  8
0
 62
     0
100
AcDbLine
 10
-389.6370386397612
 20
-1581.200700745889
 30
0.0
 11
-415.5765271597236
 21
-1555.261212225927
 31
0.0
  0
LINE
  5
3C600
330
3C5F9
100
AcDbEntity
  8
0
 62
     0
100
AcDbLine
 10
-319.5765271597242
 20
-1651.261212225927
 30
0.0
 11
-322.2851177317426
 21
-1648.552621653908
 31
0.0
  0
LINE
  5
3C601
330
3C5F9
100
AcDbEntity
  8
0
 62
     0
100
AcDbLine
 10
-524.3408804557986
 20
-1581.200700745889
 30
0.0
 11
-550.2803689757601
 21
-1555.261212225928
 31
0.0
  0
LINE
  5
3C602
330
3C5F9
100
AcDbEntity
  8
0
 62
     0
100
AcDbLine
 10
-454.2803689757614
 20
-1651.261212225927
 30
0.0
 11
-456.9889595477798
 21
-1648.552621653908
 31
0.0
  0
LINE
  5
3C603
330
3C5F9
100
AcDbEntity
  8
0
 62
     0
100
AcDbLine
 10
-659.0447222718359
 20
-1581.200700745889
 30
0.0
 11
-684.9842107917972
 21
-1555.261212225928
 31
0.0
  0
LINE
  5
3C604
330
3C5F9
100
AcDbEntity
  8
0
 62
     0
100
AcDbLine
 10
-588.9842107917989
 20
-1651.261212225927
 30
0.0
 11
-591.6928013638172
 21
-1648.552621653908
 31
0.0
  0
LINE
  5
3C605
330
3C5F9
100
AcDbEntity
  8
0
 62
     0
100
AcDbLine
 10
-793.7485640878731
 20
-1581.200700745889
 30
0.0
 11
-819.6880526078341
 21
-1555.261212225928
 31
0.0
  0
LINE
  5
3C606
330
3C5F9
100
AcDbEntity
  8
0
 62
     0
100
AcDbLine
 10
-723.6880526078363
 20
-1651.261212225927
 30
0.0
 11
-726.3966431798544
 21
-1648.552621653908
 31
0.0
  0
LINE
  5
3C607
330
3C5F9
100
AcDbEntity
  8
0
 62
     0
100
AcDbLine
 10
-928.4524059039107
 20
-1581.200700745889
 30
0.0
 11
-954.3918944238722
 21
-1555.261212225928
 31
0.0
  0
LINE
  5
3C608
330
3C5F9
100
AcDbEntity
  8
0
 62
     0
100
AcDbLine
 10
-858.3918944238732
 20
-1651.261212225927
 30
0.0
 11
-861.100484995892
 21
-1648.552621653908
 31
0.0
  0
LINE
  5
3C609
330
3C5F9
100
AcDbEntity
  8
0
 62
     0
100
AcDbLine
 10
-1063.156247719947
 20
-1581.200700745889
 30
0.0
 11
-1089.095736239909
 21
-1555.261212225928
 31
0.0
  0
LINE
  5
3C60A
330
3C5F9
100
AcDbEntity
  8
0
 62
     0
100
AcDbLine
 10
-993.0957362399098
 20
-1651.261212225927
 30
0.0
 11
-995.8043268119293
 21
-1648.552621653908
 31
0.0
  0
LINE
  5
3C60B
330
3C5F9
100
AcDbEntity
  8
0
 62
     0
100
AcDbLine
 10
-1197.860089535985
 20
-1581.200700745889
 30
0.0
 11
-1223.799578055946
 21
-1555.261212225929
 31
0.0
  0
LINE
  5
3C60C
330
3C5F9
100
AcDbEntity
  8
0
 62
     0
100
AcDbLine
 10
-1127.799578055947
 20
-1651.261212225927
 30
0.0
 11
-1130.508168627966
 21
-1648.552621653908
 31
0.0
  0
LINE
  5
3C60D
330
3C5F9
100
AcDbEntity
  8
0
 62
     0
100
AcDbLine
 10
-10.78248353215516
 20
-1606.457671086396
 30
0.0
 11
-61.97894239262526
 21
-1555.261212225926
 31
0.0
  0
LINE
  5
3C60E
330
3C5F9
100
AcDbEntity
  8
0
 62
     0
100
AcDbLine
 10
-145.4863253481928
 20
-1606.457671086396
 30
0.0
 11
-196.6827842086629
 21
-1555.261212225926
 31
0.0
  0
LINE
  5
3C60F
330
3C5F9
100
AcDbEntity
  8
0
 62
     0
100
AcDbLine
 10
-280.1901671642298
 20
-1606.457671086397
 30
0.0
 11
-331.3866260246999
 21
-1555.261212225927
 31
0.0
  0
LINE
  5
3C610
330
3C5F9
100
AcDbEntity
  8
0
 62
     0
100
AcDbLine
 10
-414.8940089802675
 20
-1606.457671086396
 30
0.0
 11
-466.0904678407375
 21
-1555.261212225926
 31
0.0
  0
LINE
  5
3C611
330
3C5F9
100
AcDbEntity
  8
0
 62
     0
100
AcDbLine
 10
-549.5978507963043
 20
-1606.457671086397
 30
0.0
 11
-600.7943096567741
 21
-1555.261212225927
 31
0.0
  0
LINE
  5
3C612
330
3C5F9
100
AcDbEntity
  8
0
 62
     0
100
AcDbLine
 10
-684.3016926123416
 20
-1606.457671086397
 30
0.0
 11
-735.4981514728109
 21
-1555.261212225928
 31
0.0
  0
LINE
  5
3C613
330
3C5F9
100
AcDbEntity
  8
0
 62
     0
100
AcDbLine
 10
-819.005534428379
 20
-1606.457671086397
 30
0.0
 11
-870.2019932888481
 21
-1555.261212225928
 31
0.0
  0
LINE
  5
3C614
330
3C5F9
100
AcDbEntity
  8
0
 62
     0
100
AcDbLine
 10
-953.7093762444163
 20
-1606.457671086396
 30
0.0
 11
-1004.905835104885
 21
-1555.261212225928
 31
0.0
  0
LINE
  5
3C615
330
3C5F9
100
AcDbEntity
  8
0
 62
     0
100
AcDbLine
 10
-1088.413218060453
 20
-1606.457671086396
 30
0.0
 11
-1139.609676920922
 21
-1555.261212225928
 31
0.0
  0
LINE
  5
3C616
330
3C5F9
100
AcDbEntity
  8
0
 62
     0
100
AcDbLine
 10
-1223.117059876491
 20
-1606.457671086396
 30
0.0
 11
-1260.235894388871
 21
-1569.338836574016
 31
0.0
  0
LINE
  5
3C617
330
3C5F9
100
AcDbEntity
  8
0
 62
     0
100
AcDbLine
 10
-36.03945387266334
 20
-1631.714641426904
 30
0.0
 11
-103.3913747806819
 21
-1564.362720518885
 31
0.0
  0
LINE
  5
3C618
330
3C5F9
100
AcDbEntity
  8
0
 62
     0
100
AcDbLine
 10
-170.7432956887006
 20
-1631.714641426904
 30
0.0
 11
-238.0952165967193
 21
-1564.362720518885
 31
0.0
  0
LINE
  5
3C619
330
3C5F9
100
AcDbEntity
  8
0
 62
     0
100
AcDbLine
 10
-305.4471375047379
 20
-1631.714641426904
 30
0.0
 11
-372.7990584127567
 21
-1564.362720518885
 31
0.0
  0
LINE
  5
3C61A
330
3C5F9
100
AcDbEntity
  8
0
 62
     0
100
AcDbLine
 10
-440.1509793207751
 20
-1631.714641426904
 30
0.0
 11
-507.5029002287938
 21
-1564.362720518885
 31
0.0
  0
LINE
  5
3C61B
330
3C5F9
100
AcDbEntity
  8
0
 62
     0
100
AcDbLine
 10
-574.8548211368126
 20
-1631.714641426904
 30
0.0
 11
-642.2067420448312
 21
-1564.362720518885
 31
0.0
  0
LINE
  5
3C61C
330
3C5F9
100
AcDbEntity
  8
0
 62
     0
100
AcDbLine
 10
-709.5586629528497
 20
-1631.714641426904
 30
0.0
 11
-776.9105838608685
 21
-1564.362720518885
 31
0.0
  0
LINE
  5
3C61D
330
3C5F9
100
AcDbEntity
  8
0
 62
     0
100
AcDbLine
 10
-844.2625047688872
 20
-1631.714641426903
 30
0.0
 11
-911.6144256769059
 21
-1564.362720518885
 31
0.0
  0
LINE
  5
3C61E
330
3C5F9
100
AcDbEntity
  8
0
 62
     0
100
AcDbLine
 10
-978.9663465849246
 20
-1631.714641426903
 30
0.0
 11
-1046.318267492943
 21
-1564.362720518885
 31
0.0
  0
LINE
  5
3C61F
330
3C5F9
100
AcDbEntity
  8
0
 62
     0
100
AcDbLine
 10
-1113.670188400962
 20
-1631.714641426903
 30
0.0
 11
-1181.02210930898
 21
-1564.362720518885
 31
0.0
  0
LINE
  5
3C620
330
3C5F9
100
AcDbEntity
  8
0
 62
     0
100
AcDbLine
 10
-1248.374030216999
 20
-1631.714641426903
 30
0.0
 11
-1260.235894388874
 21
-1619.852777255028
 31
0.0
  0
LINE
  5
3C621
330
3C5F9
100
AcDbEntity
  8
0
 62
     0
100
AcDbLine
 10
-36.03945387266348
 20
-1648.552621653907
 30
0.0
 11
-2.23589438886774
 21
-1614.749062170112
 31
0.0
  0
LINE
  5
3C622
330
3C5F9
100
AcDbEntity
  8
0
 62
     0
100
AcDbLine
 10
-170.7432956887008
 20
-1648.552621653907
 30
0.0
 11
-103.391374780682
 21
-1581.200700745888
 31
0.0
  0
LINE
  5
3C623
330
3C5F9
100
AcDbEntity
  8
0
 62
     0
100
AcDbLine
 10
-305.4471375047381
 20
-1648.552621653907
 30
0.0
 11
-238.0952165967194
 21
-1581.200700745888
 31
0.0
  0
LINE
  5
3C624
330
3C5F9
100
AcDbEntity
  8
0
 62
     0
100
AcDbLine
 10
-440.1509793207753
 20
-1648.552621653907
 30
0.0
 11
-372.7990584127567
 21
-1581.200700745888
 31
0.0
  0
LINE
  5
3C625
330
3C5F9
100
AcDbEntity
  8
0
 62
     0
100
AcDbLine
 10
-574.8548211368122
 20
-1648.552621653908
 30
0.0
 11
-507.5029002287934
 21
-1581.200700745889
 31
0.0
  0
LINE
  5
3C626
330
3C5F9
100
AcDbEntity
  8
0
 62
     0
100
AcDbLine
 10
-709.5586629528494
 20
-1648.552621653908
 30
0.0
 11
-642.2067420448309
 21
-1581.200700745889
 31
0.0
  0
LINE
  5
3C627
330
3C5F9
100
AcDbEntity
  8
0
 62
     0
100
AcDbLine
 10
-844.2625047688869
 20
-1648.552621653908
 30
0.0
 11
-776.910583860868
 21
-1581.200700745889
 31
0.0
  0
LINE
  5
3C628
330
3C5F9
100
AcDbEntity
  8
0
 62
     0
100
AcDbLine
 10
-978.9663465849248
 20
-1648.552621653909
 30
0.0
 11
-911.6144256769059
 21
-1581.20070074589
 31
0.0
  0
LINE
  5
3C629
330
3C5F9
100
AcDbEntity
  8
0
 62
     0
100
AcDbLine
 10
-1113.670188400962
 20
-1648.552621653909
 30
0.0
 11
-1046.318267492943
 21
-1581.20070074589
 31
0.0
  0
LINE
  5
3C62A
330
3C5F9
100
AcDbEntity
  8
0
 62
     0
100
AcDbLine
 10
-1248.374030216998
 20
-1648.552621653908
 30
0.0
 11
-1181.02210930898
 21
-1581.200700745889
 31
0.0
  0
LINE
  5
3C62B
330
3C5F9
100
AcDbEntity
  8
0
 62
     0
100
AcDbLine
 10
-122.9379455797052
 20
-1651.261212225927
 30
0.0
 11
-78.13440444017553
 21
-1606.457671086397
 31
0.0
  0
LINE
  5
3C62C
330
3C5F9
100
AcDbEntity
  8
0
 62
     0
100
AcDbLine
 10
-257.6417873957425
 20
-1651.261212225927
 30
0.0
 11
-212.8382462562128
 21
-1606.457671086397
 31
0.0
  0
LINE
  5
3C62D
330
3C5F9
100
AcDbEntity
  8
0
 62
     0
100
AcDbLine
 10
-392.3456292117798
 20
-1651.261212225927
 30
0.0
 11
-347.5420880722501
 21
-1606.457671086397
 31
0.0
  0
LINE
  5
3C62E
330
3C5F9
100
AcDbEntity
  8
0
 62
     0
100
AcDbLine
 10
-527.0494710278167
 20
-1651.261212225927
 30
0.0
 11
-482.2459298882856
 21
-1606.457671086396
 31
0.0
  0
LINE
  5
3C62F
330
3C5F9
100
AcDbEntity
  8
0
 62
     0
100
AcDbLine
 10
-661.753312843854
 20
-1651.261212225927
 30
0.0
 11
-616.9497717043229
 21
-1606.457671086396
 31
0.0
  0
LINE
  5
3C630
330
3C5F9
100
AcDbEntity
  8
0
 62
     0
100
AcDbLine
 10
-796.4571546598912
 20
-1651.261212225927
 30
0.0
 11
-751.6536135203603
 21
-1606.457671086396
 31
0.0
  0
LINE
  5
3C631
330
3C5F9
100
AcDbEntity
  8
0
 62
     0
100
AcDbLine
 10
-931.1609964759286
 20
-1651.261212225927
 30
0.0
 11
-886.3574553363976
 21
-1606.457671086396
 31
0.0
  0
LINE
  5
3C632
330
3C5F9
100
AcDbEntity
  8
0
 62
     0
100
AcDbLine
 10
-1065.864838291965
 20
-1651.261212225927
 30
0.0
 11
-1021.061297152435
 21
-1606.457671086396
 31
0.0
  0
LINE
  5
3C633
330
3C5F9
100
AcDbEntity
  8
0
 62
     0
100
AcDbLine
 10
-1200.568680108003
 20
-1651.261212225927
 30
0.0
 11
-1155.765138968472
 21
-1606.457671086396
 31
0.0
  0
LINE
  5
3C634
330
3C5F9
100
AcDbEntity
  8
0
 62
     0
100
AcDbLine
 10
-72.42400489869216
 20
-1651.261212225927
 30
0.0
 11
-52.87743409966815
 21
-1631.714641426903
 31
0.0
  0
LINE
  5
3C635
330
3C5F9
100
AcDbEntity
  8
0
 62
     0
100
AcDbLine
 10
-120.2293550076868
 20
-1564.362720518884
 30
0.0
 11
-111.1278467147286
 21
-1555.261212225926
 31
0.0
  0
LINE
  5
3C636
330
3C5F9
100
AcDbEntity
  8
0
 62
     0
100
AcDbLine
 10
-207.1278467147294
 20
-1651.261212225927
 30
0.0
 11
-187.5812759157054
 21
-1631.714641426903
 31
0.0
  0
LINE
  5
3C637
330
3C5F9
100
AcDbEntity
  8
0
 62
     0
100
AcDbLine
 10
-254.9331968237241
 20
-1564.362720518884
 30
0.0
 11
-245.8316885307672
 21
-1555.261212225927
 31
0.0
  0
LINE
  5
3C638
330
3C5F9
100
AcDbEntity
  8
0
 62
     0
100
AcDbLine
 10
-341.8316885307667
 20
-1651.261212225927
 30
0.0
 11
-322.2851177317427
 21
-1631.714641426903
 31
0.0
  0
LINE
  5
3C639
330
3C5F9
100
AcDbEntity
  8
0
 62
     0
100
AcDbLine
 10
-389.637038639761
 20
-1564.362720518884
 30
0.0
 11
-380.5355303468041
 21
-1555.261212225928
 31
0.0
  0
LINE
  5
3C63A
330
3C5F9
100
AcDbEntity
  8
0
 62
     0
100
AcDbLine
 10
-476.5355303468036
 20
-1651.261212225927
 30
0.0
 11
-456.9889595477796
 21
-1631.714641426903
 31
0.0
  0
LINE
  5
3C63B
330
3C5F9
100
AcDbEntity
  8
0
 62
     0
100
AcDbLine
 10
-524.3408804557982
 20
-1564.362720518884
 30
0.0
 11
-515.2393721628413
 21
-1555.261212225928
 31
0.0
  0
LINE
  5
3C63C
330
3C5F9
100
AcDbEntity
  8
0
 62
     0
100
AcDbLine
 10
-611.2393721628409
 20
-1651.261212225927
 30
0.0
 11
-591.6928013638169
 21
-1631.714641426903
 31
0.0
  0
LINE
  5
3C63D
330
3C5F9
100
AcDbEntity
  8
0
 62
     0
100
AcDbLine
 10
-659.0447222718354
 20
-1564.362720518884
 30
0.0
 11
-649.9432139788788
 21
-1555.261212225928
 31
0.0
  0
LINE
  5
3C63E
330
3C5F9
100
AcDbEntity
  8
0
 62
     0
100
AcDbLine
 10
-745.9432139788781
 20
-1651.261212225927
 30
0.0
 11
-726.3966431798543
 21
-1631.714641426903
 31
0.0
  0
LINE
  5
3C63F
330
3C5F9
100
AcDbEntity
  8
0
 62
     0
100
AcDbLine
 10
-793.7485640878727
 20
-1564.362720518884
 30
0.0
 11
-784.6470557949158
 21
-1555.261212225928
 31
0.0
  0
LINE
  5
3C640
330
3C5F9
100
AcDbEntity
  8
0
 62
     0
100
AcDbLine
 10
-880.6470557949156
 20
-1651.261212225927
 30
0.0
 11
-861.1004849958915
 21
-1631.714641426903
 31
0.0
  0
LINE
  5
3C641
330
3C5F9
100
AcDbEntity
  8
0
 62
     0
100
AcDbLine
 10
-928.4524059039107
 20
-1564.362720518885
 30
0.0
 11
-919.3508976109539
 21
-1555.261212225928
 31
0.0
  0
LINE
  5
3C642
330
3C5F9
100
AcDbEntity
  8
0
 62
     0
100
AcDbLine
 10
-1015.350897610953
 20
-1651.261212225927
 30
0.0
 11
-995.8043268119295
 21
-1631.714641426904
 31
0.0
  0
LINE
  5
3C643
330
3C5F9
100
AcDbEntity
  8
0
 62
     0
100
AcDbLine
 10
-1063.156247719948
 20
-1564.362720518885
 30
0.0
 11
-1054.054739426991
 21
-1555.261212225928
 31
0.0
  0
LINE
  5
3C644
330
3C5F9
100
AcDbEntity
  8
0
 62
     0
100
AcDbLine
 10
-1150.05473942699
 20
-1651.261212225927
 30
0.0
 11
-1130.508168627966
 21
-1631.714641426904
 31
0.0
  0
LINE
  5
3C645
330
3C5F9
100
AcDbEntity
  8
0
 62
     0
100
AcDbLine
 10
-1197.860089535985
 20
-1564.362720518885
 30
0.0
 11
-1188.758581243028
 21
-1555.261212225928
 31
0.0
  0
ENDBLK
  5
3C647
330
3C5F9
100
AcDbEntity
  8
0
100
AcDbBlockEnd
  0
BLOCK
  5
3C68D
330
3C648
100
AcDbEntity
  8
0
100
AcDbBlockBegin
  2
*X7
 70
     1
 10
0.0
 20
0.0
 30
0.0
  3
*X7
  1

  0
LINE
  5
3C649
330
3C648
100
AcDbEntity
  8
0
 62
     0
100
AcDbLine
 10
149.1783286243887
 20
2729.322237367302
 30
0.0
 11
121.0911822017889
 21
2757.409383789902
 31
0.0
  0
LINE
  5
3C64A
330
3C648
100
AcDbEntity
  8
0
 62
     0
100
AcDbLine
 10
149.1783286243886
 20
2594.618395551265
 30
0.0
 11
107.7641056111323
 21
2636.032618564521
 31
0.0
  0
LINE
  5
3C64B
330
3C648
100
AcDbEntity
  8
0
 62
     0
100
AcDbLine
 10
149.1783286243886
 20
2459.914553735229
 30
0.0
 11
107.7641056111311
 21
2501.328776748486
 31
0.0
  0
LINE
  5
3C64C
330
3C648
100
AcDbEntity
  8
0
 62
     0
100
AcDbLine
 10
149.1783286243886
 20
2325.210711919191
 30
0.0
 11
107.7641056111323
 21
2366.624934932448
 31
0.0
  0
LINE
  5
3C64D
330
3C648
100
AcDbEntity
  8
0
 62
     0
100
AcDbLine
 10
149.1783286243886
 20
2190.506870103154
 30
0.0
 11
107.7641056111323
 21
2231.92109311641
 31
0.0
  0
LINE
  5
3C64E
330
3C648
100
AcDbEntity
  8
0
 62
     0
100
AcDbLine
 10
149.1783286243886
 20
2055.803028287117
 30
0.0
 11
107.7641056111323
 21
2097.217251300373
 31
0.0
  0
LINE
  5
3C64F
330
3C648
100
AcDbEntity
  8
0
 62
     0
100
AcDbLine
 10
149.1783286243886
 20
1921.09918647108
 30
0.0
 11
107.7641056111336
 21
1962.513409484334
 31
0.0
  0
LINE
  5
3C650
330
3C648
100
AcDbEntity
  8
0
 62
     0
100
AcDbLine
 10
149.1783286243886
 20
1786.395344655042
 30
0.0
 11
107.7641056111336
 21
1827.809567668297
 31
0.0
  0
LINE
  5
3C651
330
3C648
100
AcDbEntity
  8
0
 62
     0
100
AcDbLine
 10
149.1783286243886
 20
1651.691502839005
 30
0.0
 11
107.7641056111336
 21
1693.10572585226
 31
0.0
  0
LINE
  5
3C652
330
3C648
100
AcDbEntity
  8
0
 62
     0
100
AcDbLine
 10
149.1783286243888
 20
1516.987661022967
 30
0.0
 11
107.7641056111339
 21
1558.401884036222
 31
0.0
  0
LINE
  5
3C653
330
3C648
100
AcDbEntity
  8
0
 62
     0
100
AcDbLine
 10
123.9213582838819
 20
2704.065267026796
 30
0.0
 11
107.7641056111314
 21
2720.222519699547
 31
0.0
  0
LINE
  5
3C654
330
3C648
100
AcDbEntity
  8
0
 62
     0
100
AcDbLine
 10
203.7641056111321
 20
2624.222519699546
 30
0.0
 11
191.2732791919006
 21
2636.713346118777
 31
0.0
  0
LINE
  5
3C655
330
3C648
100
AcDbEntity
  8
0
 62
     0
100
AcDbLine
 10
123.9213582838819
 20
2569.361425210759
 30
0.0
 11
107.7641056111326
 21
2585.518677883508
 31
0.0
  0
LINE
  5
3C656
330
3C648
100
AcDbEntity
  8
0
 62
     0
100
AcDbLine
 10
203.7641056111321
 20
2489.518677883508
 30
0.0
 11
191.2732791919006
 21
2502.00950430274
 31
0.0
  0
LINE
  5
3C657
330
3C648
100
AcDbEntity
  8
0
 62
     0
100
AcDbLine
 10
123.9213582838819
 20
2434.657583394722
 30
0.0
 11
107.7641056111326
 21
2450.814836067471
 31
0.0
  0
LINE
  5
3C658
330
3C648
100
AcDbEntity
  8
0
 62
     0
100
AcDbLine
 10
203.7641056111321
 20
2354.814836067472
 30
0.0
 11
191.2732791919005
 21
2367.305662486704
 31
0.0
  0
LINE
  5
3C659
330
3C648
100
AcDbEntity
  8
0
 62
     0
100
AcDbLine
 10
123.9213582838825
 20
2299.953741578684
 30
0.0
 11
107.7641056111332
 21
2316.110994251433
 31
0.0
  0
LINE
  5
3C65A
330
3C648
100
AcDbEntity
  8
0
 62
     0
100
AcDbLine
 10
203.7641056111321
 20
2220.110994251434
 30
0.0
 11
191.2732791919011
 21
2232.601820670665
 31
0.0
  0
LINE
  5
3C65B
330
3C648
100
AcDbEntity
  8
0
 62
     0
100
AcDbLine
 10
123.9213582838819
 20
2165.249899762648
 30
0.0
 11
107.7641056111332
 21
2181.407152435396
 31
0.0
  0
LINE
  5
3C65C
330
3C648
100
AcDbEntity
  8
0
 62
     0
100
AcDbLine
 10
203.7641056111321
 20
2085.407152435397
 30
0.0
 11
191.2732791919005
 21
2097.897978854629
 31
0.0
  0
LINE
  5
3C65D
330
3C648
100
AcDbEntity
  8
0
 62
     0
100
AcDbLine
 10
123.9213582838825
 20
2030.546057946609
 30
0.0
 11
107.7641056111338
 21
2046.703310619358
 31
0.0
  0
LINE
  5
3C65E
330
3C648
100
AcDbEntity
  8
0
 62
     0
100
AcDbLine
 10
203.7641056111321
 20
1950.70331061936
 30
0.0
 11
191.2732791919011
 21
1963.194137038591
 31
0.0
  0
LINE
  5
3C65F
330
3C648
100
AcDbEntity
  8
0
 62
     0
100
AcDbLine
 10
123.9213582838825
 20
1895.842216130572
 30
0.0
 11
107.7641056111345
 21
1911.999468803321
 31
0.0
  0
LINE
  5
3C660
330
3C648
100
AcDbEntity
  8
0
 62
     0
100
AcDbLine
 10
203.7641056111321
 20
1815.999468803323
 30
0.0
 11
191.2732791919011
 21
1828.490295222554
 31
0.0
  0
LINE
  5
3C661
330
3C648
100
AcDbEntity
  8
0
 62
     0
100
AcDbLine
 10
123.9213582838825
 20
1761.138374314535
 30
0.0
 11
107.7641056111345
 21
1777.295626987283
 31
0.0
  0
LINE
  5
3C662
330
3C648
100
AcDbEntity
  8
0
 62
     0
100
AcDbLine
 10
203.7641056111321
 20
1681.295626987286
 30
0.0
 11
191.2732791919011
 21
1693.786453406516
 31
0.0
  0
LINE
  5
3C663
330
3C648
100
AcDbEntity
  8
0
 62
     0
100
AcDbLine
 10
123.9213582838825
 20
1626.434532498498
 30
0.0
 11
107.7641056111351
 21
1642.591785171245
 31
0.0
  0
LINE
  5
3C664
330
3C648
100
AcDbEntity
  8
0
 62
     0
100
AcDbLine
 10
203.7641056111321
 20
1546.591785171248
 30
0.0
 11
191.2732791919011
 21
1559.082611590479
 31
0.0
  0
LINE
  5
3C665
330
3C648
100
AcDbEntity
  8
0
 62
     0
100
AcDbLine
 10
116.2426651764392
 20
1499.409383789904
 30
0.0
 11
107.7641056111354
 21
1507.887943355207
 31
0.0
  0
LINE
  5
3C666
330
3C648
100
AcDbEntity
  8
0
 62
     0
100
AcDbLine
 10
203.7641056111319
 20
2708.412420834569
 30
0.0
 11
166.0163088513933
 21
2746.160217594308
 31
0.0
  0
LINE
  5
3C667
330
3C648
100
AcDbEntity
  8
0
 62
     0
100
AcDbLine
 10
203.7641056111318
 20
2573.708579018531
 30
0.0
 11
166.0163088513933
 21
2611.45637577827
 31
0.0
  0
LINE
  5
3C668
330
3C648
100
AcDbEntity
  8
0
 62
     0
100
AcDbLine
 10
203.7641056111318
 20
2439.004737202494
 30
0.0
 11
166.0163088513933
 21
2476.752533962233
 31
0.0
  0
LINE
  5
3C669
330
3C648
100
AcDbEntity
  8
0
 62
     0
100
AcDbLine
 10
203.7641056111318
 20
2304.300895386457
 30
0.0
 11
166.0163088513933
 21
2342.048692146196
 31
0.0
  0
LINE
  5
3C66A
330
3C648
100
AcDbEntity
  8
0
 62
     0
100
AcDbLine
 10
203.7641056111318
 20
2169.59705357042
 30
0.0
 11
166.0163088513933
 21
2207.344850330159
 31
0.0
  0
LINE
  5
3C66B
330
3C648
100
AcDbEntity
  8
0
 62
     0
100
AcDbLine
 10
203.7641056111318
 20
2034.893211754383
 30
0.0
 11
166.0163088513933
 21
2072.641008514122
 31
0.0
  0
LINE
  5
3C66C
330
3C648
100
AcDbEntity
  8
0
 62
     0
100
AcDbLine
 10
203.7641056111318
 20
1900.189369938345
 30
0.0
 11
166.0163088513933
 21
1937.937166698084
 31
0.0
  0
LINE
  5
3C66D
330
3C648
100
AcDbEntity
  8
0
 62
     0
100
AcDbLine
 10
203.7641056111318
 20
1765.485528122308
 30
0.0
 11
166.0163088513933
 21
1803.233324882047
 31
0.0
  0
LINE
  5
3C66E
330
3C648
100
AcDbEntity
  8
0
 62
     0
100
AcDbLine
 10
203.7641056111318
 20
1630.781686306271
 30
0.0
 11
166.0163088513933
 21
1668.529483066009
 31
0.0
  0
LINE
  5
3C66F
330
3C648
100
AcDbEntity
  8
0
 62
     0
100
AcDbLine
 10
200.4325663114616
 20
1499.409383789904
 30
0.0
 11
166.0163088513935
 21
1533.825641249972
 31
0.0
  0
LINE
  5
3C670
330
3C648
100
AcDbEntity
  8
0
 62
     0
100
AcDbLine
 10
148.4380316183269
 20
1499.409383789902
 30
0.0
 11
166.0163088513929
 21
1516.987661022968
 31
0.0
  0
LINE
  5
3C671
330
3C648
100
AcDbEntity
  8
0
 62
     0
100
AcDbLine
 10
107.764105611136
 20
1593.439299598749
 30
0.0
 11
166.0163088513931
 21
1651.691502839006
 31
0.0
  0
LINE
  5
3C672
330
3C648
100
AcDbEntity
  8
0
 62
     0
100
AcDbLine
 10
107.764105611136
 20
1728.143141414786
 30
0.0
 11
166.0163088513931
 21
1786.395344655043
 31
0.0
  0
LINE
  5
3C673
330
3C648
100
AcDbEntity
  8
0
 62
     0
100
AcDbLine
 10
107.764105611136
 20
1862.846983230823
 30
0.0
 11
166.0163088513931
 21
1921.099186471081
 31
0.0
  0
LINE
  5
3C674
330
3C648
100
AcDbEntity
  8
0
 62
     0
100
AcDbLine
 10
107.7641056111333
 20
1997.550825046858
 30
0.0
 11
166.0163088513929
 21
2055.803028287118
 31
0.0
  0
LINE
  5
3C675
330
3C648
100
AcDbEntity
  8
0
 62
     0
100
AcDbLine
 10
107.7641056111333
 20
2132.254666862895
 30
0.0
 11
166.0163088513929
 21
2190.506870103155
 31
0.0
  0
LINE
  5
3C676
330
3C648
100
AcDbEntity
  8
0
 62
     0
100
AcDbLine
 10
107.7641056111333
 20
2266.958508678933
 30
0.0
 11
166.0163088513929
 21
2325.210711919194
 31
0.0
  0
LINE
  5
3C677
330
3C648
100
AcDbEntity
  8
0
 62
     0
100
AcDbLine
 10
107.7641056111333
 20
2401.66235049497
 30
0.0
 11
166.0163088513929
 21
2459.91455373523
 31
0.0
  0
LINE
  5
3C678
330
3C648
100
AcDbEntity
  8
0
 62
     0
100
AcDbLine
 10
107.7641056111333
 20
2536.366192311007
 30
0.0
 11
166.0163088513929
 21
2594.618395551267
 31
0.0
  0
LINE
  5
3C679
330
3C648
100
AcDbEntity
  8
0
 62
     0
100
AcDbLine
 10
107.7641056111315
 20
2671.070034127043
 30
0.0
 11
166.0163088513924
 21
2729.322237367304
 31
0.0
  0
LINE
  5
3C67A
330
3C648
100
AcDbEntity
  8
0
 62
     0
100
AcDbLine
 10
123.9213582838823
 20
1559.08261159048
 30
0.0
 11
191.273279191901
 21
1626.434532498499
 31
0.0
  0
LINE
  5
3C67B
330
3C648
100
AcDbEntity
  8
0
 62
     0
100
AcDbLine
 10
123.9213582838822
 20
1693.786453406517
 30
0.0
 11
191.2732791919008
 21
1761.138374314536
 31
0.0
  0
LINE
  5
3C67C
330
3C648
100
AcDbEntity
  8
0
 62
     0
100
AcDbLine
 10
123.9213582838822
 20
1828.490295222555
 30
0.0
 11
191.2732791919008
 21
1895.842216130573
 31
0.0
  0
LINE
  5
3C67D
330
3C648
100
AcDbEntity
  8
0
 62
     0
100
AcDbLine
 10
123.9213582838822
 20
1963.194137038592
 30
0.0
 11
191.2732791919008
 21
2030.546057946611
 31
0.0
  0
LINE
  5
3C67E
330
3C648
100
AcDbEntity
  8
0
 62
     0
100
AcDbLine
 10
123.9213582838822
 20
2097.897978854629
 30
0.0
 11
191.2732791919008
 21
2165.249899762648
 31
0.0
  0
LINE
  5
3C67F
330
3C648
100
AcDbEntity
  8
0
 62
     0
100
AcDbLine
 10
123.9213582838829
 20
2232.601820670667
 30
0.0
 11
191.2732791919016
 21
2299.953741578686
 31
0.0
  0
LINE
  5
3C680
330
3C648
100
AcDbEntity
  8
0
 62
     0
100
AcDbLine
 10
123.9213582838829
 20
2367.305662486705
 30
0.0
 11
191.2732791919016
 21
2434.657583394724
 31
0.0
  0
LINE
  5
3C681
330
3C648
100
AcDbEntity
  8
0
 62
     0
100
AcDbLine
 10
123.921358283882
 20
2502.009504302741
 30
0.0
 11
191.2732791919007
 21
2569.36142521076
 31
0.0
  0
LINE
  5
3C682
330
3C648
100
AcDbEntity
  8
0
 62
     0
100
AcDbLine
 10
123.921358283882
 20
2636.713346118778
 30
0.0
 11
191.2732791919007
 21
2704.065267026797
 31
0.0
  0
LINE
  5
3C683
330
3C648
100
AcDbEntity
  8
0
 62
     0
100
AcDbLine
 10
149.1783286243881
 20
1533.825641249973
 30
0.0
 11
203.7641056111314
 21
1588.411418236716
 31
0.0
  0
LINE
  5
3C684
330
3C648
100
AcDbEntity
  8
0
 62
     0
100
AcDbLine
 10
149.1783286243884
 20
1668.529483066009
 30
0.0
 11
203.7641056111317
 21
1723.115260052754
 31
0.0
  0
LINE
  5
3C685
330
3C648
100
AcDbEntity
  8
0
 62
     0
100
AcDbLine
 10
149.1783286243884
 20
1803.233324882048
 30
0.0
 11
203.7641056111317
 21
1857.819101868791
 31
0.0
  0
LINE
  5
3C686
330
3C648
100
AcDbEntity
  8
0
 62
     0
100
AcDbLine
 10
149.1783286243879
 20
1937.937166698084
 30
0.0
 11
203.7641056111311
 21
1992.522943684828
 31
0.0
  0
LINE
  5
3C687
330
3C648
100
AcDbEntity
  8
0
 62
     0
100
AcDbLine
 10
149.1783286243883
 20
2072.641008514123
 30
0.0
 11
203.7641056111315
 21
2127.226785500866
 31
0.0
  0
LINE
  5
3C688
330
3C648
100
AcDbEntity
  8
0
 62
     0
100
AcDbLine
 10
149.1783286243883
 20
2207.34485033016
 30
0.0
 11
203.7641056111315
 21
2261.930627316903
 31
0.0
  0
LINE
  5
3C689
330
3C648
100
AcDbEntity
  8
0
 62
     0
100
AcDbLine
 10
149.1783286243883
 20
2342.048692146197
 30
0.0
 11
203.7641056111315
 21
2396.634469132941
 31
0.0
  0
LINE
  5
3C68A
330
3C648
100
AcDbEntity
  8
0
 62
     0
100
AcDbLine
 10
149.1783286243883
 20
2476.752533962236
 30
0.0
 11
203.7641056111315
 21
2531.338310948978
 31
0.0
  0
LINE
  5
3C68B
330
3C648
100
AcDbEntity
  8
0
 62
     0
100
AcDbLine
 10
149.1783286243883
 20
2611.456375778272
 30
0.0
 11
203.7641056111315
 21
2666.042152765015
 31
0.0
  0
LINE
  5
3C68C
330
3C648
100
AcDbEntity
  8
0
 62
     0
100
AcDbLine
 10
149.1783286243878
 20
2746.160217594308
 30
0.0
 11
160.4274948199828
 21
2757.409383789903
 31
0.0
  0
ENDBLK
  5
3C68E
330
3C648
100
AcDbEntity
  8
0
100
AcDbBlockEnd
  0
BLOCK
  5
3C6D4
330
3C68F
100
AcDbEntity
  8
0
100
AcDbBlockBegin
  2
*X8
 70
     1
 10
0.0
 20
0.0
 30
0.0
  3
*X8
  1

  0
LINE
  5
3C690
330
3C68F
100
AcDbEntity
  8
0
 62
     0
100
AcDbLine
 10
-2.235894388868131
 20
2880.736460380559
 30
0.0
 11
-52.87743409966726
 21
2931.378000091358
 31
0.0
  0
LINE
  5
3C691
330
3C68F
100
AcDbEntity
  8
0
 62
     0
100
AcDbLine
 10
-123.6126596142508
 20
2867.409383789905
 30
0.0
 11
-187.5812759157051
 21
2931.37800009136
 31
0.0
  0
LINE
  5
3C692
330
3C68F
100
AcDbEntity
  8
0
 62
     0
100
AcDbLine
 10
-258.3165014302881
 20
2867.409383789905
 30
0.0
 11
-322.2851177317412
 21
2931.378000091358
 31
0.0
  0
LINE
  5
3C693
330
3C68F
100
AcDbEntity
  8
0
 62
     0
100
AcDbLine
 10
-393.0203432463254
 20
2867.409383789905
 30
0.0
 11
-456.9889595477786
 21
2931.378000091358
 31
0.0
  0
LINE
  5
3C694
330
3C68F
100
AcDbEntity
  8
0
 62
     0
100
AcDbLine
 10
-527.7241850623627
 20
2867.409383789905
 30
0.0
 11
-591.6928013638157
 21
2931.378000091358
 31
0.0
  0
LINE
  5
3C695
330
3C68F
100
AcDbEntity
  8
0
 62
     0
100
AcDbLine
 10
-662.4280268783999
 20
2867.409383789905
 30
0.0
 11
-726.3966431798531
 21
2931.378000091358
 31
0.0
  0
LINE
  5
3C696
330
3C68F
100
AcDbEntity
  8
0
 62
     0
100
AcDbLine
 10
-797.1318686944372
 20
2867.409383789905
 30
0.0
 11
-861.1004849958904
 21
2931.378000091358
 31
0.0
  0
LINE
  5
3C697
330
3C68F
100
AcDbEntity
  8
0
 62
     0
100
AcDbLine
 10
-931.8357105104746
 20
2867.409383789905
 30
0.0
 11
-995.8043268119277
 21
2931.378000091358
 31
0.0
  0
LINE
  5
3C698
330
3C68F
100
AcDbEntity
  8
0
 62
     0
100
AcDbLine
 10
-1066.539552326511
 20
2867.409383789905
 30
0.0
 11
-1130.508168627966
 21
2931.37800009136
 31
0.0
  0
LINE
  5
3C699
330
3C68F
100
AcDbEntity
  8
0
 62
     0
100
AcDbLine
 10
-1201.243394142548
 20
2867.409383789905
 30
0.0
 11
-1260.235894388868
 21
2926.401884036225
 31
0.0
  0
LINE
  5
3C69A
330
3C68F
100
AcDbEntity
  8
0
 62
     0
100
AcDbLine
 10
-39.42275847922727
 20
2867.409383789905
 30
0.0
 11
-78.13440444017334
 21
2906.121029750851
 31
0.0
  0
LINE
  5
3C69B
330
3C68F
100
AcDbEntity
  8
0
 62
     0
100
AcDbLine
 10
-174.1266002952645
 20
2867.409383789905
 30
0.0
 11
-212.8382462562106
 21
2906.121029750851
 31
0.0
  0
LINE
  5
3C69C
330
3C68F
100
AcDbEntity
  8
0
 62
     0
100
AcDbLine
 10
-308.8304421113018
 20
2867.409383789906
 30
0.0
 11
-347.5420880722479
 21
2906.121029750852
 31
0.0
  0
LINE
  5
3C69D
330
3C68F
100
AcDbEntity
  8
0
 62
     0
100
AcDbLine
 10
-443.5342839273391
 20
2867.409383789906
 30
0.0
 11
-482.2459298882852
 21
2906.121029750853
 31
0.0
  0
LINE
  5
3C69E
330
3C68F
100
AcDbEntity
  8
0
 62
     0
100
AcDbLine
 10
-578.2381257433764
 20
2867.409383789906
 30
0.0
 11
-616.9497717043225
 21
2906.121029750852
 31
0.0
  0
LINE
  5
3C69F
330
3C68F
100
AcDbEntity
  8
0
 62
     0
100
AcDbLine
 10
-712.9419675594138
 20
2867.409383789906
 30
0.0
 11
-751.6536135203598
 21
2906.121029750852
 31
0.0
  0
LINE
  5
3C6A0
330
3C68F
100
AcDbEntity
  8
0
 62
     0
100
AcDbLine
 10
-847.6458093754503
 20
2867.409383789905
 30
0.0
 11
-886.3574553363976
 21
2906.121029750853
 31
0.0
  0
LINE
  5
3C6A1
330
3C68F
100
AcDbEntity
  8
0
 62
     0
100
AcDbLine
 10
-982.349651191488
 20
2867.409383789906
 30
0.0
 11
-1021.061297152434
 21
2906.121029750852
 31
0.0
  0
LINE
  5
3C6A2
330
3C68F
100
AcDbEntity
  8
0
 62
     0
100
AcDbLine
 10
-1117.053493007525
 20
2867.409383789906
 30
0.0
 11
-1155.765138968471
 21
2906.121029750852
 31
0.0
  0
LINE
  5
3C6A3
330
3C68F
100
AcDbEntity
  8
0
 62
     0
100
AcDbLine
 10
-1251.757334823562
 20
2867.409383789906
 30
0.0
 11
-1260.235894388867
 21
2875.887943355211
 31
0.0
  0
LINE
  5
3C6A4
330
3C68F
100
AcDbEntity
  8
0
 62
     0
100
AcDbLine
 10
-36.03945387266259
 20
2948.215980318363
 30
0.0
 11
-51.23285734420562
 21
2963.409383789906
 31
0.0
  0
LINE
  5
3C6A5
330
3C68F
100
AcDbEntity
  8
0
 62
     0
100
AcDbLine
 10
-170.7432956887005
 20
2948.215980318364
 30
0.0
 11
-185.9366991602422
 21
2963.409383789906
 31
0.0
  0
LINE
  5
3C6A6
330
3C68F
100
AcDbEntity
  8
0
 62
     0
100
AcDbLine
 10
-89.93669916024151
 20
2867.409383789905
 30
0.0
 11
-103.3913747806818
 21
2880.864059410345
 31
0.0
  0
LINE
  5
3C6A7
330
3C68F
100
AcDbEntity
  8
0
 62
     0
100
AcDbLine
 10
-305.4471375047378
 20
2948.215980318364
 30
0.0
 11
-320.6405409762795
 21
2963.409383789906
 31
0.0
  0
LINE
  5
3C6A8
330
3C68F
100
AcDbEntity
  8
0
 62
     0
100
AcDbLine
 10
-224.6405409762788
 20
2867.409383789905
 30
0.0
 11
-238.0952165967191
 21
2880.864059410345
 31
0.0
  0
LINE
  5
3C6A9
330
3C68F
100
AcDbEntity
  8
0
 62
     0
100
AcDbLine
 10
-440.1509793207738
 20
2948.215980318363
 30
0.0
 11
-455.3443827923155
 21
2963.409383789905
 31
0.0
  0
LINE
  5
3C6AA
330
3C68F
100
AcDbEntity
  8
0
 62
     0
100
AcDbLine
 10
-359.3443827923161
 20
2867.409383789905
 30
0.0
 11
-372.7990584127552
 21
2880.864059410345
 31
0.0
  0
LINE
  5
3C6AB
330
3C68F
100
AcDbEntity
  8
0
 62
     0
100
AcDbLine
 10
-574.8548211368111
 20
2948.215980318363
 30
0.0
 11
-590.0482246083529
 21
2963.409383789905
 31
0.0
  0
LINE
  5
3C6AC
330
3C68F
100
AcDbEntity
  8
0
 62
     0
100
AcDbLine
 10
-494.0482246083533
 20
2867.409383789905
 30
0.0
 11
-507.5029002287926
 21
2880.864059410345
 31
0.0
  0
LINE
  5
3C6AD
330
3C68F
100
AcDbEntity
  8
0
 62
     0
100
AcDbLine
 10
-709.5586629528484
 20
2948.215980318363
 30
0.0
 11
-724.7520664243901
 21
2963.409383789905
 31
0.0
  0
LINE
  5
3C6AE
330
3C68F
100
AcDbEntity
  8
0
 62
     0
100
AcDbLine
 10
-628.7520664243905
 20
2867.409383789905
 30
0.0
 11
-642.2067420448297
 21
2880.864059410345
 31
0.0
  0
LINE
  5
3C6AF
330
3C68F
100
AcDbEntity
  8
0
 62
     0
100
AcDbLine
 10
-844.2625047688856
 20
2948.215980318363
 30
0.0
 11
-859.4559082404261
 21
2963.409383789904
 31
0.0
  0
LINE
  5
3C6B0
330
3C68F
100
AcDbEntity
  8
0
 62
     0
100
AcDbLine
 10
-763.455908240428
 20
2867.409383789905
 30
0.0
 11
-776.9105838608671
 21
2880.864059410345
 31
0.0
  0
LINE
  5
3C6B1
330
3C68F
100
AcDbEntity
  8
0
 62
     0
100
AcDbLine
 10
-978.9663465849228
 20
2948.215980318363
 30
0.0
 11
-994.1597500564633
 21
2963.409383789904
 31
0.0
  0
LINE
  5
3C6B2
330
3C68F
100
AcDbEntity
  8
0
 62
     0
100
AcDbLine
 10
-898.1597500564653
 20
2867.409383789905
 30
0.0
 11
-911.6144256769045
 21
2880.864059410345
 31
0.0
  0
LINE
  5
3C6B3
330
3C68F
100
AcDbEntity
  8
0
 62
     0
100
AcDbLine
 10
-1113.67018840096
 20
2948.215980318363
 30
0.0
 11
-1128.8635918725
 21
2963.409383789904
 31
0.0
  0
LINE
  5
3C6B4
330
3C68F
100
AcDbEntity
  8
0
 62
     0
100
AcDbLine
 10
-1032.863591872502
 20
2867.409383789905
 30
0.0
 11
-1046.318267492941
 21
2880.864059410345
 31
0.0
  0
LINE
  5
3C6B5
330
3C68F
100
AcDbEntity
  8
0
 62
     0
100
AcDbLine
 10
-1248.374030216998
 20
2948.215980318364
 30
0.0
 11
-1260.235894388868
 21
2960.077844490234
 31
0.0
  0
LINE
  5
3C6B6
330
3C68F
100
AcDbEntity
  8
0
 62
     0
100
AcDbLine
 10
-1167.567433688539
 20
2867.409383789905
 30
0.0
 11
-1181.022109308979
 21
2880.864059410345
 31
0.0
  0
LINE
  5
3C6B7
330
3C68F
100
AcDbEntity
  8
0
 62
     0
100
AcDbLine
 10
-36.03945387266334
 20
2931.37800009136
 30
0.0
 11
-4.008070174118201
 21
2963.409383789905
 31
0.0
  0
LINE
  5
3C6B8
330
3C68F
100
AcDbEntity
  8
0
 62
     0
100
AcDbLine
 10
-170.7432956887006
 20
2931.37800009136
 30
0.0
 11
-138.7119119901555
 21
2963.409383789905
 31
0.0
  0
LINE
  5
3C6B9
330
3C68F
100
AcDbEntity
  8
0
 62
     0
100
AcDbLine
 10
-305.4471375047379
 20
2931.37800009136
 30
0.0
 11
-273.4157538061928
 21
2963.409383789905
 31
0.0
  0
LINE
  5
3C6BA
330
3C68F
100
AcDbEntity
  8
0
 62
     0
100
AcDbLine
 10
-440.1509793207751
 20
2931.37800009136
 30
0.0
 11
-408.1195956222301
 21
2963.409383789905
 31
0.0
  0
LINE
  5
3C6BB
330
3C68F
100
AcDbEntity
  8
0
 62
     0
100
AcDbLine
 10
-574.8548211368126
 20
2931.37800009136
 30
0.0
 11
-542.8234374382673
 21
2963.409383789905
 31
0.0
  0
LINE
  5
3C6BC
330
3C68F
100
AcDbEntity
  8
0
 62
     0
100
AcDbLine
 10
-709.5586629528497
 20
2931.37800009136
 30
0.0
 11
-677.5272792543047
 21
2963.409383789905
 31
0.0
  0
LINE
  5
3C6BD
330
3C68F
100
AcDbEntity
  8
0
 62
     0
100
AcDbLine
 10
-844.2625047688872
 20
2931.37800009136
 30
0.0
 11
-812.2311210703418
 21
2963.409383789905
 31
0.0
  0
LINE
  5
3C6BE
330
3C68F
100
AcDbEntity
  8
0
 62
     0
100
AcDbLine
 10
-978.9663465849242
 20
2931.37800009136
 30
0.0
 11
-946.934962886382
 21
2963.409383789903
 31
0.0
  0
LINE
  5
3C6BF
330
3C68F
100
AcDbEntity
  8
0
 62
     0
100
AcDbLine
 10
-1113.670188400962
 20
2931.37800009136
 30
0.0
 11
-1081.638804702419
 21
2963.409383789903
 31
0.0
  0
LINE
  5
3C6C0
330
3C68F
100
AcDbEntity
  8
0
 62
     0
100
AcDbLine
 10
-1248.374030216999
 20
2931.37800009136
 30
0.0
 11
-1216.342646518457
 21
2963.409383789902
 31
0.0
  0
LINE
  5
3C6C1
330
3C68F
100
AcDbEntity
  8
0
 62
     0
100
AcDbLine
 10
-10.78248353215543
 20
2906.121029750853
 30
0.0
 11
-2.235894388870538
 21
2914.667618894139
 31
0.0
  0
LINE
  5
3C6C2
330
3C68F
100
AcDbEntity
  8
0
 62
     0
100
AcDbLine
 10
-145.4863253481927
 20
2906.121029750853
 30
0.0
 11
-88.19797130914059
 21
2963.409383789905
 31
0.0
  0
LINE
  5
3C6C3
330
3C68F
100
AcDbEntity
  8
0
 62
     0
100
AcDbLine
 10
-280.19016716423
 20
2906.121029750853
 30
0.0
 11
-222.9018131251779
 21
2963.409383789905
 31
0.0
  0
LINE
  5
3C6C4
330
3C68F
100
AcDbEntity
  8
0
 62
     0
100
AcDbLine
 10
-414.8940089802673
 20
2906.121029750853
 30
0.0
 11
-357.6056549412152
 21
2963.409383789905
 31
0.0
  0
LINE
  5
3C6C5
330
3C68F
100
AcDbEntity
  8
0
 62
     0
100
AcDbLine
 10
-549.5978507963046
 20
2906.121029750853
 30
0.0
 11
-492.3094967572525
 21
2963.409383789905
 31
0.0
  0
LINE
  5
3C6C6
330
3C68F
100
AcDbEntity
  8
0
 62
     0
100
AcDbLine
 10
-684.301692612342
 20
2906.121029750853
 30
0.0
 11
-627.013338573291
 21
2963.409383789904
 31
0.0
  0
LINE
  5
3C6C7
330
3C68F
100
AcDbEntity
  8
0
 62
     0
100
AcDbLine
 10
-819.0055344283791
 20
2906.121029750853
 30
0.0
 11
-761.7171803893283
 21
2963.409383789904
 31
0.0
  0
LINE
  5
3C6C8
330
3C68F
100
AcDbEntity
  8
0
 62
     0
100
AcDbLine
 10
-953.7093762444159
 20
2906.121029750853
 30
0.0
 11
-896.4210222053676
 21
2963.409383789901
 31
0.0
  0
LINE
  5
3C6C9
330
3C68F
100
AcDbEntity
  8
0
 62
     0
100
AcDbLine
 10
-1088.413218060453
 20
2906.121029750853
 30
0.0
 11
-1031.124864021405
 21
2963.409383789901
 31
0.0
  0
LINE
  5
3C6CA
330
3C68F
100
AcDbEntity
  8
0
 62
     0
100
AcDbLine
 10
-1223.11705987649
 20
2906.121029750854
 30
0.0
 11
-1165.828705837441
 21
2963.409383789902
 31
0.0
  0
LINE
  5
3C6CB
330
3C68F
100
AcDbEntity
  8
0
 62
     0
100
AcDbLine
 10
-120.2293550076866
 20
2880.864059410346
 30
0.0
 11
-52.87743409966799
 21
2948.215980318364
 31
0.0
  0
LINE
  5
3C6CC
330
3C68F
100
AcDbEntity
  8
0
 62
     0
100
AcDbLine
 10
-254.9331968237239
 20
2880.864059410346
 30
0.0
 11
-187.5812759157053
 21
2948.215980318364
 31
0.0
  0
LINE
  5
3C6CD
330
3C68F
100
AcDbEntity
  8
0
 62
     0
100
AcDbLine
 10
-389.6370386397612
 20
2880.864059410346
 30
0.0
 11
-322.2851177317426
 21
2948.215980318364
 31
0.0
  0
LINE
  5
3C6CE
330
3C68F
100
AcDbEntity
  8
0
 62
     0
100
AcDbLine
 10
-524.3408804557986
 20
2880.864059410346
 30
0.0
 11
-456.9889595477798
 21
2948.215980318364
 31
0.0
  0
LINE
  5
3C6CF
330
3C68F
100
AcDbEntity
  8
0
 62
     0
100
AcDbLine
 10
-659.0447222718359
 20
2880.864059410346
 30
0.0
 11
-591.6928013638172
 21
2948.215980318364
 31
0.0
  0
LINE
  5
3C6D0
330
3C68F
100
AcDbEntity
  8
0
 62
     0
100
AcDbLine
 10
-793.7485640878731
 20
2880.864059410346
 30
0.0
 11
-726.3966431798544
 21
2948.215980318364
 31
0.0
  0
LINE
  5
3C6D1
330
3C68F
100
AcDbEntity
  8
0
 62
     0
100
AcDbLine
 10
-928.4524059039103
 20
2880.864059410346
 30
0.0
 11
-861.1004849958916
 21
2948.215980318364
 31
0.0
  0
LINE
  5
3C6D2
330
3C68F
100
AcDbEntity
  8
0
 62
     0
100
AcDbLine
 10
-1063.156247719947
 20
2880.864059410346
 30
0.0
 11
-995.8043268119293
 21
2948.215980318364
 31
0.0
  0
LINE
  5
3C6D3
330
3C68F
100
AcDbEntity
  8
0
 62
     0
100
AcDbLine
 10
-1197.860089535985
 20
2880.864059410346
 30
0.0
 11
-1130.508168627966
 21
2948.215980318364
 31
0.0
  0
ENDBLK
  5
3C6D5
330
3C68F
100
AcDbEntity
  8
0
100
AcDbBlockEnd
  0
BLOCK
  5
3C787
330
3C785
100
AcDbEntity
  8
0
100
AcDbBlockBegin
  2
GENAXEH
 70
     0
 10
0.0
 20
0.0
 30
0.0
  3
GENAXEH
  1

  0
LINE
  5
3C786
330
3C785
100
AcDbEntity
  8
0
100
AcDbLine
 10
-1.0
 20
0.0
 30
0.0
 11
1.0
 21
0.0
 31
0.0
  0
ENDBLK
  5
3C788
330
3C785
100
AcDbEntity
  8
0
100
AcDbBlockEnd
  0
BLOCK
  5
3C793
330
3C792
100
AcDbEntity
  8
0
100
AcDbBlockBegin
  2
_ACMFILLEDHALF
 70
     0
 10
0.0
 20
0.0
 30
0.0
  3
_ACMFILLEDHALF
  1

  0
TRACE
  5
3C795
330
3C792
100
AcDbEntity
  8
SCALE
 62
     0
100
AcDbTrace
 10
-0.8
 20
0.0
 30
0.0
 11
-1.0
 21
0.166666666
 31
0.0
 12
0.0
 22
0.0
 32
0.0
 13
0.0
 23
0.0
 33
0.0
  0
LINE
  5
3C796
330
3C792
100
AcDbEntity
  8
SCALE
 62
     0
100
AcDbLine
 10
-1.0
 20
0.0
 30
0.0
 11
-0.8
 21
0.0
 31
0.0
  0
ENDBLK
  5
3C794
330
3C792
100
AcDbEntity
  8
0
100
AcDbBlockEnd
  0
ENDSEC
  0
SECTION
  2
ENTITIES
  0
INSERT
  5
378
330
1D9
100
AcDbEntity
  8
0
100
AcDbBlockReference
  2
INSLYTXT
 10
0.0
 20
0.0
 30
0.0
 41
50.0
 42
50.0
 43
50.0
  0
TEXT
  5
402
330
1D9
100
AcDbEntity
  8
SCALE
100
AcDbText
 10
334.170207314295
 20
275.6991537608937
 30
0.0
 40
125.0
  1
08072080
 50
90.0
100
AcDbText
  0
LINE
  5
1C30C
330
1D9
100
AcDbEntity
  8
GAWA
100
AcDbLine
 10
400.0
 20
0.0
 30
0.0
 11
40700.0
 21
0.0
 31
0.0
  0
LINE
  5
1C30D
330
1D9
100
AcDbEntity
  8
GAWA
100
AcDbLine
 10
40700.0
 20
27750.0
 30
0.0
 11
400.0
 21
27750.0
 31
0.0
  0
LINE
  5
1C312
330
1D9
100
AcDbEntity
  8
GAWA
100
AcDbLine
 10
400.0
 20
27750.0
 30
0.0
 11
400.0
 21
0.0
 31
0.0
  0
LINE
  5
1C313
330
1D9
100
AcDbEntity
  8
GAWA
100
AcDbLine
 10
20350.0
 20
0.0
 30
0.0
 11
800.0
 21
0.0
 31
0.0
  0
LINE
  5
1C876
330
1D9
100
AcDbEntity
  8
GAWA
100
AcDbLine
 10
40700.0
 20
0.0
 30
0.0
 11
40700.0
 21
27750.0
 31
0.0
  0
LINE
  5
237E4
330
1D9
100
AcDbEntity
  8
KARISEN
100
AcDbLine
 10
10475.0
 20
0.0
 30
0.0
 11
10475.0
 21
23750.0
 31
0.0
  0
LINE
  5
237E8
330
1D9
100
AcDbEntity
  8
KARISEN
100
AcDbLine
 10
400.0
 20
11875.0
 30
0.0
 11
40700.0
 21
11875.0
 31
0.0
  0
LINE
  5
3730B
330
1D9
100
AcDbEntity
  8
GAWA
100
AcDbLine
 10
40700.0
 20
23750.0
 30
0.0
 11
400.0
 21
23750.0
 31
0.0
  0
TEXT
  5
3730E
330
1D9
100
AcDbEntity
  8
SCALE
100
AcDbText
 10
1580.187715949461
 20
25367.89487598947
 30
0.0
 40
700.0
  1
立て１本タイプ 〔免震量600mm〕
100
AcDbText
  0
TEXT
  5
3730F
330
1D9
100
AcDbEntity
  8
SCALE
100
AcDbText
 10
29042.64137862995
 20
26595.55792631191
 30
0.0
 40
500.0
  1
用途例：消火20K
100
AcDbText
  0
TEXT
  5
37310
330
1D9
100
AcDbEntity
  8
SCALE
100
AcDbText
 10
29042.64137862995
 20
25480.72112210882
 30
0.0
 40
500.0
  1
使用圧力：2.0MPa
100
AcDbText
  0
TEXT
  5
37311
330
1D9
100
AcDbEntity
  8
SCALE
100
AcDbText
 10
29042.64137862995
 20
24375.72307610926
 30
0.0
 40
500.0
  1
フレキ：金属
100
AcDbText
  0
TEXT
  5
37405
330
1D9
100
AcDbEntity
  8
SCALE
100
AcDbText
 10
4347.5
 20
22788.65138240629
 30
0.0
 40
200.0
  1
品番:MB6125S20
 72
     4
 11
5437.5
 21
22888.65138240629
 31
0.0
100
AcDbText
  0
TEXT
  5
37406
330
1D9
100
AcDbEntity
  8
SCALE
100
AcDbText
 10
5104.166666666667
 20
23274.05315616936
 30
0.0
 40
200.0
  1
125A
 72
     4
 11
5437.5
 21
23374.05315616936
 31
0.0
100
AcDbText
  0
TEXT
  5
37886
330
1D9
100
AcDbEntity
  8
SCALE
100
AcDbText
 10
4430.0
 20
20655.46099052469
 30
0.0
 40
90.0
  1

 72
     4
 11
4430.0
 21
20655.46099052469
 31
0.0
100
AcDbText
  0
TEXT
  5
37922
330
1D9
100
AcDbEntity
  8
SCALE
100
AcDbText
 10
12489.99999999999
 20
20655.46099052469
 30
0.0
 40
90.0
  1

 72
     4
 11
12489.99999999999
 21
20655.46099052469
 31
0.0
100
AcDbText
  0
TEXT
  5
379D8
330
1D9
100
AcDbEntity
  8
SCALE
100
AcDbText
 10
20549.99999999999
 20
20655.46099052469
 30
0.0
 40
90.0
  1

 72
     4
 11
20549.99999999999
 21
20655.46099052469
 31
0.0
100
AcDbText
  0
TEXT
  5
37A67
330
1D9
100
AcDbEntity
  8
SCALE
100
AcDbText
 10
28609.99999999999
 20
20655.46099052469
 30
0.0
 40
90.0
  1

 72
     4
 11
28609.99999999999
 21
20655.46099052469
 31
0.0
100
AcDbText
  0
TEXT
  5
37B1D
330
1D9
100
AcDbEntity
  8
SCALE
100
AcDbText
 10
36670.0
 20
20655.46099052469
 30
0.0
 40
90.0
  1

 72
     4
 11
36670.0
 21
20655.46099052469
 31
0.0
100
AcDbText
  0
TEXT
  5
37C7A
330
1D9
100
AcDbEntity
  8
SCALE
100
AcDbText
 10
5110.833333333333
 20
18014.05120956041
 30
0.0
 40
200.0
  1
平面図
 72
     4
 11
5437.5
 21
18107.38454289374
 31
0.0
100
AcDbText
  0
TEXT
  5
3815B
330
1D9
100
AcDbEntity
  8
SCALE
100
AcDbText
 10
4429.999999999991
 20
8947.085404979327
 30
0.0
 40
90.0
  1

 72
     4
 11
4429.999999999991
 21
8947.085404979327
 31
0.0
100
AcDbText
  0
TEXT
  5
38175
330
1D9
100
AcDbEntity
  8
SCALE
100
AcDbText
 10
12489.99999999999
 20
8947.085404979327
 30
0.0
 40
90.0
  1

 72
     4
 11
12489.99999999999
 21
8947.085404979327
 31
0.0
100
AcDbText
  0
TEXT
  5
3830B
330
1D9
100
AcDbEntity
  8
SCALE
100
AcDbText
 10
20549.99999999999
 20
8947.085404979327
 30
0.0
 40
90.0
  1

 72
     4
 11
20549.99999999999
 21
8947.085404979327
 31
0.0
100
AcDbText
  0
TEXT
  5
3830E
330
1D9
100
AcDbEntity
  8
SCALE
100
AcDbText
 10
28609.99999999999
 20
8947.085404979327
 30
0.0
 40
90.0
  1

 72
     4
 11
28609.99999999999
 21
8947.085404979327
 31
0.0
100
AcDbText
  0
TEXT
  5
3855F
330
1D9
100
AcDbEntity
  8
SCALE
100
AcDbText
 10
5110.833333333333
 20
13743.39901384238
 30
0.0
 40
200.0
  1
断面図
 72
     4
 11
5437.5
 21
13843.39901384238
 31
0.0
100
AcDbText
  0
TEXT
  5
38A21
330
1D9
100
AcDbEntity
  8
SCALE
100
AcDbText
 10
4430.0
 20
19964.54109249415
 30
0.0
 40
90.0
  1

 72
     4
 11
4430.0
 21
19964.54109249415
 31
0.0
100
AcDbText
  0
TEXT
  5
38AAD
330
1D9
100
AcDbEntity
  8
SCALE
100
AcDbText
 10
12489.99999999999
 20
19964.54109249415
 30
0.0
 40
90.0
  1

 72
     4
 11
12489.99999999999
 21
19964.54109249415
 31
0.0
100
AcDbText
  0
TEXT
  5
38B3D
330
1D9
100
AcDbEntity
  8
SCALE
100
AcDbText
 10
20549.99999999999
 20
19964.54109249415
 30
0.0
 40
90.0
  1

 72
     4
 11
20549.99999999999
 21
19964.54109249415
 31
0.0
100
AcDbText
  0
TEXT
  5
38BD5
330
1D9
100
AcDbEntity
  8
SCALE
100
AcDbText
 10
28609.99999999999
 20
19964.54109249415
 30
0.0
 40
90.0
  1

 72
     4
 11
28609.99999999999
 21
19964.54109249415
 31
0.0
100
AcDbText
  0
TEXT
  5
38C70
330
1D9
100
AcDbEntity
  8
SCALE
100
AcDbText
 10
36670.0
 20
19964.54109249415
 30
0.0
 40
90.0
  1

 72
     4
 11
36670.0
 21
19964.54109249415
 31
0.0
100
AcDbText
  0
TEXT
  5
391C1
330
1D9
100
AcDbEntity
  8
SCALE
100
AcDbText
 10
4429.999999999991
 20
8089.541092494153
 30
0.0
 40
90.0
  1

 72
     4
 11
4429.999999999991
 21
8089.541092494153
 31
0.0
100
AcDbText
  0
TEXT
  5
3926B
330
1D9
100
AcDbEntity
  8
SCALE
100
AcDbText
 10
12489.99999999999
 20
8089.541092494153
 30
0.0
 40
90.0
  1

 72
     4
 11
12489.99999999999
 21
8089.541092494153
 31
0.0
100
AcDbText
  0
TEXT
  5
3931D
330
1D9
100
AcDbEntity
  8
SCALE
100
AcDbText
 10
20549.99999999999
 20
8089.541092494153
 30
0.0
 40
90.0
  1

 72
     4
 11
20549.99999999999
 21
8089.541092494153
 31
0.0
100
AcDbText
  0
TEXT
  5
393DC
330
1D9
100
AcDbEntity
  8
SCALE
100
AcDbText
 10
28609.99999999999
 20
8089.541092494153
 30
0.0
 40
90.0
  1

 72
     4
 11
28609.99999999999
 21
8089.541092494153
 31
0.0
100
AcDbText
  0
TEXT
  5
39C83
330
1D9
100
AcDbEntity
  8
SCALE
100
AcDbText
 10
4430.0
 20
19493.16183586523
 30
0.0
 40
90.0
  1

 72
     4
 11
4430.0
 21
19493.16183586523
 31
0.0
100
AcDbText
  0
TEXT
  5
39C93
330
1D9
100
AcDbEntity
  8
SCALE
100
AcDbText
 10
12490.0
 20
19493.16183586523
 30
0.0
 40
90.0
  1

 72
     4
 11
12490.0
 21
19493.16183586523
 31
0.0
100
AcDbText
  0
TEXT
  5
39CA3
330
1D9
100
AcDbEntity
  8
SCALE
100
AcDbText
 10
20550.0
 20
19493.16183586523
 30
0.0
 40
90.0
  1

 72
     4
 11
20550.0
 21
19493.16183586523
 31
0.0
100
AcDbText
  0
TEXT
  5
39CB3
330
1D9
100
AcDbEntity
  8
SCALE
100
AcDbText
 10
28610.0
 20
19493.16183586523
 30
0.0
 40
90.0
  1

 72
     4
 11
28610.0
 21
19493.16183586523
 31
0.0
100
AcDbText
  0
TEXT
  5
39CC3
330
1D9
100
AcDbEntity
  8
SCALE
100
AcDbText
 10
36670.0
 20
19493.16183586523
 30
0.0
 40
90.0
  1

 72
     4
 11
36670.0
 21
19493.16183586523
 31
0.0
100
AcDbText
  0
TEXT
  5
3A589
330
1D9
100
AcDbEntity
  8
SCALE
100
AcDbText
 10
4430.0
 20
7618.16183586535
 30
0.0
 40
90.0
  1

 72
     4
 11
4430.0
 21
7618.16183586535
 31
0.0
100
AcDbText
  0
TEXT
  5
3A5A1
330
1D9
100
AcDbEntity
  8
SCALE
100
AcDbText
 10
12490.0
 20
7618.16183586535
 30
0.0
 40
90.0
  1

 72
     4
 11
12490.0
 21
7618.16183586535
 31
0.0
100
AcDbText
  0
TEXT
  5
3A5B9
330
1D9
100
AcDbEntity
  8
SCALE
100
AcDbText
 10
20550.0
 20
7618.16183586535
 30
0.0
 40
90.0
  1

 72
     4
 11
20550.0
 21
7618.16183586535
 31
0.0
100
AcDbText
  0
TEXT
  5
3A5D1
330
1D9
100
AcDbEntity
  8
SCALE
100
AcDbText
 10
28610.0
 20
7618.16183586535
 30
0.0
 40
90.0
  1

 72
     4
 11
28610.0
 21
7618.16183586535
 31
0.0
100
AcDbText
  0
TEXT
  5
3ACA2
330
1D9
100
AcDbEntity
  8
SCALE
100
AcDbText
 10
-899.7026076388575
 20
22096.23025393575
 30
0.0
 40
75.0
  1

 72
     4
 11
-899.7026076388575
 21
22096.23025393575
 31
0.0
100
AcDbText
  0
TEXT
  5
3ACA3
330
1D9
100
AcDbEntity
  8
SCALE
100
AcDbText
 10
-899.7026076388575
 20
21736.23025393575
 30
0.0
 40
75.0
  1

 72
     4
 11
-899.7026076388575
 21
21736.23025393575
 31
0.0
100
AcDbText
  0
TEXT
  5
3ACA4
330
1D9
100
AcDbEntity
  8
SCALE
100
AcDbText
 10
-899.7026076388575
 20
21916.23025393575
 30
0.0
 40
75.0
  1

 72
     4
 11
-899.7026076388575
 21
21916.23025393575
 31
0.0
100
AcDbText
  0
TEXT
  5
3ACA5
330
1D9
100
AcDbEntity
  8
SCALE
100
AcDbText
 10
-899.7026076388575
 20
22816.23025393575
 30
0.0
 40
75.0
  1

 72
     4
 11
-899.7026076388575
 21
22816.23025393575
 31
0.0
100
AcDbText
  0
TEXT
  5
3ACA6
330
1D9
100
AcDbEntity
  8
SCALE
100
AcDbText
 10
-899.7026076388575
 20
22276.23025393575
 30
0.0
 40
75.0
  1

 72
     4
 11
-899.7026076388575
 21
22276.23025393575
 31
0.0
100
AcDbText
  0
TEXT
  5
3ACA7
330
1D9
100
AcDbEntity
  8
SCALE
100
AcDbText
 10
-899.7026076388575
 20
22456.23025393575
 30
0.0
 40
75.0
  1

 72
     4
 11
-899.7026076388575
 21
22456.23025393575
 31
0.0
100
AcDbText
  0
TEXT
  5
3ACA8
330
1D9
100
AcDbEntity
  8
SCALE
100
AcDbText
 10
-899.7026076388575
 20
22636.23025393575
 30
0.0
 40
75.0
  1

 72
     4
 11
-899.7026076388575
 21
22636.23025393575
 31
0.0
100
AcDbText
  0
LINE
  5
3ACC8
330
1D9
100
AcDbEntity
  8
KARISEN
100
AcDbLine
 10
20550.0
 20
0.0
 30
0.0
 11
20550.0
 21
23750.0
 31
0.0
  0
TEXT
  5
3ACCD
330
1D9
100
AcDbEntity
  8
SCALE
100
AcDbText
 10
15185.83333333333
 20
13743.39901384238
 30
0.0
 40
200.0
  1
断面図
 72
     4
 11
15512.5
 21
13843.39901384238
 31
0.0
100
AcDbText
  0
TEXT
  5
3ACCE
330
1D9
100
AcDbEntity
  8
SCALE
100
AcDbText
 10
15185.83333333333
 20
18014.05120956041
 30
0.0
 40
200.0
  1
平面図
 72
     4
 11
15512.5
 21
18107.38454289374
 31
0.0
100
AcDbText
  0
TEXT
  5
3ACCF
330
1D9
100
AcDbEntity
  8
SCALE
100
AcDbText
 10
14439.16666666666
 20
22788.65138240629
 30
0.0
 40
200.0
  1
品番:MB6150S20
 72
     4
 11
15512.5
 21
22888.65138240629
 31
0.0
100
AcDbText
  0
TEXT
  5
3ACD0
330
1D9
100
AcDbEntity
  8
SCALE
100
AcDbText
 10
15195.83333333333
 20
23274.05315616936
 30
0.0
 40
200.0
  1
150A
 72
     4
 11
15512.5
 21
23374.05315616936
 31
0.0
100
AcDbText
  0
LINE
  5
3BC18
330
1D9
100
AcDbEntity
  8
KARISEN
100
AcDbLine
 10
30625.0
 20
0.0
 30
0.0
 11
30625.0
 21
23750.0
 31
0.0
  0
TEXT
  5
3BC1F
330
1D9
100
AcDbEntity
  8
SCALE
100
AcDbText
 10
7788.437839067525
 20
22916.03736848163
 30
0.0
 40
75.0
  1

 72
     4
 11
7788.437839067525
 21
22916.03736848163
 31
0.0
100
AcDbText
  0
TEXT
  5
3BC20
330
1D9
100
AcDbEntity
  8
SCALE
100
AcDbText
 10
7788.437839067525
 20
22736.03736848162
 30
0.0
 40
75.0
  1

 72
     4
 11
7788.437839067525
 21
22736.03736848162
 31
0.0
100
AcDbText
  0
TEXT
  5
3C15C
330
1D9
100
AcDbEntity
  8
SCALE
100
AcDbText
 10
5437.5
 20
19618.69986540824
 30
0.0
 40
90.0
  1

 72
     4
 11
5437.5
 21
19618.69986540824
 31
0.0
100
AcDbText
  0
LINE
  5
3C15D
330
1D9
100
AcDbEntity
  8
CENTER
100
AcDbLine
 10
5242.5
 20
19598.01923052762
 30
0.0
 11
5632.5
 21
19598.01923052762
 31
0.0
  0
LINE
  5
3C15E
330
1D9
100
AcDbEntity
  8
CENTER
100
AcDbLine
 10
5562.22373688902
 20
19546.35696715832
 30
0.0
 11
5520.649157926033
 21
19563.5777216148
 31
0.0
  0
CIRCLE
  5
3C15F
330
1D9
100
AcDbEntity
  8
0
100
AcDbCircle
 10
5541.436447407527
 20
19554.96734438656
 30
0.0
 40
12.5
  0
LINE
  5
3C160
330
1D9
100
AcDbEntity
  8
CENTER
100
AcDbLine
 10
5562.22373688902
 20
19649.68149389693
 30
0.0
 11
5520.649157926033
 21
19632.46073944046
 31
0.0
  0
CIRCLE
  5
3C161
330
1D9
100
AcDbEntity
  8
0
100
AcDbCircle
 10
5541.436447407527
 20
19641.07111666869
 30
0.0
 40
12.5
  0
LINE
  5
3C162
330
1D9
100
AcDbEntity
  8
CENTER
100
AcDbLine
 10
5489.162263369304
 20
19722.74296741659
 30
0.0
 11
5471.941508912887
 21
19681.1683884536
 31
0.0
  0
CIRCLE
  5
3C163
330
1D9
100
AcDbEntity
  8
0
100
AcDbCircle
 10
5480.551886141068
 20
19701.95567793509
 30
0.0
 40
12.5
  0
LINE
  5
3C164
330
1D9
100
AcDbEntity
  8
CENTER
100
AcDbLine
 10
5385.837736630755
 20
19722.74296741659
 30
0.0
 11
5403.058491087169
 21
19681.1683884536
 31
0.0
  0
CIRCLE
  5
3C165
330
1D9
100
AcDbEntity
  8
0
100
AcDbCircle
 10
5394.448113858931
 20
19701.95567793509
 30
0.0
 40
12.5
  0
CIRCLE
  5
3C166
330
1D9
100
AcDbEntity
  8
0
100
AcDbCircle
 10
5437.5
 20
19598.01923052762
 30
0.0
 40
63.3
  0
CIRCLE
  5
3C167
330
1D9
100
AcDbEntity
  8
0
100
AcDbCircle
 10
5333.563552592473
 20
19554.96734438656
 30
0.0
 40
12.5
  0
LINE
  5
3C168
330
1D9
100
AcDbEntity
  8
CENTER
100
AcDbLine
 10
5312.77626311098
 20
19546.35696715832
 30
0.0
 11
5354.350842073967
 21
19563.5777216148
 31
0.0
  0
LINE
  5
3C169
330
1D9
100
AcDbEntity
  8
CENTER
100
AcDbLine
 10
5312.77626311098
 20
19649.68149389693
 30
0.0
 11
5354.350842073967
 21
19632.46073944046
 31
0.0
  0
CIRCLE
  5
3C16A
330
1D9
100
AcDbEntity
  8
0
100
AcDbCircle
 10
5333.563552592473
 20
19641.07111666869
 30
0.0
 40
12.5
  0
CIRCLE
  5
3C16B
330
1D9
100
AcDbEntity
  8
0
100
AcDbCircle
 10
5394.448113858931
 20
19494.08278312004
 30
0.0
 40
12.5
  0
CIRCLE
  5
3C16C
330
1D9
100
AcDbEntity
  8
0
100
AcDbCircle
 10
5480.551886141068
 20
19494.08278312004
 30
0.0
 40
12.5
  0
LINE
  5
3C16D
330
1D9
100
AcDbEntity
  8
CENTER
100
AcDbLine
 10
5437.5
 20
19793.01923052762
 30
0.0
 11
5437.5
 21
19403.01923052762
 31
0.0
  0
LINE
  5
3C16E
330
1D9
100
AcDbEntity
  8
CENTER
100
AcDbLine
 10
5385.837736630755
 20
19473.29549363855
 30
0.0
 11
5403.058491087169
 21
19514.87007260153
 31
0.0
  0
LINE
  5
3C16F
330
1D9
100
AcDbEntity
  8
CENTER
100
AcDbLine
 10
5489.162263369304
 20
19473.29549363855
 30
0.0
 11
5471.941508912887
 21
19514.87007260153
 31
0.0
  0
CIRCLE
  5
3C170
330
1D9
100
AcDbEntity
  8
0
100
AcDbCircle
 10
5437.5
 20
19598.01923052762
 30
0.0
 40
69.90000000000001
  0
CIRCLE
  5
3C171
330
1D9
100
AcDbEntity
  8
0
100
AcDbCircle
 10
5437.5
 20
19598.01923052762
 30
0.0
 40
135.0
  0
CIRCLE
  5
3C172
330
1D9
100
AcDbEntity
  8
CENTER
100
AcDbCircle
 10
5437.5
 20
19598.01923052762
 30
0.0
 40
112.5
  0
CIRCLE
  5
3C173
330
1D9
100
AcDbEntity
  8
UL1
100
AcDbCircle
 10
5437.5
 20
19598.01923052762
 30
0.0
 40
785.0
  0
LINE
  5
3C178
330
1D9
100
AcDbEntity
  8
UL1
100
AcDbLine
 10
5202.500000000002
 20
14495.54103675921
 30
0.0
 11
4652.500000000002
 21
15884.54103675921
 31
0.0
  0
LINE
  5
3C179
330
1D9
100
AcDbEntity
  8
UL1
100
AcDbLine
 10
5672.500000000002
 20
14495.54103675921
 30
0.0
 11
6222.500000000003
 21
15884.54103675921
 31
0.0
  0
LINE
  5
3C17A
330
1D9
100
AcDbEntity
  8
UL1
100
AcDbLine
 10
6222.500000000003
 20
14495.54103675921
 30
0.0
 11
4652.500000000002
 21
14495.54103675921
 31
0.0
  0
LINE
  5
3C17B
330
1D9
100
AcDbEntity
  8
UL1
100
AcDbLine
 10
6222.500000000003
 20
16095.54103675921
 30
0.0
 11
4652.500000000002
 21
16095.54103675921
 31
0.0
  0
LINE
  5
3C17C
330
1D9
100
AcDbEntity
  8
UL1
100
AcDbLine
 10
4652.500000000002
 20
16095.54103675921
 30
0.0
 11
4652.500000000002
 21
14495.54103675921
 31
0.0
  0
LINE
  5
3C17D
330
1D9
100
AcDbEntity
  8
UL1
100
AcDbLine
 10
6222.500000000003
 20
16095.54103675921
 30
0.0
 11
6222.500000000003
 21
14495.54103675921
 31
0.0
  0
LINE
  5
3C17E
330
1D9
100
AcDbEntity
  8
3
  6
Continuous
 62
     7
100
AcDbLine
 10
5524.0
 20
15833.82103675924
 30
0.0
 11
5524.0
 21
15756.54103675921
 31
0.0
  0
LINE
  5
3C17F
330
1D9
100
AcDbEntity
  8
3
  6
Continuous
 62
     7
100
AcDbLine
 10
5351.000000000002
 20
15833.82103675924
 30
0.0
 11
5351.000000000002
 21
15756.54103675921
 31
0.0
  0
ARC
  5
3C180
330
1D9
100
AcDbEntity
  8
3
  6
Continuous
 62
     7
100
AcDbCircle
 10
5522.000000000002
 20
14834.54103675921
 30
0.0
 40
2.0
100
AcDbArc
 50
0.0
 51
90.0
  0
ARC
  5
3C181
330
1D9
100
AcDbEntity
  8
3
  6
Continuous
 62
     7
100
AcDbCircle
 10
5353.000000000002
 20
14834.54103675921
 30
0.0
 40
2.0
100
AcDbArc
 50
90.0
 51
180.0
  0
LINE
  5
3C182
330
1D9
100
AcDbEntity
  8
255
  6
Continuous
 62
     7
100
AcDbLine
 10
5572.500000000003
 20
14495.54103675921
 30
0.0
 11
5437.500000000002
 21
14495.54103675921
 31
0.0
  0
LINE
  5
3C183
330
1D9
100
AcDbEntity
  8
1
  6
Continuous
 62
     7
100
AcDbLine
 10
5569.500000000003
 20
14521.54103675921
 30
0.0
 11
5437.500000000002
 21
14521.54103675921
 31
0.0
  0
ARC
  5
3C184
330
1D9
100
AcDbEntity
  8
255
  6
Continuous
 62
     7
100
AcDbCircle
 10
5437.500000000002
 20
14645.54103675921
 30
0.0
 40
108.0
100
AcDbArc
 50
191.7259999992507
 51
226.0350000014986
  0
ARC
  5
3C185
330
1D9
100
AcDbEntity
  8
255
  6
Continuous
 62
     7
100
AcDbCircle
 10
5437.500000000002
 20
14645.54103675921
 30
0.0
 40
108.0
100
AcDbArc
 50
313.9649999985012
 51
348.2740000007492
  0
LINE
  5
3C186
330
1D9
100
AcDbEntity
  8
3
  6
Continuous
 62
     7
100
AcDbLine
 10
5366.500000000002
 20
14558.45103675924
 30
0.0
 11
5437.500000000002
 21
14558.45103675924
 31
0.0
  0
LINE
  5
3C187
330
1D9
100
AcDbEntity
  8
255
  6
Continuous
 62
     7
100
AcDbLine
 10
5302.500000000001
 20
14495.54103675921
 30
0.0
 11
5437.500000000002
 21
14495.54103675921
 31
0.0
  0
LINE
  5
3C188
330
1D9
100
AcDbEntity
  8
1
  6
Continuous
 62
     7
100
AcDbLine
 10
5305.500000000002
 20
14521.54103675921
 30
0.0
 11
5437.500000000002
 21
14521.54103675921
 31
0.0
  0
ARC
  5
3C189
330
1D9
100
AcDbEntity
  8
255
  6
Continuous
 62
     7
100
AcDbCircle
 10
5353.500000000002
 20
14558.45103675924
 30
0.0
 40
13.0
100
AcDbArc
 50
0.0
 51
46.03529999713806
  0
LINE
  5
3C18A
330
1D9
100
AcDbEntity
  8
3
  6
Continuous
 62
     7
100
AcDbLine
 10
5363.399999999967
 20
14529.11103675916
 30
0.0
 11
5366.500000000002
 21
14541.54103675921
 31
0.0
  0
ARC
  5
3C18B
330
1D9
100
AcDbEntity
  8
1
  6
Continuous
 62
     7
100
AcDbCircle
 10
5305.500000000002
 20
14518.54103675921
 30
0.0
 40
3.0
100
AcDbArc
 50
90.0
 51
180.0
  0
LINE
  5
3C18C
330
1D9
100
AcDbEntity
  8
1
  6
Continuous
 62
     7
100
AcDbLine
 10
5302.500000000001
 20
14495.54103675921
 30
0.0
 11
5302.500000000001
 21
14518.54103675921
 31
0.0
  0
ARC
  5
3C18D
330
1D9
100
AcDbEntity
  8
1
  6
Continuous
 62
     7
100
AcDbCircle
 10
5353.689999999946
 20
14531.54103675921
 30
0.0
 40
10.0
100
AcDbArc
 50
270.0
 51
345.9639999985418
  0
LINE
  5
3C18E
330
1D9
100
AcDbEntity
  8
255
  6
Continuous
 62
     7
100
AcDbLine
 10
5366.500000000002
 20
14541.54103675921
 30
0.0
 11
5366.500000000002
 21
14558.45103675924
 31
0.0
  0
LINE
  5
3C18F
330
1D9
100
AcDbEntity
  8
3
  6
Continuous
 62
     7
100
AcDbLine
 10
5508.500000000003
 20
14558.45103675924
 30
0.0
 11
5437.500000000002
 21
14558.45103675924
 31
0.0
  0
ARC
  5
3C190
330
1D9
100
AcDbEntity
  8
255
  6
Continuous
 62
     7
100
AcDbCircle
 10
5521.500000000003
 20
14558.45103675924
 30
0.0
 40
13.0
100
AcDbArc
 50
133.9649999985013
 51
180.0
  0
LINE
  5
3C191
330
1D9
100
AcDbEntity
  8
3
  6
Continuous
 62
     7
100
AcDbLine
 10
5511.609999999988
 20
14529.11103675916
 30
0.0
 11
5508.500000000003
 21
14541.54103675921
 31
0.0
  0
ARC
  5
3C192
330
1D9
100
AcDbEntity
  8
3
  6
Continuous
 62
     7
100
AcDbCircle
 10
5521.309999999999
 20
14531.54103675921
 30
0.0
 40
10.0
100
AcDbArc
 50
194.0360000014581
 51
270.0
  0
LINE
  5
3C193
330
1D9
100
AcDbEntity
  8
255
  6
Continuous
 62
     7
100
AcDbLine
 10
5508.500000000003
 20
14541.54103675921
 30
0.0
 11
5508.500000000003
 21
14558.45103675924
 31
0.0
  0
LINE
  5
3C194
330
1D9
100
AcDbEntity
  8
3
  6
Continuous
 62
     7
100
AcDbLine
 10
5371.500000000001
 20
14722.27103675919
 30
0.0
 11
5437.500000000002
 21
14722.27103675919
 31
0.0
  0
LINE
  5
3C195
330
1D9
100
AcDbEntity
  8
3
  6
Continuous
 62
     7
100
AcDbLine
 10
5314.500000000002
 20
14623.59103675925
 30
0.0
 11
5437.500000000002
 21
14623.59103675925
 31
0.0
  0
LINE
  5
3C196
330
1D9
100
AcDbEntity
  8
3
  6
Continuous
 62
     7
100
AcDbLine
 10
5317.500000000002
 20
14706.54103675921
 30
0.0
 11
5437.500000000002
 21
14706.54103675921
 31
0.0
  0
LINE
  5
3C197
330
1D9
100
AcDbEntity
  8
1
  6
Continuous
 62
     7
100
AcDbLine
 10
5351.000000000002
 20
14757.25103675917
 30
0.0
 11
5524.0
 21
14757.25103675917
 31
0.0
  0
ARC
  5
3C198
330
1D9
100
AcDbEntity
  8
3
  6
Continuous
 62
     7
100
AcDbCircle
 10
5437.500000000002
 20
14645.54103675921
 30
0.0
 40
98.0
100
AcDbArc
 50
134.7249999979827
 51
141.5049999969059
  0
ARC
  5
3C199
330
1D9
100
AcDbEntity
  8
255
  6
Continuous
 62
     7
100
AcDbCircle
 10
5317.500000000002
 20
14703.54103675921
 30
0.0
 40
3.0
100
AcDbArc
 50
90.0
 51
180.0
  0
LINE
  5
3C19A
330
1D9
100
AcDbEntity
  8
255
  6
Continuous
 62
     7
100
AcDbLine
 10
5314.500000000002
 20
14623.59103675925
 30
0.0
 11
5314.500000000002
 21
14703.54103675921
 31
0.0
  0
ARC
  5
3C19B
330
1D9
100
AcDbEntity
  8
3
  6
Continuous
 62
     7
100
AcDbCircle
 10
5361.500000000002
 20
14722.27103675919
 30
0.0
 40
10.0
100
AcDbArc
 50
314.7249999979826
 51
0.0
  0
LINE
  5
3C19C
330
1D9
100
AcDbEntity
  8
255
  6
Continuous
 62
     7
100
AcDbLine
 10
5371.500000000001
 20
14722.27103675919
 30
0.0
 11
5371.500000000001
 21
14744.38103675917
 31
0.0
  0
ARC
  5
3C19D
330
1D9
100
AcDbEntity
  8
255
  6
Continuous
 62
     7
100
AcDbCircle
 10
5369.500000000002
 20
14744.38103675917
 30
0.0
 40
2.0
100
AcDbArc
 50
0.0000000200103198
 51
60.25510000177908
  0
ARC
  5
3C19E
330
1D9
100
AcDbEntity
  8
3
  6
Continuous
 62
     7
100
AcDbCircle
 10
5359.500000000002
 20
14754.70103675924
 30
0.0
 40
2.0
100
AcDbArc
 50
180.0
 51
240.2549999989201
  0
LINE
  5
3C19F
330
1D9
100
AcDbEntity
  8
3
  6
Continuous
 62
     7
100
AcDbLine
 10
5370.489999999993
 20
14746.11103675916
 30
0.0
 11
5351.000000000002
 21
14757.25103675917
 31
0.0
  0
LINE
  5
3C1A0
330
1D9
100
AcDbEntity
  8
3
  6
Continuous
 62
     7
100
AcDbLine
 10
5351.000000000002
 20
14757.25103675917
 30
0.0
 11
5351.000000000002
 21
14834.54103675921
 31
0.0
  0
ARC
  5
3C1A1
330
1D9
100
AcDbEntity
  8
3
  6
Continuous
 62
     7
100
AcDbCircle
 10
5437.500000000002
 20
14645.54103675921
 30
0.0
 40
98.0
100
AcDbArc
 50
38.49519999795971
 51
45.2751000020013
  0
LINE
  5
3C1A2
330
1D9
100
AcDbEntity
  8
3
  6
Continuous
 62
     7
100
AcDbLine
 10
5560.500000000001
 20
14623.59103675925
 30
0.0
 11
5437.500000000002
 21
14623.59103675925
 31
0.0
  0
LINE
  5
3C1A3
330
1D9
100
AcDbEntity
  8
3
  6
Continuous
 62
     7
100
AcDbLine
 10
5557.5
 20
14706.54103675921
 30
0.0
 11
5437.500000000002
 21
14706.54103675921
 31
0.0
  0
ARC
  5
3C1A4
330
1D9
100
AcDbEntity
  8
255
  6
Continuous
 62
     7
100
AcDbCircle
 10
5557.5
 20
14703.54103675921
 30
0.0
 40
3.0
100
AcDbArc
 50
0.0
 51
90.0
  0
LINE
  5
3C1A5
330
1D9
100
AcDbEntity
  8
255
  6
Continuous
 62
     7
100
AcDbLine
 10
5560.500000000001
 20
14623.59103675925
 30
0.0
 11
5560.500000000001
 21
14703.54103675921
 31
0.0
  0
LINE
  5
3C1A6
330
1D9
100
AcDbEntity
  8
3
  6
Continuous
 62
     7
100
AcDbLine
 10
5503.500000000002
 20
14722.27103675919
 30
0.0
 11
5437.500000000002
 21
14722.27103675919
 31
0.0
  0
ARC
  5
3C1A7
330
1D9
100
AcDbEntity
  8
3
  6
Continuous
 62
     7
100
AcDbCircle
 10
5513.500000000003
 20
14722.27103675919
 30
0.0
 40
10.0
100
AcDbArc
 50
180.0
 51
225.2750000020173
  0
LINE
  5
3C1A8
330
1D9
100
AcDbEntity
  8
255
  6
Continuous
 62
     7
100
AcDbLine
 10
5503.500000000002
 20
14722.27103675919
 30
0.0
 11
5503.500000000002
 21
14744.38103675917
 31
0.0
  0
ARC
  5
3C1A9
330
1D9
100
AcDbEntity
  8
255
  6
Continuous
 62
     7
100
AcDbCircle
 10
5505.500000000003
 20
14744.38103675917
 30
0.0
 40
2.0
100
AcDbArc
 50
119.7450000010798
 51
180.0
  0
ARC
  5
3C1AA
330
1D9
100
AcDbEntity
  8
3
  6
Continuous
 62
     7
100
AcDbCircle
 10
5515.500000000002
 20
14754.70103675924
 30
0.0
 40
2.0
100
AcDbArc
 50
299.7450000010798
 51
0.0000000066701066
  0
LINE
  5
3C1AB
330
1D9
100
AcDbEntity
  8
3
  6
Continuous
 62
     7
100
AcDbLine
 10
5504.509999999952
 20
14746.11103675916
 30
0.0
 11
5524.0
 21
14757.25103675917
 31
0.0
  0
LINE
  5
3C1AC
330
1D9
100
AcDbEntity
  8
3
  6
Continuous
 62
     7
100
AcDbLine
 10
5524.0
 20
14757.25103675917
 30
0.0
 11
5524.0
 21
14834.54103675921
 31
0.0
  0
ARC
  5
3C1AD
330
1D9
100
AcDbEntity
  8
1
  6
Continuous
 62
     7
100
AcDbCircle
 10
5569.500000000003
 20
14518.54103675921
 30
0.0
 40
3.0
100
AcDbArc
 50
0.0
 51
90.0
  0
LINE
  5
3C1AE
330
1D9
100
AcDbEntity
  8
1
  6
Continuous
 62
     7
100
AcDbLine
 10
5572.500000000003
 20
14495.54103675921
 30
0.0
 11
5572.500000000003
 21
14518.54103675921
 31
0.0
  0
LINE
  5
3C1AF
330
1D9
100
AcDbEntity
  8
3
  6
Continuous
 62
     7
100
AcDbLine
 10
5544.000000000003
 20
15316.54103675921
 30
0.0
 11
5544.000000000003
 21
15599.45103675924
 31
0.0
  0
LINE
  5
3C1B0
330
1D9
100
AcDbEntity
  8
3
  6
Continuous
 62
     7
100
AcDbLine
 10
5331.000000000002
 20
15316.54103675921
 30
0.0
 11
5331.000000000002
 21
15599.45103675924
 31
0.0
  0
LINE
  5
3C1B1
330
1D9
100
AcDbEntity
  8
3
  6
Continuous
 62
     7
100
AcDbLine
 10
5507.399999999967
 20
14836.54103675921
 30
0.0
 11
5507.399999999967
 21
15105.04103675921
 31
0.0
  0
LINE
  5
3C1B2
330
1D9
100
AcDbEntity
  8
3
  6
Continuous
 62
     7
100
AcDbLine
 10
5367.599999999979
 20
14836.54103675921
 30
0.0
 11
5367.599999999979
 21
15105.04103675921
 31
0.0
  0
LINE
  5
3C1B3
330
1D9
100
AcDbEntity
  8
3
  6
Continuous
 62
     7
100
AcDbLine
 10
5353.000000000002
 20
14836.54103675921
 30
0.0
 11
5437.500000000002
 21
14836.54103675921
 31
0.0
  0
LINE
  5
3C1B4
330
1D9
100
AcDbEntity
  8
3
  6
Continuous
 62
     7
100
AcDbLine
 10
5522.000000000002
 20
14836.54103675921
 30
0.0
 11
5437.500000000002
 21
14836.54103675921
 31
0.0
  0
LINE
  5
3C1B5
330
1D9
100
AcDbEntity
  8
3
  6
Continuous
 62
     7
100
AcDbLine
 10
5331.000000000002
 20
15316.54103675921
 30
0.0
 11
5437.500000000002
 21
15316.54103675921
 31
0.0
  0
LINE
  5
3C1B6
330
1D9
100
AcDbEntity
  8
3
  6
Continuous
 62
     7
100
AcDbLine
 10
5360.099999999977
 20
15107.04103675921
 30
0.0
 11
5437.500000000002
 21
15107.04103675921
 31
0.0
  0
LINE
  5
3C1B7
330
1D9
100
AcDbEntity
  8
3
  6
Continuous
 62
     7
100
AcDbLine
 10
5355.099999999977
 20
15112.04103675921
 30
0.0
 11
5355.099999999977
 21
15316.54103675921
 31
0.0
  0
ARC
  5
3C1B8
330
1D9
100
AcDbEntity
  8
3
  6
Continuous
 62
     7
100
AcDbCircle
 10
5365.599999999979
 20
15105.04103675921
 30
0.0
 40
2.0
100
AcDbArc
 50
0.0
 51
90.0
  0
ARC
  5
3C1B9
330
1D9
100
AcDbEntity
  8
3
  6
Continuous
 62
     7
100
AcDbCircle
 10
5360.099999999977
 20
15112.04103675921
 30
0.0
 40
5.0
100
AcDbArc
 50
180.0
 51
270.0
  0
LINE
  5
3C1BA
330
1D9
100
AcDbEntity
  8
3
  6
Continuous
 62
     7
100
AcDbLine
 10
5519.899999999967
 20
15112.04103675921
 30
0.0
 11
5519.899999999967
 21
15316.54103675921
 31
0.0
  0
LINE
  5
3C1BB
330
1D9
100
AcDbEntity
  8
3
  6
Continuous
 62
     7
100
AcDbLine
 10
5514.899999999967
 20
15107.04103675921
 30
0.0
 11
5437.500000000002
 21
15107.04103675921
 31
0.0
  0
ARC
  5
3C1BC
330
1D9
100
AcDbEntity
  8
3
  6
Continuous
 62
     7
100
AcDbCircle
 10
5514.899999999967
 20
15112.04103675921
 30
0.0
 40
5.0
100
AcDbArc
 50
270.0
 51
0.0
  0
ARC
  5
3C1BD
330
1D9
100
AcDbEntity
  8
3
  6
Continuous
 62
     7
100
AcDbCircle
 10
5509.399999999967
 20
15105.04103675921
 30
0.0
 40
2.0
100
AcDbArc
 50
90.0
 51
180.0
  0
LINE
  5
3C1BE
330
1D9
100
AcDbEntity
  8
3
  6
Continuous
 62
     7
100
AcDbLine
 10
5544.000000000003
 20
15316.54103675921
 30
0.0
 11
5437.500000000002
 21
15316.54103675921
 31
0.0
  0
LINE
  5
3C1BF
330
1D9
100
AcDbEntity
  8
3
  6
Continuous
 62
     7
100
AcDbLine
 10
5336.629999999948
 20
15605.44103675923
 30
0.0
 11
5437.500000000002
 21
15605.44103675923
 31
0.0
  0
LINE
  5
3C1C0
330
1D9
100
AcDbEntity
  8
3
  6
Continuous
 62
     7
100
AcDbLine
 10
5353.000000000002
 20
15674.54103675921
 30
0.0
 11
5437.500000000002
 21
15674.54103675921
 31
0.0
  0
LINE
  5
3C1C1
330
1D9
100
AcDbEntity
  8
3
  6
Continuous
 62
     7
100
AcDbLine
 10
5353.000000000002
 20
15754.54103675921
 30
0.0
 11
5437.500000000002
 21
15754.54103675921
 31
0.0
  0
LINE
  5
3C1C2
330
1D9
100
AcDbEntity
  8
1
  6
Continuous
 62
     7
100
AcDbLine
 10
5375.000000000002
 20
15674.54103675921
 30
0.0
 11
5375.000000000002
 21
15754.54103675921
 31
0.0
  0
ARC
  5
3C1C3
330
1D9
100
AcDbEntity
  8
3
  6
Continuous
 62
     7
100
AcDbCircle
 10
5353.000000000002
 20
15672.54103675921
 30
0.0
 40
2.0
100
AcDbArc
 50
90.0
 51
180.0
  0
ARC
  5
3C1C4
330
1D9
100
AcDbEntity
  8
3
  6
Continuous
 62
     7
100
AcDbCircle
 10
5337.000000000002
 20
15599.45103675924
 30
0.0
 40
6.0
100
AcDbArc
 50
93.56149999998988
 51
180.0
  0
LINE
  5
3C1C5
330
1D9
100
AcDbEntity
  8
3
  6
Continuous
 62
     7
100
AcDbLine
 10
5351.000000000002
 20
15605.44103675923
 30
0.0
 11
5351.000000000002
 21
15672.54103675921
 31
0.0
  0
ARC
  5
3C1C6
330
1D9
100
AcDbEntity
  8
3
  6
Continuous
 62
     7
100
AcDbCircle
 10
5353.000000000002
 20
15756.54103675921
 30
0.0
 40
2.0
100
AcDbArc
 50
180.0
 51
270.0
  0
LINE
  5
3C1C7
330
1D9
100
AcDbEntity
  8
1
  6
Continuous
 62
     7
100
AcDbLine
 10
5500.000000000003
 20
15674.54103675921
 30
0.0
 11
5500.000000000003
 21
15754.54103675921
 31
0.0
  0
LINE
  5
3C1C8
330
1D9
100
AcDbEntity
  8
3
  6
Continuous
 62
     7
100
AcDbLine
 10
5522.000000000002
 20
15674.54103675921
 30
0.0
 11
5437.500000000002
 21
15674.54103675921
 31
0.0
  0
LINE
  5
3C1C9
330
1D9
100
AcDbEntity
  8
3
  6
Continuous
 62
     7
100
AcDbLine
 10
5538.369999999997
 20
15605.44103675923
 30
0.0
 11
5437.500000000002
 21
15605.44103675923
 31
0.0
  0
ARC
  5
3C1CA
330
1D9
100
AcDbEntity
  8
3
  6
Continuous
 62
     7
100
AcDbCircle
 10
5538.000000000003
 20
15599.45103675924
 30
0.0
 40
6.0
100
AcDbArc
 50
0.0
 51
86.43850000001009
  0
ARC
  5
3C1CB
330
1D9
100
AcDbEntity
  8
3
  6
Continuous
 62
     7
100
AcDbCircle
 10
5522.000000000002
 20
15672.54103675921
 30
0.0
 40
2.0
100
AcDbArc
 50
0.0
 51
90.0
  0
LINE
  5
3C1CC
330
1D9
100
AcDbEntity
  8
3
  6
Continuous
 62
     7
100
AcDbLine
 10
5524.0
 20
15605.44103675923
 30
0.0
 11
5524.0
 21
15672.54103675921
 31
0.0
  0
LINE
  5
3C1CD
330
1D9
100
AcDbEntity
  8
3
  6
Continuous
 62
     7
100
AcDbLine
 10
5522.000000000002
 20
15754.54103675921
 30
0.0
 11
5437.500000000002
 21
15754.54103675921
 31
0.0
  0
ARC
  5
3C1CE
330
1D9
100
AcDbEntity
  8
3
  6
Continuous
 62
     7
100
AcDbCircle
 10
5522.000000000002
 20
15756.54103675921
 30
0.0
 40
2.0
100
AcDbArc
 50
270.0
 51
0.0
  0
LINE
  5
3C1CF
330
1D9
100
AcDbEntity
  8
255
  6
Continuous
 62
     7
100
AcDbLine
 10
5572.500000000003
 20
16095.54103675921
 30
0.0
 11
5437.500000000002
 21
16095.54103675921
 31
0.0
  0
LINE
  5
3C1D0
330
1D9
100
AcDbEntity
  8
1
  6
Continuous
 62
     7
100
AcDbLine
 10
5569.500000000003
 20
16069.54103675921
 30
0.0
 11
5437.500000000002
 21
16069.54103675921
 31
0.0
  0
ARC
  5
3C1D1
330
1D9
100
AcDbEntity
  8
3
  6
Continuous
 62
     7
100
AcDbCircle
 10
5521.309999999999
 20
16059.54103675921
 30
0.0
 40
10.0
100
AcDbArc
 50
90.0
 51
165.9639999985418
  0
ARC
  5
3C1D2
330
1D9
100
AcDbEntity
  8
1
  6
Continuous
 62
     7
100
AcDbCircle
 10
5353.689999999946
 20
16059.54103675921
 30
0.0
 40
10.0
100
AcDbArc
 50
14.03620000014041
 51
90.0
  0
LINE
  5
3C1D3
330
1D9
100
AcDbEntity
  8
3
  6
Continuous
 62
     7
100
AcDbLine
 10
5366.500000000002
 20
16032.63103675917
 30
0.0
 11
5437.500000000002
 21
16032.63103675917
 31
0.0
  0
LINE
  5
3C1D4
330
1D9
100
AcDbEntity
  8
3
  6
Continuous
 62
     7
100
AcDbLine
 10
5371.500000000001
 20
15868.80103675922
 30
0.0
 11
5437.500000000002
 21
15868.80103675922
 31
0.0
  0
LINE
  5
3C1D5
330
1D9
100
AcDbEntity
  8
3
  6
Continuous
 62
     7
100
AcDbLine
 10
5314.500000000002
 20
15967.49103675916
 30
0.0
 11
5437.500000000002
 21
15967.49103675916
 31
0.0
  0
LINE
  5
3C1D6
330
1D9
100
AcDbEntity
  8
3
  6
Continuous
 62
     7
100
AcDbLine
 10
5317.500000000002
 20
15884.54103675921
 30
0.0
 11
5437.500000000002
 21
15884.54103675921
 31
0.0
  0
LINE
  5
3C1D7
330
1D9
100
AcDbEntity
  8
1
  6
Continuous
 62
     7
100
AcDbLine
 10
5351.000000000002
 20
15833.82103675924
 30
0.0
 11
5524.0
 21
15833.82103675924
 31
0.0
  0
LINE
  5
3C1D8
330
1D9
100
AcDbEntity
  8
255
  6
Continuous
 62
     7
100
AcDbLine
 10
5314.500000000002
 20
15967.49103675916
 30
0.0
 11
5314.500000000002
 21
15887.54103675921
 31
0.0
  0
ARC
  5
3C1D9
330
1D9
100
AcDbEntity
  8
3
  6
Continuous
 62
     7
100
AcDbCircle
 10
5361.500000000002
 20
15868.80103675922
 30
0.0
 40
10.0
100
AcDbArc
 50
0.0
 51
45.2751000020013
  0
LINE
  5
3C1DA
330
1D9
100
AcDbEntity
  8
255
  6
Continuous
 62
     7
100
AcDbLine
 10
5371.500000000001
 20
15868.80103675922
 30
0.0
 11
5371.500000000001
 21
15846.70103675924
 31
0.0
  0
ARC
  5
3C1DB
330
1D9
100
AcDbEntity
  8
255
  6
Continuous
 62
     7
100
AcDbCircle
 10
5369.500000000002
 20
15846.70103675924
 30
0.0
 40
2.0
100
AcDbArc
 50
299.7450000010798
 51
0.0
  0
ARC
  5
3C1DC
330
1D9
100
AcDbEntity
  8
3
  6
Continuous
 62
     7
100
AcDbCircle
 10
5437.500000000002
 20
15945.54103675921
 30
0.0
 40
98.0
100
AcDbArc
 50
218.495000003094
 51
225.2750000020173
  0
ARC
  5
3C1DD
330
1D9
100
AcDbEntity
  8
255
  6
Continuous
 62
     7
100
AcDbCircle
 10
5317.500000000002
 20
15887.54103675921
 30
0.0
 40
3.0
100
AcDbArc
 50
180.0
 51
270.0
  0
ARC
  5
3C1DE
330
1D9
100
AcDbEntity
  8
3
  6
Continuous
 62
     7
100
AcDbCircle
 10
5359.500000000002
 20
15836.38103675917
 30
0.0
 40
2.0
100
AcDbArc
 50
119.7450000010798
 51
180.0
  0
LINE
  5
3C1DF
330
1D9
100
AcDbEntity
  8
3
  6
Continuous
 62
     7
100
AcDbLine
 10
5370.489999999993
 20
15844.96103675925
 30
0.0
 11
5351.000000000002
 21
15833.82103675924
 31
0.0
  0
LINE
  5
3C1E0
330
1D9
100
AcDbEntity
  8
255
  6
Continuous
 62
     7
100
AcDbLine
 10
5366.500000000002
 20
16049.54103675921
 30
0.0
 11
5366.500000000002
 21
16032.63103675917
 31
0.0
  0
LINE
  5
3C1E1
330
1D9
100
AcDbEntity
  8
3
  6
Continuous
 62
     7
100
AcDbLine
 10
5363.399999999967
 20
16061.96103675925
 30
0.0
 11
5366.500000000002
 21
16049.54103675921
 31
0.0
  0
ARC
  5
3C1E2
330
1D9
100
AcDbEntity
  8
255
  6
Continuous
 62
     7
100
AcDbCircle
 10
5437.500000000002
 20
15945.54103675921
 30
0.0
 40
108.0
100
AcDbArc
 50
133.9649999985013
 51
168.2740000007492
  0
ARC
  5
3C1E3
330
1D9
100
AcDbEntity
  8
255
  6
Continuous
 62
     7
100
AcDbCircle
 10
5353.500000000002
 20
16032.63103675917
 30
0.0
 40
13.0
100
AcDbArc
 50
313.9649999985012
 51
0.0
  0
LINE
  5
3C1E4
330
1D9
100
AcDbEntity
  8
255
  6
Continuous
 62
     7
100
AcDbLine
 10
5560.500000000001
 20
15967.49103675916
 30
0.0
 11
5560.500000000001
 21
15887.54103675921
 31
0.0
  0
LINE
  5
3C1E5
330
1D9
100
AcDbEntity
  8
3
  6
Continuous
 62
     7
100
AcDbLine
 10
5503.500000000002
 20
15868.80103675922
 30
0.0
 11
5437.500000000002
 21
15868.80103675922
 31
0.0
  0
LINE
  5
3C1E6
330
1D9
100
AcDbEntity
  8
3
  6
Continuous
 62
     7
100
AcDbLine
 10
5557.5
 20
15884.54103675921
 30
0.0
 11
5437.500000000002
 21
15884.54103675921
 31
0.0
  0
ARC
  5
3C1E7
330
1D9
100
AcDbEntity
  8
255
  6
Continuous
 62
     7
100
AcDbCircle
 10
5557.5
 20
15887.54103675921
 30
0.0
 40
3.0
100
AcDbArc
 50
270.0
 51
0.0000000066701066
  0
ARC
  5
3C1E8
330
1D9
100
AcDbEntity
  8
3
  6
Continuous
 62
     7
100
AcDbCircle
 10
5513.500000000003
 20
15868.80103675922
 30
0.0
 40
10.0
100
AcDbArc
 50
134.7249999979827
 51
180.0
  0
LINE
  5
3C1E9
330
1D9
100
AcDbEntity
  8
255
  6
Continuous
 62
     7
100
AcDbLine
 10
5503.500000000002
 20
15868.80103675922
 30
0.0
 11
5503.500000000002
 21
15846.70103675924
 31
0.0
  0
ARC
  5
3C1EA
330
1D9
100
AcDbEntity
  8
255
  6
Continuous
 62
     7
100
AcDbCircle
 10
5505.500000000003
 20
15846.70103675924
 30
0.0
 40
2.0
100
AcDbArc
 50
180.0
 51
240.2549999989201
  0
ARC
  5
3C1EB
330
1D9
100
AcDbEntity
  8
3
  6
Continuous
 62
     7
100
AcDbCircle
 10
5515.500000000002
 20
15836.38103675917
 30
0.0
 40
2.0
100
AcDbArc
 50
0.0
 51
60.25510000177908
  0
ARC
  5
3C1EC
330
1D9
100
AcDbEntity
  8
3
  6
Continuous
 62
     7
100
AcDbCircle
 10
5437.500000000002
 20
15945.54103675921
 30
0.0
 40
98.0
100
AcDbArc
 50
314.7249999979826
 51
321.5049999969058
  0
LINE
  5
3C1ED
330
1D9
100
AcDbEntity
  8
3
  6
Continuous
 62
     7
100
AcDbLine
 10
5504.509999999952
 20
15844.96103675925
 30
0.0
 11
5524.0
 21
15833.82103675924
 31
0.0
  0
LINE
  5
3C1EE
330
1D9
100
AcDbEntity
  8
3
  6
Continuous
 62
     7
100
AcDbLine
 10
5508.500000000003
 20
16032.63103675917
 30
0.0
 11
5437.500000000002
 21
16032.63103675917
 31
0.0
  0
LINE
  5
3C1EF
330
1D9
100
AcDbEntity
  8
3
  6
Continuous
 62
     7
100
AcDbLine
 10
5560.500000000001
 20
15967.49103675916
 30
0.0
 11
5437.500000000002
 21
15967.49103675916
 31
0.0
  0
LINE
  5
3C1F0
330
1D9
100
AcDbEntity
  8
255
  6
Continuous
 62
     7
100
AcDbLine
 10
5508.500000000003
 20
16049.54103675921
 30
0.0
 11
5508.500000000003
 21
16032.63103675917
 31
0.0
  0
LINE
  5
3C1F1
330
1D9
100
AcDbEntity
  8
3
  6
Continuous
 62
     7
100
AcDbLine
 10
5511.609999999988
 20
16061.96103675925
 30
0.0
 11
5508.500000000003
 21
16049.54103675921
 31
0.0
  0
ARC
  5
3C1F2
330
1D9
100
AcDbEntity
  8
255
  6
Continuous
 62
     7
100
AcDbCircle
 10
5521.500000000003
 20
16032.63103675917
 30
0.0
 40
13.0
100
AcDbArc
 50
180.0
 51
226.0350000014986
  0
ARC
  5
3C1F3
330
1D9
100
AcDbEntity
  8
255
  6
Continuous
 62
     7
100
AcDbCircle
 10
5437.500000000002
 20
15945.54103675921
 30
0.0
 40
108.0
100
AcDbArc
 50
11.72640000201189
 51
46.03529999713806
  0
LINE
  5
3C1F4
330
1D9
100
AcDbEntity
  8
255
  6
Continuous
 62
     7
100
AcDbLine
 10
5302.500000000001
 20
16095.54103675921
 30
0.0
 11
5437.500000000002
 21
16095.54103675921
 31
0.0
  0
LINE
  5
3C1F5
330
1D9
100
AcDbEntity
  8
1
  6
Continuous
 62
     7
100
AcDbLine
 10
5305.500000000002
 20
16069.54103675921
 30
0.0
 11
5437.500000000002
 21
16069.54103675921
 31
0.0
  0
ARC
  5
3C1F6
330
1D9
100
AcDbEntity
  8
1
  6
Continuous
 62
     7
100
AcDbCircle
 10
5305.500000000002
 20
16072.54103675921
 30
0.0
 40
3.0
100
AcDbArc
 50
180.0
 51
270.0
  0
LINE
  5
3C1F7
330
1D9
100
AcDbEntity
  8
1
  6
Continuous
 62
     7
100
AcDbLine
 10
5302.500000000001
 20
16095.54103675921
 30
0.0
 11
5302.500000000001
 21
16072.54103675921
 31
0.0
  0
ARC
  5
3C1F8
330
1D9
100
AcDbEntity
  8
1
  6
Continuous
 62
     7
100
AcDbCircle
 10
5569.500000000003
 20
16072.54103675921
 30
0.0
 40
3.0
100
AcDbArc
 50
270.0
 51
0.0
  0
LINE
  5
3C1F9
330
1D9
100
AcDbEntity
  8
1
  6
Continuous
 62
     7
100
AcDbLine
 10
5572.500000000003
 20
16095.54103675921
 30
0.0
 11
5572.500000000003
 21
16072.54103675921
 31
0.0
  0
TEXT
  5
3C322
330
1D9
100
AcDbEntity
  8
SCALE
100
AcDbText
 10
15512.5
 20
19618.69986540811
 30
0.0
 40
90.0
  1

 72
     4
 11
15512.5
 21
19618.69986540811
 31
0.0
100
AcDbText
  0
CIRCLE
  5
3C323
330
1D9
100
AcDbEntity
  8
UL1
100
AcDbCircle
 10
15512.5
 20
19598.01923052751
 30
0.0
 40
802.5
  0
LINE
  5
3C324
330
1D9
100
AcDbEntity
  8
CENTER
100
AcDbLine
 10
15312.5
 20
19598.01923052751
 30
0.0
 11
15712.5
 21
19598.01923052751
 31
0.0
  0
CIRCLE
  5
3C325
330
1D9
100
AcDbEntity
  8
0
100
AcDbCircle
 10
15386.92964258243
 20
19564.3727546642
 30
0.0
 40
12.5
  0
LINE
  5
3C326
330
1D9
100
AcDbEntity
  8
CENTER
100
AcDbLine
 10
15365.1963114909
 20
19558.54932614933
 30
0.0
 11
15408.66297367395
 21
19570.19618317898
 31
0.0
  0
LINE
  5
3C327
330
1D9
100
AcDbEntity
  8
CENTER
100
AcDbLine
 10
15365.1963114909
 20
19637.48913490556
 30
0.0
 11
15408.66297367395
 21
19625.84227787604
 31
0.0
  0
CIRCLE
  5
3C328
330
1D9
100
AcDbEntity
  8
0
100
AcDbCircle
 10
15386.92964258243
 20
19631.6657063908
 30
0.0
 40
12.5
  0
CIRCLE
  5
3C329
330
1D9
100
AcDbEntity
  8
0
100
AcDbCircle
 10
15512.5
 20
19598.01923052751
 30
0.0
 40
152.5
  0
CIRCLE
  5
3C32A
330
1D9
100
AcDbEntity
  8
CENTER
100
AcDbCircle
 10
15512.5
 20
19598.01923052751
 30
0.0
 40
130.0
  0
CIRCLE
  5
3C32B
330
1D9
100
AcDbEntity
  8
0
100
AcDbCircle
 10
15604.42388155427
 20
19689.94311208179
 30
0.0
 40
12.5
  0
LINE
  5
3C32C
330
1D9
100
AcDbEntity
  8
CENTER
100
AcDbLine
 10
15551.96990437817
 20
19745.32291903655
 30
0.0
 11
15540.32304734853
 21
19701.8562568536
 31
0.0
  0
CIRCLE
  5
3C32D
330
1D9
100
AcDbEntity
  8
0
100
AcDbCircle
 10
15546.14647586335
 20
19723.58958794508
 30
0.0
 40
12.5
  0
LINE
  5
3C32E
330
1D9
100
AcDbEntity
  8
CENTER
100
AcDbLine
 10
15659.80368850909
 20
19558.54932614933
 30
0.0
 11
15616.3370263261
 21
19570.19618317898
 31
0.0
  0
CIRCLE
  5
3C32F
330
1D9
100
AcDbEntity
  8
0
100
AcDbCircle
 10
15638.07035741757
 20
19564.3727546642
 30
0.0
 40
12.5
  0
LINE
  5
3C330
330
1D9
100
AcDbEntity
  8
CENTER
100
AcDbLine
 10
15659.80368850909
 20
19637.48913490556
 30
0.0
 11
15616.3370263261
 21
19625.84227787604
 31
0.0
  0
CIRCLE
  5
3C331
330
1D9
100
AcDbEntity
  8
0
100
AcDbCircle
 10
15638.07035741757
 20
19631.6657063908
 30
0.0
 40
12.5
  0
LINE
  5
3C332
330
1D9
100
AcDbEntity
  8
CENTER
100
AcDbLine
 10
15620.33378413098
 20
19705.85301465849
 30
0.0
 11
15588.51397897756
 21
19674.03320950508
 31
0.0
  0
LINE
  5
3C333
330
1D9
100
AcDbEntity
  8
CENTER
100
AcDbLine
 10
15551.96990437817
 20
19450.71554201835
 30
0.0
 11
15540.32304734853
 21
19494.18220420141
 31
0.0
  0
CIRCLE
  5
3C334
330
1D9
100
AcDbEntity
  8
0
100
AcDbCircle
 10
15546.14647586335
 20
19472.44887310994
 30
0.0
 40
12.5
  0
LINE
  5
3C335
330
1D9
100
AcDbEntity
  8
CENTER
100
AcDbLine
 10
15620.33378413098
 20
19490.18544639652
 30
0.0
 11
15588.51397897756
 21
19522.00525154994
 31
0.0
  0
CIRCLE
  5
3C336
330
1D9
100
AcDbEntity
  8
0
100
AcDbCircle
 10
15604.42388155427
 20
19506.09534897323
 30
0.0
 40
12.5
  0
LINE
  5
3C337
330
1D9
100
AcDbEntity
  8
CENTER
100
AcDbLine
 10
15473.03009562188
 20
19745.32291903655
 30
0.0
 11
15484.67695265147
 21
19701.8562568536
 31
0.0
  0
CIRCLE
  5
3C338
330
1D9
100
AcDbEntity
  8
0
100
AcDbCircle
 10
15478.8535241367
 20
19723.58958794508
 30
0.0
 40
12.5
  0
CIRCLE
  5
3C339
330
1D9
100
AcDbEntity
  8
0
100
AcDbCircle
 10
15420.57611844578
 20
19689.94311208179
 30
0.0
 40
12.5
  0
LINE
  5
3C33A
330
1D9
100
AcDbEntity
  8
CENTER
100
AcDbLine
 10
15404.66621586907
 20
19705.85301465849
 30
0.0
 11
15436.48602102248
 21
19674.03320950508
 31
0.0
  0
LINE
  5
3C33B
330
1D9
100
AcDbEntity
  8
CENTER
100
AcDbLine
 10
15473.03009562188
 20
19450.71554201835
 30
0.0
 11
15484.67695265147
 21
19494.18220420141
 31
0.0
  0
CIRCLE
  5
3C33C
330
1D9
100
AcDbEntity
  8
0
100
AcDbCircle
 10
15478.8535241367
 20
19472.44887310994
 30
0.0
 40
12.5
  0
LINE
  5
3C33D
330
1D9
100
AcDbEntity
  8
CENTER
100
AcDbLine
 10
15512.5
 20
19798.01923052751
 30
0.0
 11
15512.5
 21
19398.01923052751
 31
0.0
  0
LINE
  5
3C33E
330
1D9
100
AcDbEntity
  8
CENTER
100
AcDbLine
 10
15404.66621586907
 20
19490.18544639652
 30
0.0
 11
15436.48602102248
 21
19522.00525154994
 31
0.0
  0
CIRCLE
  5
3C33F
330
1D9
100
AcDbEntity
  8
0
100
AcDbCircle
 10
15420.57611844578
 20
19506.09534897323
 30
0.0
 40
12.5
  0
CIRCLE
  5
3C340
330
1D9
100
AcDbEntity
  8
0
100
AcDbCircle
 10
15512.5
 20
19598.01923052751
 30
0.0
 40
82.59999999999998
  0
CIRCLE
  5
3C341
330
1D9
100
AcDbEntity
  8
0
100
AcDbCircle
 10
15512.5
 20
19598.01923052751
 30
0.0
 40
75.5
  0
LINE
  5
3C344
330
1D9
100
AcDbEntity
  8
UL1
100
AcDbLine
 10
16315.0
 20
14495.54103675909
 30
0.0
 11
14710.0
 21
14495.54103675909
 31
0.0
  0
LINE
  5
3C345
330
1D9
100
AcDbEntity
  8
UL1
100
AcDbLine
 10
16315.0
 20
16095.54103675909
 30
0.0
 11
14710.0
 21
16095.54103675909
 31
0.0
  0
ARC
  5
3C346
330
1D9
100
AcDbEntity
  8
255
  6
Continuous
 62
     7
100
AcDbCircle
 10
15512.5
 20
14645.54103675909
 30
0.0
 40
125.0
100
AcDbArc
 50
190.6629999970533
 51
225.5729999986694
  0
LINE
  5
3C347
330
1D9
100
AcDbEntity
  8
255
  6
Continuous
 62
     7
100
AcDbLine
 10
15360.0
 20
14495.54103675909
 30
0.0
 11
15512.5
 21
14495.54103675909
 31
0.0
  0
LINE
  5
3C348
330
1D9
100
AcDbEntity
  8
1
  6
Continuous
 62
     7
100
AcDbLine
 10
15363.0
 20
14523.54103675909
 30
0.0
 11
15512.5
 21
14523.54103675909
 31
0.0
  0
LINE
  5
3C349
330
1D9
100
AcDbEntity
  8
1
  6
Continuous
 62
     7
100
AcDbLine
 10
15372.5
 20
14622.41103675909
 30
0.0
 11
15512.5
 21
14622.41103675909
 31
0.0
  0
LINE
  5
3C34A
330
1D9
100
AcDbEntity
  8
255
  6
Continuous
 62
     7
100
AcDbLine
 10
15375.5
 20
14715.54103675909
 30
0.0
 11
15512.5
 21
14715.54103675909
 31
0.0
  0
LINE
  5
3C34B
330
1D9
100
AcDbEntity
  8
255
  6
Continuous
 62
     7
100
AcDbLine
 10
15390.5
 20
15323.04103675909
 30
0.0
 11
15512.5
 21
15323.04103675909
 31
0.0
  0
LINE
  5
3C34C
330
1D9
100
AcDbEntity
  8
1
  6
Continuous
 62
     7
100
AcDbLine
 10
15391.65000000002
 20
15609.6710367591
 30
0.0
 11
15512.5
 21
15609.6710367591
 31
0.0
  0
LINE
  5
3C34D
330
1D9
100
AcDbEntity
  8
255
  6
Continuous
 62
     7
100
AcDbLine
 10
15375.5
 20
15875.54103675909
 30
0.0
 11
15512.5
 21
15875.54103675909
 31
0.0
  0
LINE
  5
3C34E
330
1D9
100
AcDbEntity
  8
1
  6
Continuous
 62
     7
100
AcDbLine
 10
15372.5
 20
15968.6710367591
 30
0.0
 11
15512.5
 21
15968.6710367591
 31
0.0
  0
ARC
  5
3C34F
330
1D9
100
AcDbEntity
  8
255
  6
Continuous
 62
     7
100
AcDbCircle
 10
15512.5
 20
15945.54103675909
 30
0.0
 40
125.0
100
AcDbArc
 50
134.4270000013305
 51
169.3370000029466
  0
LINE
  5
3C350
330
1D9
100
AcDbEntity
  8
255
  6
Continuous
 62
     7
100
AcDbLine
 10
15360.0
 20
16095.54103675909
 30
0.0
 11
15512.5
 21
16095.54103675909
 31
0.0
  0
LINE
  5
3C351
330
1D9
100
AcDbEntity
  8
1
  6
Continuous
 62
     7
100
AcDbLine
 10
15363.0
 20
16067.54103675909
 30
0.0
 11
15512.5
 21
16067.54103675909
 31
0.0
  0
LINE
  5
3C354
330
1D9
100
AcDbEntity
  8
UL1
100
AcDbLine
 10
15260.0
 20
14495.54103675909
 30
0.0
 11
14710.0
 21
15875.54103675909
 31
0.0
  0
LINE
  5
3C355
330
1D9
100
AcDbEntity
  8
UL1
100
AcDbLine
 10
14710.0
 20
16095.54103675909
 30
0.0
 11
14710.0
 21
14495.54103675909
 31
0.0
  0
ARC
  5
3C356
330
1D9
100
AcDbEntity
  8
1
  6
Continuous
 62
     7
100
AcDbCircle
 10
15363.0
 20
14520.54103675909
 30
0.0
 40
3.0
100
AcDbArc
 50
90.0
 51
180.0
  0
LINE
  5
3C357
330
1D9
100
AcDbEntity
  8
1
  6
Continuous
 62
     7
100
AcDbLine
 10
15360.0
 20
14520.54103675909
 30
0.0
 11
15360.0
 21
14495.54103675909
 31
0.0
  0
ARC
  5
3C358
330
1D9
100
AcDbEntity
  8
255
  6
Continuous
 62
     7
100
AcDbCircle
 10
15375.5
 20
14712.54103675909
 30
0.0
 40
3.0
100
AcDbArc
 50
90.0
 51
180.0
  0
LINE
  5
3C359
330
1D9
100
AcDbEntity
  8
255
  6
Continuous
 62
     7
100
AcDbLine
 10
15372.5
 20
14622.41103675909
 30
0.0
 11
15372.5
 21
14712.54103675909
 31
0.0
  0
LINE
  5
3C35A
330
1D9
100
AcDbEntity
  8
255
  6
Continuous
 62
     7
100
AcDbLine
 10
15387.5
 20
15326.04103675909
 30
0.0
 11
15387.5
 21
15604.74103675904
 31
0.0
  0
ARC
  5
3C35B
330
1D9
100
AcDbEntity
  8
255
  6
Continuous
 62
     7
100
AcDbCircle
 10
15390.5
 20
15326.04103675909
 30
0.0
 40
3.0
100
AcDbArc
 50
180.0
 51
270.0
  0
ARC
  5
3C35C
330
1D9
100
AcDbEntity
  8
255
  6
Continuous
 62
     7
100
AcDbCircle
 10
15393.5
 20
15603.96103675913
 30
0.0
 40
6.0
100
AcDbArc
 50
107.9940000005534
 51
180.0
  0
ARC
  5
3C35D
330
1D9
100
AcDbEntity
  8
1
  6
Continuous
 62
     7
100
AcDbCircle
 10
15363.0
 20
16070.54103675909
 30
0.0
 40
3.0
100
AcDbArc
 50
180.0
 51
270.0
  0
LINE
  5
3C35E
330
1D9
100
AcDbEntity
  8
255
  6
Continuous
 62
     7
100
AcDbLine
 10
15372.5
 20
15968.6710367591
 30
0.0
 11
15372.5
 21
15878.54103675909
 31
0.0
  0
ARC
  5
3C35F
330
1D9
100
AcDbEntity
  8
255
  6
Continuous
 62
     7
100
AcDbCircle
 10
15375.5
 20
15878.54103675909
 30
0.0
 40
3.0
100
AcDbArc
 50
180.0
 51
270.0
  0
LINE
  5
3C360
330
1D9
100
AcDbEntity
  8
1
  6
Continuous
 62
     7
100
AcDbLine
 10
15360.0
 20
16070.54103675909
 30
0.0
 11
15360.0
 21
16095.54103675909
 31
0.0
  0
LINE
  5
3C361
330
1D9
100
AcDbEntity
  8
UL1
100
AcDbLine
 10
15765.0
 20
14495.54103675909
 30
0.0
 11
16315.0
 21
15875.54103675909
 31
0.0
  0
LINE
  5
3C362
330
1D9
100
AcDbEntity
  8
UL1
100
AcDbLine
 10
16315.0
 20
16095.54103675909
 30
0.0
 11
16315.0
 21
14495.54103675909
 31
0.0
  0
LINE
  5
3C363
330
1D9
100
AcDbEntity
  8
1
  6
Continuous
 62
     7
100
AcDbLine
 10
15596.28000000003
 20
16038.31103675911
 30
0.0
 11
15512.5
 21
16038.31103675911
 31
0.0
  0
LINE
  5
3C364
330
1D9
100
AcDbEntity
  8
255
  6
Continuous
 62
     7
100
AcDbLine
 10
15665.0
 20
16095.54103675909
 30
0.0
 11
15512.5
 21
16095.54103675909
 31
0.0
  0
LINE
  5
3C365
330
1D9
100
AcDbEntity
  8
1
  6
Continuous
 62
     7
100
AcDbLine
 10
15662.0
 20
16067.54103675909
 30
0.0
 11
15512.5
 21
16067.54103675909
 31
0.0
  0
LINE
  5
3C366
330
1D9
100
AcDbEntity
  8
1
  6
Continuous
 62
     7
100
AcDbLine
 10
15652.5
 20
15968.6710367591
 30
0.0
 11
15512.5
 21
15968.6710367591
 31
0.0
  0
LINE
  5
3C367
330
1D9
100
AcDbEntity
  8
255
  6
Continuous
 62
     7
100
AcDbLine
 10
15649.5
 20
15875.54103675909
 30
0.0
 11
15512.5
 21
15875.54103675909
 31
0.0
  0
LINE
  5
3C368
330
1D9
100
AcDbEntity
  8
1
  6
Continuous
 62
     7
100
AcDbLine
 10
15589.0
 20
15860.34103675914
 30
0.0
 11
15512.5
 21
15860.34103675914
 31
0.0
  0
LINE
  5
3C369
330
1D9
100
AcDbEntity
  8
1
  6
Continuous
 62
     7
100
AcDbLine
 10
15409.0
 20
15817.04103675909
 30
0.0
 11
15616.0
 21
15817.04103675909
 31
0.0
  0
LINE
  5
3C36A
330
1D9
100
AcDbEntity
  8
255
  6
Continuous
 62
     7
100
AcDbLine
 10
15610.0
 20
15679.04103675909
 30
0.0
 11
15512.5
 21
15679.04103675909
 31
0.0
  0
LINE
  5
3C36B
330
1D9
100
AcDbEntity
  8
255
  6
Continuous
 62
     7
100
AcDbLine
 10
15614.0
 20
15739.04103675909
 30
0.0
 11
15512.5
 21
15739.04103675909
 31
0.0
  0
LINE
  5
3C36C
330
1D9
100
AcDbEntity
  8
1
  6
Continuous
 62
     7
100
AcDbLine
 10
15633.36000000004
 20
15609.6710367591
 30
0.0
 11
15512.5
 21
15609.6710367591
 31
0.0
  0
LINE
  5
3C36D
330
1D9
100
AcDbEntity
  8
255
  6
Continuous
 62
     7
100
AcDbLine
 10
15634.5
 20
15323.04103675909
 30
0.0
 11
15512.5
 21
15323.04103675909
 31
0.0
  0
LINE
  5
3C36E
330
1D9
100
AcDbEntity
  8
255
  6
Continuous
 62
     7
100
AcDbLine
 10
15602.60000000003
 20
15113.54103675909
 30
0.0
 11
15512.5
 21
15113.54103675909
 31
0.0
  0
LINE
  5
3C36F
330
1D9
100
AcDbEntity
  8
255
  6
Continuous
 62
     7
100
AcDbLine
 10
15614.0
 20
14852.04103675909
 30
0.0
 11
15512.5
 21
14852.04103675909
 31
0.0
  0
LINE
  5
3C370
330
1D9
100
AcDbEntity
  8
255
  6
Continuous
 62
     7
100
AcDbLine
 10
15649.5
 20
14715.54103675909
 30
0.0
 11
15512.5
 21
14715.54103675909
 31
0.0
  0
LINE
  5
3C371
330
1D9
100
AcDbEntity
  8
1
  6
Continuous
 62
     7
100
AcDbLine
 10
15589.0
 20
14730.73103675904
 30
0.0
 11
15512.5
 21
14730.73103675904
 31
0.0
  0
LINE
  5
3C372
330
1D9
100
AcDbEntity
  8
1
  6
Continuous
 62
     7
100
AcDbLine
 10
15652.5
 20
14622.41103675909
 30
0.0
 11
15512.5
 21
14622.41103675909
 31
0.0
  0
LINE
  5
3C373
330
1D9
100
AcDbEntity
  8
1
  6
Continuous
 62
     7
100
AcDbLine
 10
15596.28000000003
 20
14552.77103675907
 30
0.0
 11
15512.5
 21
14552.77103675907
 31
0.0
  0
LINE
  5
3C374
330
1D9
100
AcDbEntity
  8
255
  6
Continuous
 62
     7
100
AcDbLine
 10
15665.0
 20
14495.54103675909
 30
0.0
 11
15512.5
 21
14495.54103675909
 31
0.0
  0
LINE
  5
3C375
330
1D9
100
AcDbEntity
  8
1
  6
Continuous
 62
     7
100
AcDbLine
 10
15662.0
 20
14523.54103675909
 30
0.0
 11
15512.5
 21
14523.54103675909
 31
0.0
  0
LINE
  5
3C376
330
1D9
100
AcDbEntity
  8
1
  6
Continuous
 62
     7
100
AcDbLine
 10
15409.0
 20
14774.04103675909
 30
0.0
 11
15616.0
 21
14774.04103675909
 31
0.0
  0
LINE
  5
3C377
330
1D9
100
AcDbEntity
  8
1
  6
Continuous
 62
     7
100
AcDbLine
 10
15434.90000000002
 20
15829.99103675905
 30
0.0
 11
15409.0
 21
15817.04103675909
 31
0.0
  0
LINE
  5
3C378
330
1D9
100
AcDbEntity
  8
1
  6
Continuous
 62
     7
100
AcDbLine
 10
15409.0
 20
14774.04103675909
 30
0.0
 11
15409.0
 21
14850.04103675909
 31
0.0
  0
LINE
  5
3C379
330
1D9
100
AcDbEntity
  8
1
  6
Continuous
 62
     7
100
AcDbLine
 10
15428.72000000003
 20
14552.77103675907
 30
0.0
 11
15512.5
 21
14552.77103675907
 31
0.0
  0
ARC
  5
3C37A
330
1D9
100
AcDbEntity
  8
1
  6
Continuous
 62
     7
100
AcDbCircle
 10
15415.47000000003
 20
14533.54103675909
 30
0.0
 40
10.0
100
AcDbArc
 50
270.0
 51
350.7740000016121
  0
LINE
  5
3C37B
330
1D9
100
AcDbEntity
  8
255
  6
Continuous
 62
     7
100
AcDbLine
 10
15425.34000000002
 20
14531.94103675911
 30
0.0
 11
15427.86999999999
 21
14547.53103675908
 31
0.0
  0
ARC
  5
3C37C
330
1D9
100
AcDbEntity
  8
255
  6
Continuous
 62
     7
100
AcDbCircle
 10
15418.0
 20
14549.13103675906
 30
0.0
 40
10.0
100
AcDbArc
 50
350.7740000016121
 51
45.57299999866939
  0
LINE
  5
3C37D
330
1D9
100
AcDbEntity
  8
1
  6
Continuous
 62
     7
100
AcDbLine
 10
15436.0
 20
14730.73103675904
 30
0.0
 11
15512.5
 21
14730.73103675904
 31
0.0
  0
ARC
  5
3C37E
330
1D9
100
AcDbEntity
  8
1
  6
Continuous
 62
     7
100
AcDbCircle
 10
15426.0
 20
14735.08103675913
 30
0.0
 40
10.0
100
AcDbArc
 50
314.0100000007816
 51
0.0
  0
ARC
  5
3C37F
330
1D9
100
AcDbEntity
  8
255
  6
Continuous
 62
     7
100
AcDbCircle
 10
15434.0
 20
14759.3010367591
 30
0.0
 40
2.0
100
AcDbArc
 50
0.0000000066701066
 51
63.43490000077707
  0
ARC
  5
3C380
330
1D9
100
AcDbEntity
  8
1
  6
Continuous
 62
     7
100
AcDbCircle
 10
15512.5
 20
14645.54103675909
 30
0.0
 40
114.5
100
AcDbArc
 50
134.0100000007817
 51
142.3129999997234
  0
LINE
  5
3C381
330
1D9
100
AcDbEntity
  8
255
  6
Continuous
 62
     7
100
AcDbLine
 10
15436.0
 20
14735.08103675913
 30
0.0
 11
15436.0
 21
14759.3010367591
 31
0.0
  0
LINE
  5
3C382
330
1D9
100
AcDbEntity
  8
1
  6
Continuous
 62
     7
100
AcDbLine
 10
15434.90000000002
 20
14761.09103675914
 30
0.0
 11
15409.0
 21
14774.04103675909
 31
0.0
  0
LINE
  5
3C383
330
1D9
100
AcDbEntity
  8
255
  6
Continuous
 62
     7
100
AcDbLine
 10
15429.90000000002
 20
15113.54103675909
 30
0.0
 11
15429.90000000002
 21
14852.04103675909
 31
0.0
  0
LINE
  5
3C384
330
1D9
100
AcDbEntity
  8
255
  6
Continuous
 62
     7
100
AcDbLine
 10
15411.0
 20
14852.04103675909
 30
0.0
 11
15512.5
 21
14852.04103675909
 31
0.0
  0
ARC
  5
3C385
330
1D9
100
AcDbEntity
  8
1
  6
Continuous
 62
     7
100
AcDbCircle
 10
15411.0
 20
14850.04103675909
 30
0.0
 40
2.0
100
AcDbArc
 50
90.0
 51
180.0
  0
LINE
  5
3C386
330
1D9
100
AcDbEntity
  8
255
  6
Continuous
 62
     7
100
AcDbLine
 10
15417.40000000002
 20
15323.04103675909
 30
0.0
 11
15417.40000000002
 21
15118.54103675909
 31
0.0
  0
LINE
  5
3C387
330
1D9
100
AcDbEntity
  8
255
  6
Continuous
 62
     7
100
AcDbLine
 10
15422.40000000002
 20
15113.54103675909
 30
0.0
 11
15512.5
 21
15113.54103675909
 31
0.0
  0
ARC
  5
3C388
330
1D9
100
AcDbEntity
  8
255
  6
Continuous
 62
     7
100
AcDbCircle
 10
15422.40000000002
 20
15118.54103675909
 30
0.0
 40
5.0
100
AcDbArc
 50
180.0
 51
270.0
  0
LINE
  5
3C389
330
1D9
100
AcDbEntity
  8
1
  6
Continuous
 62
     7
100
AcDbLine
 10
15437.5
 20
15679.04103675909
 30
0.0
 11
15437.5
 21
15739.04103675909
 31
0.0
  0
LINE
  5
3C38A
330
1D9
100
AcDbEntity
  8
255
  6
Continuous
 62
     7
100
AcDbLine
 10
15415.0
 20
15679.04103675909
 30
0.0
 11
15512.5
 21
15679.04103675909
 31
0.0
  0
ARC
  5
3C38B
330
1D9
100
AcDbEntity
  8
255
  6
Continuous
 62
     7
100
AcDbCircle
 10
15415.0
 20
15677.04103675909
 30
0.0
 40
2.0
100
AcDbArc
 50
90.0
 51
180.0
  0
LINE
  5
3C38C
330
1D9
100
AcDbEntity
  8
1
  6
Continuous
 62
     7
100
AcDbLine
 10
15413.0
 20
15609.6710367591
 30
0.0
 11
15413.0
 21
15677.04103675909
 31
0.0
  0
LINE
  5
3C38D
330
1D9
100
AcDbEntity
  8
255
  6
Continuous
 62
     7
100
AcDbLine
 10
15411.0
 20
15739.04103675909
 30
0.0
 11
15512.5
 21
15739.04103675909
 31
0.0
  0
ARC
  5
3C38E
330
1D9
100
AcDbEntity
  8
1
  6
Continuous
 62
     7
100
AcDbCircle
 10
15411.0
 20
15741.04103675909
 30
0.0
 40
2.0
100
AcDbArc
 50
180.0
 51
270.0
  0
LINE
  5
3C38F
330
1D9
100
AcDbEntity
  8
1
  6
Continuous
 62
     7
100
AcDbLine
 10
15409.0
 20
15817.04103675909
 30
0.0
 11
15409.0
 21
15741.04103675909
 31
0.0
  0
ARC
  5
3C390
330
1D9
100
AcDbEntity
  8
1
  6
Continuous
 62
     7
100
AcDbCircle
 10
15415.47000000003
 20
16057.54103675909
 30
0.0
 40
10.0
100
AcDbArc
 50
9.225629997081782
 51
90.0
  0
LINE
  5
3C391
330
1D9
100
AcDbEntity
  8
1
  6
Continuous
 62
     7
100
AcDbLine
 10
15436.0
 20
15860.34103675914
 30
0.0
 11
15512.5
 21
15860.34103675914
 31
0.0
  0
ARC
  5
3C392
330
1D9
100
AcDbEntity
  8
1
  6
Continuous
 62
     7
100
AcDbCircle
 10
15426.0
 20
15855.99103675904
 30
0.0
 40
10.0
100
AcDbArc
 50
0.0
 51
45.99039999731379
  0
ARC
  5
3C393
330
1D9
100
AcDbEntity
  8
255
  6
Continuous
 62
     7
100
AcDbCircle
 10
15434.0
 20
15831.77103675907
 30
0.0
 40
2.0
100
AcDbArc
 50
296.5650000013757
 51
0.0
  0
ARC
  5
3C394
330
1D9
100
AcDbEntity
  8
1
  6
Continuous
 62
     7
100
AcDbCircle
 10
15422.0
 20
15821.3010367591
 30
0.0
 40
2.0
100
AcDbArc
 50
116.5650000013757
 51
180.0
  0
ARC
  5
3C395
330
1D9
100
AcDbEntity
  8
1
  6
Continuous
 62
     7
100
AcDbCircle
 10
15512.5
 20
15945.54103675909
 30
0.0
 40
114.5
100
AcDbArc
 50
217.6870000002765
 51
225.9899999992183
  0
LINE
  5
3C396
330
1D9
100
AcDbEntity
  8
255
  6
Continuous
 62
     7
100
AcDbLine
 10
15436.0
 20
15855.99103675904
 30
0.0
 11
15436.0
 21
15831.77103675907
 31
0.0
  0
LINE
  5
3C397
330
1D9
100
AcDbEntity
  8
1
  6
Continuous
 62
     7
100
AcDbLine
 10
15428.72000000003
 20
16038.31103675911
 30
0.0
 11
15512.5
 21
16038.31103675911
 31
0.0
  0
ARC
  5
3C398
330
1D9
100
AcDbEntity
  8
255
  6
Continuous
 62
     7
100
AcDbCircle
 10
15418.0
 20
16041.95103675913
 30
0.0
 40
10.0
100
AcDbArc
 50
314.4270000013305
 51
9.225629997081782
  0
LINE
  5
3C399
330
1D9
100
AcDbEntity
  8
255
  6
Continuous
 62
     7
100
AcDbLine
 10
15425.34000000002
 20
16059.14103675907
 30
0.0
 11
15427.86999999999
 21
16043.5510367591
 31
0.0
  0
LINE
  5
3C39A
330
1D9
100
AcDbEntity
  8
1
  6
Continuous
 62
     7
100
AcDbLine
 10
15590.11000000004
 20
15829.99103675905
 30
0.0
 11
15616.0
 21
15817.04103675909
 31
0.0
  0
LINE
  5
3C39B
330
1D9
100
AcDbEntity
  8
1
  6
Continuous
 62
     7
100
AcDbLine
 10
15616.0
 20
14774.04103675909
 30
0.0
 11
15616.0
 21
14850.04103675909
 31
0.0
  0
ARC
  5
3C39C
330
1D9
100
AcDbEntity
  8
255
  6
Continuous
 62
     7
100
AcDbCircle
 10
15512.5
 20
14645.54103675909
 30
0.0
 40
125.0
100
AcDbArc
 50
314.4270000013305
 51
349.3370000029466
  0
LINE
  5
3C39D
330
1D9
100
AcDbEntity
  8
255
  6
Continuous
 62
     7
100
AcDbLine
 10
15599.66000000003
 20
14531.94103675911
 30
0.0
 11
15597.13
 21
14547.53103675908
 31
0.0
  0
ARC
  5
3C39E
330
1D9
100
AcDbEntity
  8
255
  6
Continuous
 62
     7
100
AcDbCircle
 10
15609.53000000003
 20
14533.54103675909
 30
0.0
 40
10.0
100
AcDbArc
 50
189.2259999983877
 51
270.0
  0
ARC
  5
3C39F
330
1D9
100
AcDbEntity
  8
255
  6
Continuous
 62
     7
100
AcDbCircle
 10
15607.0
 20
14549.13103675906
 30
0.0
 40
10.0
100
AcDbArc
 50
134.4270000013305
 51
189.2259999983877
  0
ARC
  5
3C3A0
330
1D9
100
AcDbEntity
  8
1
  6
Continuous
 62
     7
100
AcDbCircle
 10
15662.0
 20
14520.54103675909
 30
0.0
 40
3.0
100
AcDbArc
 50
0.0000000133402132
 51
90.0
  0
LINE
  5
3C3A1
330
1D9
100
AcDbEntity
  8
1
  6
Continuous
 62
     7
100
AcDbLine
 10
15665.0
 20
14520.54103675909
 30
0.0
 11
15665.0
 21
14495.54103675909
 31
0.0
  0
ARC
  5
3C3A2
330
1D9
100
AcDbEntity
  8
255
  6
Continuous
 62
     7
100
AcDbCircle
 10
15649.5
 20
14712.54103675909
 30
0.0
 40
3.0
100
AcDbArc
 50
0.0
 51
90.0
  0
LINE
  5
3C3A3
330
1D9
100
AcDbEntity
  8
255
  6
Continuous
 62
     7
100
AcDbLine
 10
15652.5
 20
14622.41103675909
 30
0.0
 11
15652.5
 21
14712.54103675909
 31
0.0
  0
LINE
  5
3C3A4
330
1D9
100
AcDbEntity
  8
1
  6
Continuous
 62
     7
100
AcDbLine
 10
15590.11000000004
 20
14761.09103675914
 30
0.0
 11
15616.0
 21
14774.04103675909
 31
0.0
  0
ARC
  5
3C3A5
330
1D9
100
AcDbEntity
  8
1
  6
Continuous
 62
     7
100
AcDbCircle
 10
15599.0
 20
14735.08103675913
 30
0.0
 40
10.0
100
AcDbArc
 50
180.0
 51
225.9899999992183
  0
ARC
  5
3C3A6
330
1D9
100
AcDbEntity
  8
255
  6
Continuous
 62
     7
100
AcDbCircle
 10
15591.0
 20
14759.3010367591
 30
0.0
 40
2.0
100
AcDbArc
 50
116.5650000013757
 51
180.0
  0
ARC
  5
3C3A7
330
1D9
100
AcDbEntity
  8
1
  6
Continuous
 62
     7
100
AcDbCircle
 10
15512.5
 20
14645.54103675909
 30
0.0
 40
114.5
100
AcDbArc
 50
37.68739999913865
 51
45.99039999731379
  0
LINE
  5
3C3A8
330
1D9
100
AcDbEntity
  8
255
  6
Continuous
 62
     7
100
AcDbLine
 10
15589.0
 20
14735.08103675913
 30
0.0
 11
15589.0
 21
14759.3010367591
 31
0.0
  0
LINE
  5
3C3A9
330
1D9
100
AcDbEntity
  8
255
  6
Continuous
 62
     7
100
AcDbLine
 10
15637.5
 20
15326.04103675909
 30
0.0
 11
15637.5
 21
15604.74103675904
 31
0.0
  0
LINE
  5
3C3AA
330
1D9
100
AcDbEntity
  8
255
  6
Continuous
 62
     7
100
AcDbLine
 10
15595.10000000003
 20
15113.54103675909
 30
0.0
 11
15595.10000000003
 21
14852.04103675909
 31
0.0
  0
ARC
  5
3C3AB
330
1D9
100
AcDbEntity
  8
1
  6
Continuous
 62
     7
100
AcDbCircle
 10
15614.0
 20
14850.04103675909
 30
0.0
 40
2.0
100
AcDbArc
 50
0.0
 51
90.0
  0
LINE
  5
3C3AC
330
1D9
100
AcDbEntity
  8
255
  6
Continuous
 62
     7
100
AcDbLine
 10
15607.60000000003
 20
15323.04103675909
 30
0.0
 11
15607.60000000003
 21
15118.54103675909
 31
0.0
  0
ARC
  5
3C3AD
330
1D9
100
AcDbEntity
  8
255
  6
Continuous
 62
     7
100
AcDbCircle
 10
15602.60000000003
 20
15118.54103675909
 30
0.0
 40
5.0
100
AcDbArc
 50
270.0
 51
0.0
  0
ARC
  5
3C3AE
330
1D9
100
AcDbEntity
  8
255
  6
Continuous
 62
     7
100
AcDbCircle
 10
15634.5
 20
15326.04103675909
 30
0.0
 40
3.0
100
AcDbArc
 50
270.0
 51
0.0
  0
LINE
  5
3C3AF
330
1D9
100
AcDbEntity
  8
1
  6
Continuous
 62
     7
100
AcDbLine
 10
15587.5
 20
15679.04103675909
 30
0.0
 11
15587.5
 21
15739.04103675909
 31
0.0
  0
ARC
  5
3C3B0
330
1D9
100
AcDbEntity
  8
255
  6
Continuous
 62
     7
100
AcDbCircle
 10
15610.0
 20
15677.04103675909
 30
0.0
 40
2.0
100
AcDbArc
 50
0.0000000200103198
 51
90.0
  0
LINE
  5
3C3B1
330
1D9
100
AcDbEntity
  8
1
  6
Continuous
 62
     7
100
AcDbLine
 10
15612.0
 20
15609.6710367591
 30
0.0
 11
15612.0
 21
15677.04103675909
 31
0.0
  0
ARC
  5
3C3B2
330
1D9
100
AcDbEntity
  8
255
  6
Continuous
 62
     7
100
AcDbCircle
 10
15631.5
 20
15603.96103675913
 30
0.0
 40
6.0
100
AcDbArc
 50
0.0
 51
72.0062999995784
  0
ARC
  5
3C3B3
330
1D9
100
AcDbEntity
  8
1
  6
Continuous
 62
     7
100
AcDbCircle
 10
15614.0
 20
15741.04103675909
 30
0.0
 40
2.0
100
AcDbArc
 50
270.0
 51
0.0
  0
LINE
  5
3C3B4
330
1D9
100
AcDbEntity
  8
1
  6
Continuous
 62
     7
100
AcDbLine
 10
15616.0
 20
15817.04103675909
 30
0.0
 11
15616.0
 21
15741.04103675909
 31
0.0
  0
ARC
  5
3C3B5
330
1D9
100
AcDbEntity
  8
1
  6
Continuous
 62
     7
100
AcDbCircle
 10
15662.0
 20
16070.54103675909
 30
0.0
 40
3.0
100
AcDbArc
 50
270.0
 51
0.0
  0
ARC
  5
3C3B6
330
1D9
100
AcDbEntity
  8
255
  6
Continuous
 62
     7
100
AcDbCircle
 10
15609.53000000003
 20
16057.54103675909
 30
0.0
 40
10.0
100
AcDbArc
 50
90.0
 51
170.7740000016122
  0
LINE
  5
3C3B7
330
1D9
100
AcDbEntity
  8
255
  6
Continuous
 62
     7
100
AcDbLine
 10
15652.5
 20
15968.6710367591
 30
0.0
 11
15652.5
 21
15878.54103675909
 31
0.0
  0
ARC
  5
3C3B8
330
1D9
100
AcDbEntity
  8
1
  6
Continuous
 62
     7
100
AcDbCircle
 10
15599.0
 20
15855.99103675904
 30
0.0
 40
10.0
100
AcDbArc
 50
134.0100000007817
 51
180.0
  0
ARC
  5
3C3B9
330
1D9
100
AcDbEntity
  8
255
  6
Continuous
 62
     7
100
AcDbCircle
 10
15591.0
 20
15831.77103675907
 30
0.0
 40
2.0
100
AcDbArc
 50
180.0
 51
243.4349999986242
  0
ARC
  5
3C3BA
330
1D9
100
AcDbEntity
  8
1
  6
Continuous
 62
     7
100
AcDbCircle
 10
15603.0
 20
15821.3010367591
 30
0.0
 40
2.0
100
AcDbArc
 50
0.0000000400206397
 51
63.43490000077707
  0
ARC
  5
3C3BB
330
1D9
100
AcDbEntity
  8
1
  6
Continuous
 62
     7
100
AcDbCircle
 10
15512.5
 20
15945.54103675909
 30
0.0
 40
114.5
100
AcDbArc
 50
314.0100000007816
 51
322.3129999997234
  0
LINE
  5
3C3BC
330
1D9
100
AcDbEntity
  8
255
  6
Continuous
 62
     7
100
AcDbLine
 10
15589.0
 20
15855.99103675904
 30
0.0
 11
15589.0
 21
15831.77103675907
 31
0.0
  0
ARC
  5
3C3BD
330
1D9
100
AcDbEntity
  8
255
  6
Continuous
 62
     7
100
AcDbCircle
 10
15649.5
 20
15878.54103675909
 30
0.0
 40
3.0
100
AcDbArc
 50
270.0
 51
0.0000000200103198
  0
ARC
  5
3C3BE
330
1D9
100
AcDbEntity
  8
255
  6
Continuous
 62
     7
100
AcDbCircle
 10
15512.5
 20
15945.54103675909
 30
0.0
 40
125.0
100
AcDbArc
 50
10.66310000168409
 51
45.57299999866939
  0
ARC
  5
3C3BF
330
1D9
100
AcDbEntity
  8
255
  6
Continuous
 62
     7
100
AcDbCircle
 10
15607.0
 20
16041.95103675913
 30
0.0
 40
10.0
100
AcDbArc
 50
170.7740000016122
 51
225.5729999986694
  0
LINE
  5
3C3C0
330
1D9
100
AcDbEntity
  8
255
  6
Continuous
 62
     7
100
AcDbLine
 10
15599.66000000003
 20
16059.14103675907
 30
0.0
 11
15597.13
 21
16043.5510367591
 31
0.0
  0
LINE
  5
3C3C1
330
1D9
100
AcDbEntity
  8
1
  6
Continuous
 62
     7
100
AcDbLine
 10
15665.0
 20
16070.54103675909
 30
0.0
 11
15665.0
 21
16095.54103675909
 31
0.0
  0
LINE
  5
3C4B7
330
1D9
100
AcDbEntity
  8
SCALE
100
AcDbLine
 10
14705.0
 20
16095.54103675909
 30
0.0
 11
14113.4114067622
 21
16095.54103675909
 31
0.0
  0
LINE
  5
3C4B8
330
1D9
100
AcDbEntity
  8
SCALE
100
AcDbLine
 10
14705.0
 20
14495.54103675909
 30
0.0
 11
14113.4114067622
 21
14495.54103675909
 31
0.0
  0
LINE
  5
3C4B9
330
1D9
100
AcDbEntity
  8
SCALE
100
AcDbLine
 10
14203.4114067622
 20
15995.54103675909
 30
0.0
 11
14203.4114067622
 21
14595.54103675909
 31
0.0
  0
LINE
  5
3C4BD
330
1D9
100
AcDbEntity
  8
SCALE
100
AcDbLine
 10
4647.5
 20
16095.54103675921
 30
0.0
 11
3953.353771625322
 21
16095.54103675921
 31
0.0
  0
LINE
  5
3C4BE
330
1D9
100
AcDbEntity
  8
SCALE
100
AcDbLine
 10
4647.5
 20
14495.54103675921
 30
0.0
 11
3953.353771625321
 21
14495.54103675921
 31
0.0
  0
LINE
  5
3C4BF
330
1D9
100
AcDbEntity
  8
SCALE
100
AcDbLine
 10
4043.353771625322
 20
15995.54103675921
 30
0.0
 11
4043.353771625321
 21
14595.54103675921
 31
0.0
  0
LINE
  5
3C4C3
330
1D9
100
AcDbEntity
  8
SCALE
100
AcDbLine
 10
5202.500000000002
 20
14490.54103675921
 30
0.0
 11
5202.500000000002
 21
14042.53114571777
 31
0.0
  0
LINE
  5
3C4C4
330
1D9
100
AcDbEntity
  8
SCALE
100
AcDbLine
 10
5672.500000000002
 20
14490.54103675921
 30
0.0
 11
5672.500000000002
 21
14042.53114571777
 31
0.0
  0
LINE
  5
3C4C5
330
1D9
100
AcDbEntity
  8
SCALE
100
AcDbLine
 10
5302.500000000001
 20
14132.53114571777
 30
0.0
 11
5572.500000000003
 21
14132.53114571777
 31
0.0
  0
LINE
  5
3C4C9
330
1D9
100
AcDbEntity
  8
SCALE
100
AcDbLine
 10
15260.0
 20
14490.54103675909
 30
0.0
 11
15260.0
 21
14089.89882986043
 31
0.0
  0
LINE
  5
3C4CA
330
1D9
100
AcDbEntity
  8
SCALE
100
AcDbLine
 10
15765.0
 20
14490.54103675909
 30
0.0
 11
15765.0
 21
14089.89882986043
 31
0.0
  0
LINE
  5
3C4CB
330
1D9
100
AcDbEntity
  8
SCALE
100
AcDbLine
 10
15360.0
 20
14179.89882986043
 30
0.0
 11
15665.0
 21
14179.89882986043
 31
0.0
  0
LINE
  5
3C4CF
330
1D9
100
AcDbEntity
  8
SCALE
100
AcDbLine
 10
4647.5
 20
16095.54103675921
 30
0.0
 11
4344.744208888385
 21
16095.54103675921
 31
0.0
  0
LINE
  5
3C4D0
330
1D9
100
AcDbEntity
  8
SCALE
100
AcDbLine
 10
4647.5
 20
15884.54103675921
 30
0.0
 11
4344.744208888385
 21
15884.54103675921
 31
0.0
  0
LINE
  5
3C4D1
330
1D9
100
AcDbEntity
  8
SCALE
100
AcDbLine
 10
4434.744208888385
 20
15995.54103675921
 30
0.0
 11
4434.744208888385
 21
15984.54103675921
 31
0.0
  0
LINE
  5
3C4D5
330
1D9
100
AcDbEntity
  8
SCALE
100
AcDbLine
 10
4652.500000000002
 20
16100.54103675921
 30
0.0
 11
4652.500000000002
 21
16488.59437545068
 31
0.0
  0
LINE
  5
3C4D6
330
1D9
100
AcDbEntity
  8
SCALE
100
AcDbLine
 10
6222.500000000003
 20
16100.54103675921
 30
0.0
 11
6222.500000000003
 21
16488.59437545068
 31
0.0
  0
LINE
  5
3C4D7
330
1D9
100
AcDbEntity
  8
SCALE
100
AcDbLine
 10
4752.500000000002
 20
16398.59437545068
 30
0.0
 11
6122.500000000003
 21
16398.59437545068
 31
0.0
  0
LINE
  5
3C4DB
330
1D9
100
AcDbEntity
  8
SCALE
100
AcDbLine
 10
14705.0
 20
16095.54103675909
 30
0.0
 11
14444.26824449934
 21
16095.54103675909
 31
0.0
  0
LINE
  5
3C4DC
330
1D9
100
AcDbEntity
  8
SCALE
100
AcDbLine
 10
14705.0
 20
15875.54103675909
 30
0.0
 11
14444.26824449934
 21
15875.54103675909
 31
0.0
  0
LINE
  5
3C4DD
330
1D9
100
AcDbEntity
  8
SCALE
100
AcDbLine
 10
14534.26824449934
 20
15995.54103675909
 30
0.0
 11
14534.26824449934
 21
15975.54103675909
 31
0.0
  0
LINE
  5
3C4E1
330
1D9
100
AcDbEntity
  8
SCALE
100
AcDbLine
 10
14710.0
 20
16100.54103675909
 30
0.0
 11
14710.0
 21
16445.48905648855
 31
0.0
  0
LINE
  5
3C4E2
330
1D9
100
AcDbEntity
  8
SCALE
100
AcDbLine
 10
16315.0
 20
16100.54103675909
 30
0.0
 11
16315.0
 21
16445.48905648855
 31
0.0
  0
LINE
  5
3C4E3
330
1D9
100
AcDbEntity
  8
SCALE
100
AcDbLine
 10
14810.0
 20
16355.48905648855
 30
0.0
 11
16215.0
 21
16355.48905648855
 31
0.0
  0
LINE
  5
3C4E7
330
1D9
100
AcDbEntity
  8
0
100
AcDbLine
 10
4043.353771625321
 20
14495.54103675921
 30
0.0
 11
4016.558852382211
 21
14595.54103675921
 31
0.0
  0
LINE
  5
3C4E8
330
1D9
100
AcDbEntity
  8
0
100
AcDbLine
 10
4043.353771625321
 20
14495.54103675921
 30
0.0
 11
4070.148690868432
 21
14595.54103675921
 31
0.0
  0
LINE
  5
3C4E9
330
1D9
100
AcDbEntity
  8
0
100
AcDbLine
 10
4043.353771625321
 20
14595.54103675921
 30
0.0
 11
4043.353771625321
 21
14495.54103675921
 31
0.0
  0
TEXT
  5
3C4EA
330
1D9
100
AcDbEntity
  8
SCALE
100
AcDbText
 10
5306.250000000002
 20
14170.03114571777
 30
0.0
 40
75.0
  1
∅
100
AcDbText
  0
TEXT
  5
3C4EB
330
1D9
100
AcDbEntity
  8
SCALE
100
AcDbText
 10
5381.250000000002
 20
14170.03114571777
 30
0.0
 40
75.0
  1
470
100
AcDbText
  0
LINE
  5
3C4EC
330
1D9
100
AcDbEntity
  8
0
100
AcDbLine
 10
5202.500000000002
 20
14132.53114571777
 30
0.0
 11
5302.500000000001
 21
14159.32606496088
 31
0.0
  0
LINE
  5
3C4ED
330
1D9
100
AcDbEntity
  8
0
100
AcDbLine
 10
5202.500000000002
 20
14132.53114571777
 30
0.0
 11
5302.500000000001
 21
14105.73622647466
 31
0.0
  0
LINE
  5
3C4EE
330
1D9
100
AcDbEntity
  8
0
100
AcDbLine
 10
5302.500000000001
 20
14132.53114571777
 30
0.0
 11
5202.500000000002
 21
14132.53114571777
 31
0.0
  0
LINE
  5
3C4EF
330
1D9
100
AcDbEntity
  8
0
100
AcDbLine
 10
5672.500000000002
 20
14132.53114571777
 30
0.0
 11
5572.500000000003
 21
14105.73622647466
 31
0.0
  0
LINE
  5
3C4F0
330
1D9
100
AcDbEntity
  8
0
100
AcDbLine
 10
5672.500000000002
 20
14132.53114571777
 30
0.0
 11
5572.500000000003
 21
14159.32606496088
 31
0.0
  0
LINE
  5
3C4F1
330
1D9
100
AcDbEntity
  8
0
100
AcDbLine
 10
5572.500000000003
 20
14132.53114571777
 30
0.0
 11
5672.500000000002
 21
14132.53114571777
 31
0.0
  0
LINE
  5
3C4F2
330
1D9
100
AcDbEntity
  8
0
100
AcDbLine
 10
14203.4114067622
 20
14495.54103675909
 30
0.0
 11
14176.61648751909
 21
14595.54103675909
 31
0.0
  0
LINE
  5
3C4F3
330
1D9
100
AcDbEntity
  8
0
100
AcDbLine
 10
14203.4114067622
 20
14495.54103675909
 30
0.0
 11
14230.20632600531
 21
14595.54103675909
 31
0.0
  0
LINE
  5
3C4F4
330
1D9
100
AcDbEntity
  8
0
100
AcDbLine
 10
14203.4114067622
 20
14595.54103675909
 30
0.0
 11
14203.4114067622
 21
14495.54103675909
 31
0.0
  0
LINE
  5
3C4F5
330
1D9
100
AcDbEntity
  8
0
100
AcDbLine
 10
15260.0
 20
14179.89882986043
 30
0.0
 11
15360.0
 21
14206.69374910354
 31
0.0
  0
LINE
  5
3C4F6
330
1D9
100
AcDbEntity
  8
0
100
AcDbLine
 10
15260.0
 20
14179.89882986043
 30
0.0
 11
15360.0
 21
14153.10391061732
 31
0.0
  0
LINE
  5
3C4F7
330
1D9
100
AcDbEntity
  8
0
100
AcDbLine
 10
15360.0
 20
14179.89882986043
 30
0.0
 11
15260.0
 21
14179.89882986043
 31
0.0
  0
TEXT
  5
3C4F8
330
1D9
100
AcDbEntity
  8
SCALE
100
AcDbText
 10
15381.25
 20
14217.39882986043
 30
0.0
 40
75.0
  1
∅
100
AcDbText
  0
TEXT
  5
3C4F9
330
1D9
100
AcDbEntity
  8
SCALE
100
AcDbText
 10
15456.25
 20
14217.39882986043
 30
0.0
 40
75.0
  1
505
100
AcDbText
  0
LINE
  5
3C4FA
330
1D9
100
AcDbEntity
  8
0
100
AcDbLine
 10
15765.0
 20
14179.89882986043
 30
0.0
 11
15665.0
 21
14153.10391061732
 31
0.0
  0
LINE
  5
3C4FB
330
1D9
100
AcDbEntity
  8
0
100
AcDbLine
 10
15765.0
 20
14179.89882986043
 30
0.0
 11
15665.0
 21
14206.69374910354
 31
0.0
  0
LINE
  5
3C4FC
330
1D9
100
AcDbEntity
  8
0
100
AcDbLine
 10
15665.0
 20
14179.89882986043
 30
0.0
 11
15765.0
 21
14179.89882986043
 31
0.0
  0
TEXT
  5
3C4FD
330
1D9
100
AcDbEntity
  8
SCALE
100
AcDbText
 10
4397.244208888383
 20
15915.04103675921
 30
0.0
 40
75.0
  1
211
 50
90.0
100
AcDbText
  0
LINE
  5
3C4FE
330
1D9
100
AcDbEntity
  8
0
100
AcDbLine
 10
4434.744208888385
 20
16095.54103675921
 30
0.0
 11
4461.539128131496
 21
15995.54103675921
 31
0.0
  0
LINE
  5
3C4FF
330
1D9
100
AcDbEntity
  8
0
100
AcDbLine
 10
4434.744208888385
 20
16095.54103675921
 30
0.0
 11
4407.949289645276
 21
15995.54103675921
 31
0.0
  0
LINE
  5
3C500
330
1D9
100
AcDbEntity
  8
0
100
AcDbLine
 10
4434.744208888385
 20
15995.54103675921
 30
0.0
 11
4434.744208888385
 21
16095.54103675921
 31
0.0
  0
LINE
  5
3C501
330
1D9
100
AcDbEntity
  8
0
100
AcDbLine
 10
4043.353771625322
 20
16095.54103675921
 30
0.0
 11
4070.148690868432
 21
15995.54103675921
 31
0.0
  0
LINE
  5
3C502
330
1D9
100
AcDbEntity
  8
0
100
AcDbLine
 10
4043.353771625322
 20
16095.54103675921
 30
0.0
 11
4016.558852382211
 21
15995.54103675921
 31
0.0
  0
LINE
  5
3C503
330
1D9
100
AcDbEntity
  8
0
100
AcDbLine
 10
4043.353771625322
 20
15995.54103675921
 30
0.0
 11
4043.353771625322
 21
16095.54103675921
 31
0.0
  0
TEXT
  5
3C504
330
1D9
100
AcDbEntity
  8
SCALE
100
AcDbText
 10
4005.853771625319
 20
15003.04103675921
 30
0.0
 40
75.0
  1
取付面間1600
 50
90.0
100
AcDbText
  0
LINE
  5
3C505
330
1D9
100
AcDbEntity
  8
0
100
AcDbLine
 10
4434.744208888385
 20
15884.54103675921
 30
0.0
 11
4407.949289645276
 21
15984.54103675921
 31
0.0
  0
LINE
  5
3C506
330
1D9
100
AcDbEntity
  8
0
100
AcDbLine
 10
4434.744208888385
 20
15884.54103675921
 30
0.0
 11
4461.539128131496
 21
15984.54103675921
 31
0.0
  0
LINE
  5
3C507
330
1D9
100
AcDbEntity
  8
0
100
AcDbLine
 10
4434.744208888385
 20
15984.54103675921
 30
0.0
 11
4434.744208888385
 21
15884.54103675921
 31
0.0
  0
TEXT
  5
3C508
330
1D9
100
AcDbEntity
  8
SCALE
100
AcDbText
 10
5281.250000000002
 20
16436.09437545068
 30
0.0
 40
75.0
  1
∅
100
AcDbText
  0
TEXT
  5
3C509
330
1D9
100
AcDbEntity
  8
SCALE
100
AcDbText
 10
5356.250000000002
 20
16436.09437545068
 30
0.0
 40
75.0
  1
1570
100
AcDbText
  0
LINE
  5
3C50A
330
1D9
100
AcDbEntity
  8
0
100
AcDbLine
 10
4652.500000000002
 20
16398.59437545068
 30
0.0
 11
4752.500000000002
 21
16425.38929469379
 31
0.0
  0
LINE
  5
3C50B
330
1D9
100
AcDbEntity
  8
0
100
AcDbLine
 10
4652.500000000002
 20
16398.59437545068
 30
0.0
 11
4752.500000000002
 21
16371.79945620757
 31
0.0
  0
LINE
  5
3C50C
330
1D9
100
AcDbEntity
  8
0
100
AcDbLine
 10
4752.500000000002
 20
16398.59437545068
 30
0.0
 11
4652.500000000002
 21
16398.59437545068
 31
0.0
  0
LINE
  5
3C50D
330
1D9
100
AcDbEntity
  8
0
100
AcDbLine
 10
6222.500000000003
 20
16398.59437545068
 30
0.0
 11
6122.500000000003
 21
16371.79945620757
 31
0.0
  0
LINE
  5
3C50E
330
1D9
100
AcDbEntity
  8
0
100
AcDbLine
 10
6222.500000000003
 20
16398.59437545068
 30
0.0
 11
6122.500000000003
 21
16425.38929469379
 31
0.0
  0
LINE
  5
3C50F
330
1D9
100
AcDbEntity
  8
0
100
AcDbLine
 10
6122.500000000003
 20
16398.59437545068
 30
0.0
 11
6222.500000000003
 21
16398.59437545068
 31
0.0
  0
TEXT
  5
3C510
330
1D9
100
AcDbEntity
  8
SCALE
100
AcDbText
 10
14496.76824449934
 20
15891.7910367591
 30
0.0
 40
75.0
  1
220
 50
90.0
100
AcDbText
  0
LINE
  5
3C511
330
1D9
100
AcDbEntity
  8
0
100
AcDbLine
 10
14203.4114067622
 20
16095.54103675909
 30
0.0
 11
14230.20632600531
 21
15995.54103675909
 31
0.0
  0
LINE
  5
3C512
330
1D9
100
AcDbEntity
  8
0
100
AcDbLine
 10
14203.4114067622
 20
16095.54103675909
 30
0.0
 11
14176.61648751909
 21
15995.54103675909
 31
0.0
  0
LINE
  5
3C513
330
1D9
100
AcDbEntity
  8
0
100
AcDbLine
 10
14203.4114067622
 20
15995.54103675909
 30
0.0
 11
14203.4114067622
 21
16095.54103675909
 31
0.0
  0
TEXT
  5
3C514
330
1D9
100
AcDbEntity
  8
SCALE
100
AcDbText
 10
14165.91140676219
 20
15003.04103675909
 30
0.0
 40
75.0
  1
取付面間1600
 50
90.0
100
AcDbText
  0
LINE
  5
3C515
330
1D9
100
AcDbEntity
  8
0
100
AcDbLine
 10
14534.26824449934
 20
16095.54103675909
 30
0.0
 11
14561.06316374245
 21
15995.54103675909
 31
0.0
  0
LINE
  5
3C516
330
1D9
100
AcDbEntity
  8
0
100
AcDbLine
 10
14534.26824449934
 20
16095.54103675909
 30
0.0
 11
14507.47332525623
 21
15995.54103675909
 31
0.0
  0
LINE
  5
3C517
330
1D9
100
AcDbEntity
  8
0
100
AcDbLine
 10
14534.26824449934
 20
15995.54103675909
 30
0.0
 11
14534.26824449934
 21
16095.54103675909
 31
0.0
  0
LINE
  5
3C518
330
1D9
100
AcDbEntity
  8
0
100
AcDbLine
 10
14534.26824449934
 20
15875.54103675909
 30
0.0
 11
14507.47332525623
 21
15975.54103675909
 31
0.0
  0
LINE
  5
3C519
330
1D9
100
AcDbEntity
  8
0
100
AcDbLine
 10
14534.26824449934
 20
15875.54103675909
 30
0.0
 11
14561.06316374245
 21
15975.54103675909
 31
0.0
  0
LINE
  5
3C51A
330
1D9
100
AcDbEntity
  8
0
100
AcDbLine
 10
14534.26824449934
 20
15975.54103675909
 30
0.0
 11
14534.26824449934
 21
15875.54103675909
 31
0.0
  0
LINE
  5
3C51B
330
1D9
100
AcDbEntity
  8
0
100
AcDbLine
 10
14710.0
 20
16355.48905648855
 30
0.0
 11
14810.0
 21
16382.28397573166
 31
0.0
  0
LINE
  5
3C51C
330
1D9
100
AcDbEntity
  8
0
100
AcDbLine
 10
14710.0
 20
16355.48905648855
 30
0.0
 11
14810.0
 21
16328.69413724544
 31
0.0
  0
LINE
  5
3C51D
330
1D9
100
AcDbEntity
  8
0
100
AcDbLine
 10
14810.0
 20
16355.48905648855
 30
0.0
 11
14710.0
 21
16355.48905648855
 31
0.0
  0
TEXT
  5
3C51E
330
1D9
100
AcDbEntity
  8
SCALE
100
AcDbText
 10
15356.25
 20
16392.98905648855
 30
0.0
 40
75.0
  1
∅
100
AcDbText
  0
TEXT
  5
3C51F
330
1D9
100
AcDbEntity
  8
SCALE
100
AcDbText
 10
15431.25
 20
16392.98905648855
 30
0.0
 40
75.0
  1
1605
100
AcDbText
  0
LINE
  5
3C520
330
1D9
100
AcDbEntity
  8
0
100
AcDbLine
 10
16315.0
 20
16355.48905648855
 30
0.0
 11
16215.0
 21
16328.69413724544
 31
0.0
  0
LINE
  5
3C521
330
1D9
100
AcDbEntity
  8
0
100
AcDbLine
 10
16315.0
 20
16355.48905648855
 30
0.0
 11
16215.0
 21
16382.28397573166
 31
0.0
  0
LINE
  5
3C522
330
1D9
100
AcDbEntity
  8
0
100
AcDbLine
 10
16215.0
 20
16355.48905648855
 30
0.0
 11
16315.0
 21
16355.48905648855
 31
0.0
  0
ENDSEC
  0
SECTION
  2
OBJECTS
  0
DICTIONARY
  5
1CD
330
0
100
AcDbDictionary
281
     1
  3
ACAD_CIP_PREVIOUS_PRODUCT_INFO
350
3C72C
  3
ACAD_COLOR
350
3C70E
  3
ACAD_DETAILVIEWSTYLE
350
3C727
  3
ACAD_FIELDLIST
350
3C79B
  3
ACAD_GROUP
350
1CE
  3
ACAD_LAYOUT
350
2DE
  3
ACAD_MATERIAL
350
3C6DC
  3
ACAD_MLEADERSTYLE
350
3C723
  3
ACAD_MLINESTYLE
350
1CF
  3
ACAD_PLOTSETTINGS
350
2DF
  3
ACAD_PLOTSTYLENAME
350
3C6DA
  3
ACAD_SCALELIST
350
3C711
  3
ACAD_SECTIONVIEWSTYLE
350
3C725
  3
ACAD_TABLESTYLE
350
3C70F
  3
ACAD_VISUALSTYLE
350
3C6F5
  3
ACDB_RECOMPOSE_DATA
350
3C7D5
  3
AcDbVariableDictionary
350
3C7C8
  3
AcmDictionary
350
3C758
  3
AMG
350
3C72D
  3
AMGSNAPSETTINGS
350
3C7AF
  0
DICTIONARY
  5
2BC9D
330
1C3
100
AcDbDictionary
281
     1
  3
ACAD_LAYERSTATES
350
2BC9E
  0
DICTIONARY
  5
3C7B6
330
1D0
100
AcDbDictionary
280
     1
281
     1
  3
ADSK_XREC_LAYER_RECONCILED
360
3C7B7
  0
DICTIONARY
  5
3C7B8
330
1F8
100
AcDbDictionary
280
     1
281
     1
  3
ADSK_XREC_LAYER_RECONCILED
360
3C7B9
  0
DICTIONARY
  5
3C7BA
330
1FA
100
AcDbDictionary
280
     1
281
     1
  3
ADSK_XREC_LAYER_RECONCILED
360
3C7BB
  0
DICTIONARY
  5
3C7BC
330
1FB
100
AcDbDictionary
280
     1
281
     1
  3
ADSK_XREC_LAYER_RECONCILED
360
3C7BD
  0
DICTIONARY
  5
3C7BE
330
1FD
100
AcDbDictionary
280
     1
281
     1
  3
ADSK_XREC_LAYER_RECONCILED
360
3C7BF
  0
DICTIONARY
  5
3C7C0
330
1FE
100
AcDbDictionary
280
     1
281
     1
  3
ADSK_XREC_LAYER_RECONCILED
360
3C7C1
  0
DICTIONARY
  5
3C7C2
330
205
100
AcDbDictionary
280
     1
281
     1
  3
ADSK_XREC_LAYER_RECONCILED
360
3C7C3
  0
DICTIONARY
  5
3C7C4
330
10732
100
AcDbDictionary
280
     1
281
     1
  3
ADSK_XREC_LAYER_RECONCILED
360
3C7C5
  0
DICTIONARY
  5
3C7C6
330
10C21
100
AcDbDictionary
280
     1
281
     1
  3
ADSK_XREC_LAYER_RECONCILED
360
3C7C7
  0
DICTIONARY
  5
3C529
330
1D9
100
AcDbDictionary
281
     1
  3
ACAD_LAYOUTSELFREF
350
3C52A
  0
DICTIONARY
  5
3C527
330
1D6
100
AcDbDictionary
281
     1
  3
ACAD_LAYOUTSELFREF
350
3C528
  0
XRECORD
  5
3C72C
102
{ACAD_REACTORS
330
1CD
102
}
330
1CD
100
AcDbXrecord
280
     1
300
AMECH_PP
300
2021
300
87400AMECH_PP_2021_0F
  0
DICTIONARY
  5
3C70E
102
{ACAD_REACTORS
330
1CD
102
}
330
1CD
100
AcDbDictionary
281
     1
  0
DICTIONARY
  5
3C727
102
{ACAD_REACTORS
330
1CD
102
}
330
1CD
100
AcDbDictionary
281
     1
  3
Imperial24
350
3C728
  0
FIELDLIST
  5
3C79B
102
{ACAD_REACTORS
330
1CD
102
}
330
1CD
100
AcDbIdSet
 90
        8
330
3C799
330
3C79A
330
3C79C
330
3C79D
330
3C7A1
330
3C7A2
330
3C7A3
330
3C7A4
100
AcDbFieldList
  0
DICTIONARY
  5
1CE
102
{ACAD_REACTORS
330
1CD
102
}
330
1CD
100
AcDbDictionary
281
     1
  0
DICTIONARY
  5
2DE
102
{ACAD_REACTORS
330
1CD
102
}
330
1CD
100
AcDbDictionary
281
     1
  3
Model
350
3C729
  3
レイアウト1
350
3C72A
  0
DICTIONARY
  5
3C6DC
102
{ACAD_REACTORS
330
1CD
102
}
330
1CD
100
AcDbDictionary
281
     1
  3
ByBlock
350
3C6E5
  3
ByLayer
350
3C6DD
  3
Global
350
3C6ED
  0
DICTIONARY
  5
3C723
102
{ACAD_REACTORS
330
1CD
102
}
330
1CD
100
AcDbDictionary
281
     1
  3
Standard
350
3C724
  0
DICTIONARY
  5
1CF
102
{ACAD_REACTORS
330
1CD
102
}
330
1CD
100
AcDbDictionary
281
     1
  3
STANDARD
350
1DC
  0
DICTIONARY
  5
2DF
102
{ACAD_REACTORS
330
1CD
102
}
330
1CD
100
AcDbDictionary
281
     1
  0
ACDBDICTIONARYWDFLT
  5
3C6DA
102
{ACAD_REACTORS
330
1CD
102
}
330
1CD
100
AcDbDictionary
281
     1
  3
Normal
350
3C6DB
100
AcDbDictionaryWithDefault
340
3C6DB
  0
DICTIONARY
  5
3C711
102
{ACAD_REACTORS
330
1CD
102
}
330
1CD
100
AcDbDictionary
281
     1
  3
A0
350
3C712
  3
A1
350
3C713
  3
A2
350
3C714
  3
A3
350
3C715
  3
A4
350
3C716
  3
A5
350
3C717
  3
A6
350
3C718
  3
A7
350
3C719
  3
A8
350
3C71A
  3
A9
350
3C71B
  3
B0
350
3C71C
  3
B1
350
3C71D
  3
B2
350
3C71E
  3
B3
350
3C71F
  3
B4
350
3C720
  3
B5
350
3C721
  3
B6
350
3C722
  0
DICTIONARY
  5
3C725
102
{ACAD_REACTORS
330
1CD
102
}
330
1CD
100
AcDbDictionary
281
     1
  3
Imperial24
350
3C726
  0
DICTIONARY
  5
3C70F
102
{ACAD_REACTORS
330
1CD
102
}
330
1CD
100
AcDbDictionary
281
     1
  3
Standard
350
3C710
  0
DICTIONARY
  5
3C6F5
102
{ACAD_REACTORS
330
1CD
102
}
330
1CD
100
AcDbDictionary
281
     1
  3
2dWireframe
350
3C6FB
  3
Basic
350
3C6FA
  3
Brighten
350
3C701
  3
ColorChange
350
3C705
  3
Conceptual
350
3C6FE
  3
Dim
350
3C700
  3
EdgeColorOff
350
3C70D
  3
Facepattern
350
3C704
  3
Flat
350
3C6F6
  3
FlatWithEdges
350
3C6F7
  3
Gouraud
350
3C6F8
  3
GouraudWithEdges
350
3C6F9
  3
Hidden
350
3C6FD
  3
JitterOff
350
3C70B
  3
Linepattern
350
3C703
  3
OverhangOff
350
3C70C
  3
Realistic
350
3C6FF
  3
Shaded
350
3C70A
  3
Shaded with edges
350
3C709
  3
Shades of Gray
350
3C706
  3
Sketchy
350
3C707
  3
Thicken
350
3C702
  3
Wireframe
350
3C6FC
  3
X-Ray
350
3C708
  0
XRECORD
  5
3C7D5
102
{ACAD_REACTORS
330
1CD
102
}
330
1CD
100
AcDbXrecord
280
     1
 90
        1
330
3C710
  0
DICTIONARY
  5
3C7C8
102
{ACAD_REACTORS
330
1CD
102
}
330
1CD
100
AcDbDictionary
281
     1
  3
CANNOSCALE
350
3C7CE
  3
CMLEADERSTYLE
350
3C7CA
  3
CTABLESTYLE
350
3C7C9
  3
CVIEWDETAILSTYLE
350
3C7CB
  3
CVIEWSECTIONSTYLE
350
3C7CC
  3
LAYEREVAL
350
3C7D0
  3
LAYERNOTIFY
350
3C7D1
  3
LIGHTINGUNITS
350
3C7CF
  3
MSLTSCALE
350
3C7CD
  3
XCLIPFRAME
350
3C7D2
  0
DICTIONARY
  5
3C758
102
{ACAD_REACTORS
330
1CD
102
}
330
1CD
100
AcDbDictionary
281
     1
  3
AcmStdDictionary
350
3C75F
  0
DICTIONARY
  5
3C72D
102
{ACAD_REACTORS
330
1CD
102
}
330
1CD
100
AcDbDictionary
281
     1
  0
DICTIONARY
  5
3C7AF
102
{ACAD_REACTORS
330
1CD
102
}
330
1CD
100
AcDbDictionary
281
     1
  0
DICTIONARY
  5
2BC9E
102
{ACAD_REACTORS
330
2BC9D
102
}
330
2BC9D
100
AcDbDictionary
281
     1
  0
XRECORD
  5
3C7B7
102
{ACAD_REACTORS
330
3C7B6
102
}
330
3C7B6
100
AcDbXrecord
280
     1
290
     1
  0
XRECORD
  5
3C7B9
102
{ACAD_REACTORS
330
3C7B8
102
}
330
3C7B8
100
AcDbXrecord
280
     1
290
     1
  0
XRECORD
  5
3C7BB
102
{ACAD_REACTORS
330
3C7BA
102
}
330
3C7BA
100
AcDbXrecord
280
     1
290
     1
  0
XRECORD
  5
3C7BD
102
{ACAD_REACTORS
330
3C7BC
102
}
330
3C7BC
100
AcDbXrecord
280
     1
290
     1
  0
XRECORD
  5
3C7BF
102
{ACAD_REACTORS
330
3C7BE
102
}
330
3C7BE
100
AcDbXrecord
280
     1
290
     1
  0
XRECORD
  5
3C7C1
102
{ACAD_REACTORS
330
3C7C0
102
}
330
3C7C0
100
AcDbXrecord
280
     1
290
     1
  0
XRECORD
  5
3C7C3
102
{ACAD_REACTORS
330
3C7C2
102
}
330
3C7C2
100
AcDbXrecord
280
     1
290
     1
  0
XRECORD
  5
3C7C5
102
{ACAD_REACTORS
330
3C7C4
102
}
330
3C7C4
100
AcDbXrecord
280
     1
290
     1
  0
XRECORD
  5
3C7C7
102
{ACAD_REACTORS
330
3C7C6
102
}
330
3C7C6
100
AcDbXrecord
280
     1
290
     1
  0
XRECORD
  5
3C52A
102
{ACAD_REACTORS
330
3C529
102
}
330
3C529
100
AcDbXrecord
280
     1
340
1D9
  0
XRECORD
  5
3C528
102
{ACAD_REACTORS
330
3C527
102
}
330
3C527
100
AcDbXrecord
280
     1
340
1D6
  0
ACDBDETAILVIEWSTYLE
  5
3C728
102
{ACAD_XDICTIONARY
360
3C809
102
}
102
{ACAD_REACTORS
330
3C727
330
3C78C
102
}
330
3C727
100
AcDbModelDocViewStyle
 70
     0
  3
Imperial24
290
     0
100
AcDbDetailViewStyle
 70
     0
 71
     0
 90
        3
 71
     1
340
1D1
 62
   256
 40
0.24
340
0
 62
   256
 40
0.24
300

 40
0.36
280
     3
 71
     2
340
1D5
 90
       25
 62
   256
 71
     3
340
1D1
 62
   256
 40
0.24
 90
        1
 40
0.75
 90
        1
300
%<\AcVar ViewType \f "%tc1">% %<\AcVar ViewDetailId>%\PSCALE %<\AcVar ViewScale \f "%sn">%
 71
     4
340
1D5
 90
       25
 62
   256
340
1D5
 90
       25
 62
   256
280
     0
  0
LAYOUT
  5
3C729
102
{ACAD_REACTORS
330
2DE
102
}
330
2DE
100
AcDbPlotSettings
  1

  2
産機2F_DocuPrint 4050
  4

  6

 40
0.0
 41
0.0
 42
0.0
 43
0.0
 44
0.0
 45
0.0
 46
0.0
 47
0.0
 48
0.0
 49
0.0
140
0.0
141
0.0
142
1.0
143
1.0
 70
  1712
 72
     0
 73
     0
 74
     0
  7

 75
     0
147
1.0
 76
     0
 77
     2
 78
   300
148
0.0
149
0.0
100
AcDbLayout
  1
Model
 70
     1
 71
     0
 10
0.0
 20
0.0
 11
12.0
 21
9.0
 12
0.0
 22
0.0
 32
0.0
 14
0.0
 24
0.0
 34
0.0
 15
0.0
 25
0.0
 35
0.0
146
0.0
 13
0.0
 23
0.0
 33
0.0
 16
1.0
 26
0.0
 36
0.0
 17
0.0
 27
1.0
 37
0.0
 76
     0
330
1D9
331
3C523
  0
LAYOUT
  5
3C72A
102
{ACAD_REACTORS
330
2DE
102
}
330
2DE
100
AcDbPlotSettings
  1

  2
産機2F_DocuPrint 4050
  4

  6

 40
0.0
 41
0.0
 42
0.0
 43
0.0
 44
0.0
 45
0.0
 46
0.0
 47
0.0
 48
0.0
 49
0.0
140
0.0
141
0.0
142
1.0
143
1.0
 70
   688
 72
     0
 73
     0
 74
     5
  7

 75
    16
147
1.0
 76
     0
 77
     2
 78
   300
148
0.0
149
0.0
100
AcDbLayout
  1
レイアウト1
 70
     0
 71
     1
 10
0.0
 20
0.0
 11
12.0
 21
9.0
 12
0.0
 22
0.0
 32
0.0
 14
1.000000000000000E+20
 24
1.000000000000000E+20
 34
1.000000000000000E+20
 15
-1.000000000000000E+20
 25
-1.000000000000000E+20
 35
-1.000000000000000E+20
146
0.0
 13
0.0
 23
0.0
 33
0.0
 16
1.0
 26
0.0
 36
0.0
 17
0.0
 27
1.0
 37
0.0
 76
     0
330
1D6
  0
MATERIAL
  5
3C6E5
102
{ACAD_XDICTIONARY
360
3C6E6
102
}
102
{ACAD_REACTORS
330
3C6DC
102
}
330
3C6DC
100
AcDbMaterial
  1
ByBlock
 72
     0
 43
0.0208333333333333
 43
0.0
 43
0.0
 43
0.0
 43
0.0
 43
0.0208333333333333
 43
0.0
 43
0.0
 43
0.0
 43
0.0
 43
1.0
 43
0.0
 43
0.0
 43
0.0
 43
0.0
 43
1.0
 77
     0
 47
0.0208333333333333
 47
0.0
 47
0.0
 47
0.0
 47
0.0
 47
0.0208333333333333
 47
0.0
 47
0.0
 47
0.0
 47
0.0
 47
1.0
 47
0.0
 47
0.0
 47
0.0
 47
0.0
 47
1.0
171
     0
 49
0.0208333333333333
 49
0.0
 49
0.0
 49
0.0
 49
0.0
 49
0.0208333333333333
 49
0.0
 49
0.0
 49
0.0
 49
0.0
 49
1.0
 49
0.0
 49
0.0
 49
0.0
 49
0.0
 49
1.0
175
     0
142
0.0208333333333333
142
0.0
142
0.0
142
0.0
142
0.0
142
0.0208333333333333
142
0.0
142
0.0
142
0.0
142
0.0
142
1.0
142
0.0
142
0.0
142
0.0
142
0.0
142
1.0
179
     0
144
0.0208333333333333
144
0.0
144
0.0
144
0.0
144
0.0
144
0.0208333333333333
144
0.0
144
0.0
144
0.0
144
0.0
144
1.0
144
0.0
144
0.0
144
0.0
144
0.0
144
1.0
147
0.0208333333333333
147
0.0
147
0.0
147
0.0
147
0.0
147
0.0208333333333333
147
0.0
147
0.0
147
0.0
147
0.0
147
1.0
147
0.0
147
0.0
147
0.0
147
0.0
147
1.0
  0
MATERIAL
  5
3C6DD
102
{ACAD_XDICTIONARY
360
3C6DE
102
}
102
{ACAD_REACTORS
330
3C6DC
102
}
330
3C6DC
100
AcDbMaterial
  1
ByLayer
 72
     0
 43
0.0208333333333333
 43
0.0
 43
0.0
 43
0.0
 43
0.0
 43
0.0208333333333333
 43
0.0
 43
0.0
 43
0.0
 43
0.0
 43
1.0
 43
0.0
 43
0.0
 43
0.0
 43
0.0
 43
1.0
 77
     0
 47
0.0208333333333333
 47
0.0
 47
0.0
 47
0.0
 47
0.0
 47
0.0208333333333333
 47
0.0
 47
0.0
 47
0.0
 47
0.0
 47
1.0
 47
0.0
 47
0.0
 47
0.0
 47
0.0
 47
1.0
171
     0
 49
0.0208333333333333
 49
0.0
 49
0.0
 49
0.0
 49
0.0
 49
0.0208333333333333
 49
0.0
 49
0.0
 49
0.0
 49
0.0
 49
1.0
 49
0.0
 49
0.0
 49
0.0
 49
0.0
 49
1.0
175
     0
142
0.0208333333333333
142
0.0
142
0.0
142
0.0
142
0.0
142
0.0208333333333333
142
0.0
142
0.0
142
0.0
142
0.0
142
1.0
142
0.0
142
0.0
142
0.0
142
0.0
142
1.0
179
     0
144
0.0208333333333333
144
0.0
144
0.0
144
0.0
144
0.0
144
0.0208333333333333
144
0.0
144
0.0
144
0.0
144
0.0
144
1.0
144
0.0
144
0.0
144
0.0
144
0.0
144
1.0
147
0.0208333333333333
147
0.0
147
0.0
147
0.0
147
0.0
147
0.0208333333333333
147
0.0
147
0.0
147
0.0
147
0.0
147
1.0
147
0.0
147
0.0
147
0.0
147
0.0
147
1.0
  0
MATERIAL
  5
3C6ED
102
{ACAD_XDICTIONARY
360
3C6EE
102
}
102
{ACAD_REACTORS
330
3C6DC
102
}
330
3C6DC
100
AcDbMaterial
  1
Global
 72
     0
 43
0.0208333333333333
 43
0.0
 43
0.0
 43
0.0
 43
0.0
 43
0.0208333333333333
 43
0.0
 43
0.0
 43
0.0
 43
0.0
 43
1.0
 43
0.0
 43
0.0
 43
0.0
 43
0.0
 43
1.0
 77
     0
 47
0.0208333333333333
 47
0.0
 47
0.0
 47
0.0
 47
0.0
 47
0.0208333333333333
 47
0.0
 47
0.0
 47
0.0
 47
0.0
 47
1.0
 47
0.0
 47
0.0
 47
0.0
 47
0.0
 47
1.0
171
     0
 49
0.0208333333333333
 49
0.0
 49
0.0
 49
0.0
 49
0.0
 49
0.0208333333333333
 49
0.0
 49
0.0
 49
0.0
 49
0.0
 49
1.0
 49
0.0
 49
0.0
 49
0.0
 49
0.0
 49
1.0
175
     0
142
0.0208333333333333
142
0.0
142
0.0
142
0.0
142
0.0
142
0.0208333333333333
142
0.0
142
0.0
142
0.0
142
0.0
142
1.0
142
0.0
142
0.0
142
0.0
142
0.0
142
1.0
179
     0
144
0.0208333333333333
144
0.0
144
0.0
144
0.0
144
0.0
144
0.0208333333333333
144
0.0
144
0.0
144
0.0
144
0.0
144
1.0
144
0.0
144
0.0
144
0.0
144
0.0
144
1.0
147
0.0208333333333333
147
0.0
147
0.0
147
0.0
147
0.0
147
0.0208333333333333
147
0.0
147
0.0
147
0.0
147
0.0
147
1.0
147
0.0
147
0.0
147
0.0
147
0.0
147
1.0
  0
MLEADERSTYLE
  5
3C724
102
{ACAD_REACTORS
330
3C723
102
}
330
3C723
100
AcDbMLeaderStyle
170
     2
171
     1
172
     0
 90
        2
 40
0.0
 41
0.0
173
     1
 91
-1056964608
340
1D3
 92
       -2
290
     1
 42
0.09
291
     1
 43
0.36
  3
Standard
 44
0.18
300

342
1D1
174
     1
178
     6
175
     1
176
     0
 93
-1056964608
 45
0.18
292
     0
297
     0
 46
0.18
 94
-1056964608
 47
1.0
 49
1.0
140
1.0
293
     1
141
0.0
294
     1
177
     0
142
1.0
295
     0
296
     0
143
0.125
1001
ACAD_MLEADERVER
1070
     2
  0
MLINESTYLE
  5
1DC
102
{ACAD_REACTORS
330
1CF
102
}
330
1CF
100
AcDbMlineStyle
  2
STANDARD
 70
     0
  3

 62
     0
 51
90.0
 52
90.0
 71
     2
 49
0.5
 62
   256
  6
BYLAYER
 49
-0.5
 62
   256
  6
BYLAYER
  0
ACDBPLACEHOLDER
  5
3C6DB
102
{ACAD_REACTORS
330
3C6DA
102
}
330
3C6DA
  0
SCALE
  5
3C712
102
{ACAD_REACTORS
330
3C711
102
}
330
3C711
100
AcDbScale
 70
     0
300
1:1
140
1.0
141
1.0
290
     1
  0
SCALE
  5
3C713
102
{ACAD_REACTORS
330
3C711
102
}
330
3C711
100
AcDbScale
 70
     0
300
1/128" = 1'-0"
140
0.0078125
141
12.0
290
     0
  0
SCALE
  5
3C714
102
{ACAD_REACTORS
330
3C711
102
}
330
3C711
100
AcDbScale
 70
     0
300
1/64" = 1'-0"
140
0.015625
141
12.0
290
     0
  0
SCALE
  5
3C715
102
{ACAD_REACTORS
330
3C711
102
}
330
3C711
100
AcDbScale
 70
     0
300
1/32" = 1'-0"
140
0.03125
141
12.0
290
     0
  0
SCALE
  5
3C716
102
{ACAD_REACTORS
330
3C711
102
}
330
3C711
100
AcDbScale
 70
     0
300
1/16" = 1'-0"
140
0.0625
141
12.0
290
     0
  0
SCALE
  5
3C717
102
{ACAD_REACTORS
330
3C711
102
}
330
3C711
100
AcDbScale
 70
     0
300
3/32" = 1'-0"
140
0.09375
141
12.0
290
     0
  0
SCALE
  5
3C718
102
{ACAD_REACTORS
330
3C711
102
}
330
3C711
100
AcDbScale
 70
     0
300
1/8" = 1'-0"
140
0.125
141
12.0
290
     0
  0
SCALE
  5
3C719
102
{ACAD_REACTORS
330
3C711
102
}
330
3C711
100
AcDbScale
 70
     0
300
3/16" = 1'-0"
140
0.1875
141
12.0
290
     0
  0
SCALE
  5
3C71A
102
{ACAD_REACTORS
330
3C711
102
}
330
3C711
100
AcDbScale
 70
     0
300
1/4" = 1'-0"
140
0.25
141
12.0
290
     0
  0
SCALE
  5
3C71B
102
{ACAD_REACTORS
330
3C711
102
}
330
3C711
100
AcDbScale
 70
     0
300
3/8" = 1'-0"
140
0.375
141
12.0
290
     0
  0
SCALE
  5
3C71C
102
{ACAD_REACTORS
330
3C711
102
}
330
3C711
100
AcDbScale
 70
     0
300
1/2" = 1'-0"
140
0.5
141
12.0
290
     0
  0
SCALE
  5
3C71D
102
{ACAD_REACTORS
330
3C711
102
}
330
3C711
100
AcDbScale
 70
     0
300
3/4" = 1'-0"
140
0.75
141
12.0
290
     0
  0
SCALE
  5
3C71E
102
{ACAD_REACTORS
330
3C711
102
}
330
3C711
100
AcDbScale
 70
     0
300
1" = 1'-0"
140
1.0
141
12.0
290
     0
  0
SCALE
  5
3C71F
102
{ACAD_REACTORS
330
3C711
102
}
330
3C711
100
AcDbScale
 70
     0
300
1-1/2" = 1'-0"
140
1.5
141
12.0
290
     0
  0
SCALE
  5
3C720
102
{ACAD_REACTORS
330
3C711
102
}
330
3C711
100
AcDbScale
 70
     0
300
3" = 1'-0"
140
3.0
141
12.0
290
     0
  0
SCALE
  5
3C721
102
{ACAD_REACTORS
330
3C711
102
}
330
3C711
100
AcDbScale
 70
     0
300
6" = 1'-0"
140
6.0
141
12.0
290
     0
  0
SCALE
  5
3C722
102
{ACAD_REACTORS
330
3C711
102
}
330
3C711
100
AcDbScale
 70
     0
300
1'-0" = 1'-0"
140
12.0
141
12.0
290
     0
  0
ACDBSECTIONVIEWSTYLE
  5
3C726
102
{ACAD_XDICTIONARY
360
3C807
102
}
102
{ACAD_REACTORS
330
3C725
330
3C78B
102
}
330
3C725
100
AcDbModelDocViewStyle
 70
     0
  3
Imperial24
290
     0
100
AcDbSectionViewStyle
 70
     0
 71
     0
 90
       78
 71
     1
340
1D1
 62
   256
 40
0.24
340
0
340
0
 62
   256
 40
0.24
300
I, O, Q, S, X, Z
 40
0.48
 90
        3
 40
0.18
 90
        1
 71
     2
340
1D5
 90
       25
 62
   256
340
1D5
 90
       50
 62
   256
 40
0.24
 40
0.0
 40
0.24
 71
     3
340
1D1
 62
   256
 40
0.24
 90
        1
 40
0.75
 90
        1
300
%<\AcVar ViewType \f "%tc1">% %<\AcVar ViewSectionStartId>%-%<\AcVar ViewSectionEndId>%\PSCALE %<\AcVar ViewScale \f "%sn">%
 71
     4
 62
   256
 62
   257
300
ANSI31
 40
1.0
 90
        0
290
     0
290
     0
 90
        6
 40
0.0
 40
1.570796326794896
 40
0.2617993877991494
 40
1.308996938995747
 40
-0.2617993877991494
 40
1.832595714594046
  0
TABLESTYLE
  5
3C710
102
{ACAD_XDICTIONARY
360
3C7D3
102
}
102
{ACAD_REACTORS
330
3C70F
102
}
330
3C70F
100
AcDbTableStyle
  3
Standard
 70
     0
 71
     0
 40
0.06
 41
0.06
280
     0
281
     0
  7
STANDARD
140
0.18
170
     2
 62
     0
 63
     7
283
     0
 90
      512
 91
        0
  1

274
    -2
284
     1
 64
     0
275
    -2
285
     1
 65
     0
276
    -2
286
     1
 66
     0
277
    -2
287
     1
 67
     0
278
    -2
288
     1
 68
     0
279
    -2
289
     1
 69
     0
  7
STANDARD
140
0.25
170
     5
 62
     0
 63
     7
283
     0
 90
      512
 91
        0
  1

274
    -2
284
     1
 64
     0
275
    -2
285
     1
 65
     0
276
    -2
286
     1
 66
     0
277
    -2
287
     1
 67
     0
278
    -2
288
     1
 68
     0
279
    -2
289
     1
 69
     0
  7
STANDARD
140
0.18
170
     5
 62
     0
 63
     7
283
     0
 90
      512
 91
        0
  1

274
    -2
284
     1
 64
     0
275
    -2
285
     1
 65
     0
276
    -2
286
     1
 66
     0
277
    -2
287
     1
 67
     0
278
    -2
288
     1
 68
     0
279
    -2
289
     1
 69
     0
  0
VISUALSTYLE
  5
3C6FB
102
{ACAD_XDICTIONARY
360
3C7E0
102
}
102
{ACAD_REACTORS
330
3C6F5
102
}
330
3C6F5
100
AcDbVisualStyle
  2
2dWireframe
 70
     4
 71
     0
 72
     2
 73
     0
 90
        0
 40
-0.6
 41
-30.0
 62
     5
 63
     7
421
 16777215
 74
     1
 91
        4
 64
     7
 65
   257
 75
     1
175
     1
 42
1.0
 92
        0
 66
   257
 43
1.0
 76
     1
 77
     6
 78
     2
 67
     7
 79
     5
170
     0
171
     0
290
     0
174
     0
 93
        1
 44
0.0
173
     0
291
     0
 45
0.0
1001
ACAD
1000
AcDbSavedByObjectVersion
1070
     0
  0
VISUALSTYLE
  5
3C6FA
102
{ACAD_XDICTIONARY
360
3C7DE
102
}
102
{ACAD_REACTORS
330
3C6F5
102
}
330
3C6F5
100
AcDbVisualStyle
  2
Basic
 70
     7
 71
     1
 72
     0
 73
     1
 90
        0
 40
-0.6
 41
-30.0
 62
     5
 63
     7
421
 16777215
 74
     0
 91
        4
 64
     7
 65
   257
 75
     1
175
     1
 42
1.0
 92
        8
 66
     7
 43
1.0
 76
     1
 77
     6
 78
     2
 67
     7
 79
     5
170
     0
171
     0
290
     0
174
     0
 93
        1
 44
0.0
173
     0
291
     1
 45
0.0
1001
ACAD
1000
AcDbSavedByObjectVersion
1070
     0
  0
VISUALSTYLE
  5
3C701
102
{ACAD_XDICTIONARY
360
3C7EC
102
}
102
{ACAD_REACTORS
330
3C6F5
102
}
330
3C6F5
100
AcDbVisualStyle
  2
Brighten
 70
    12
 71
     2
 72
     2
 73
     0
 90
        0
 40
-0.6
 41
-30.0
 62
     5
 63
     7
421
 16777215
 74
     1
 91
        4
 64
     7
 65
   257
 75
     1
175
     1
 42
1.0
 92
        8
 66
     7
 43
1.0
 76
     1
 77
     6
 78
     2
 67
     7
 79
     5
170
     0
171
     0
290
     0
174
     0
 93
        1
 44
50.0
173
     0
291
     1
 45
0.0
1001
ACAD
1000
AcDbSavedByObjectVersion
1070
     0
  0
VISUALSTYLE
  5
3C705
102
{ACAD_XDICTIONARY
360
3C7F4
102
}
102
{ACAD_REACTORS
330
3C6F5
102
}
330
3C6F5
100
AcDbVisualStyle
  2
ColorChange
 70
    16
 71
     2
 72
     2
 73
     3
 90
        0
 40
-0.6
 41
-30.0
 62
     5
 63
     8
421
  8421504
 74
     1
 91
        4
 64
     7
 65
   257
 75
     1
175
     1
 42
1.0
 92
        8
 66
     8
424
  8421504
 43
1.0
 76
     1
 77
     6
 78
     2
 67
     7
 79
     5
170
     0
171
     0
290
     0
174
     0
 93
        1
 44
0.0
173
     0
291
     1
 45
0.0
1001
ACAD
1000
AcDbSavedByObjectVersion
1070
     0
  0
VISUALSTYLE
  5
3C6FE
102
{ACAD_XDICTIONARY
360
3C7E6
102
}
102
{ACAD_REACTORS
330
3C6F5
102
}
330
3C6F5
100
AcDbVisualStyle
  2
Conceptual
 70
     9
 71
     3
 72
     2
 73
     0
 90
        0
 40
-0.6
 41
-30.0
 62
     5
 63
     7
421
 16777215
 74
     2
 91
        2
 64
     7
 65
   257
 75
     1
175
     1
 42
179.0
 92
        8
 66
     7
 43
1.0
 76
     1
 77
     6
 78
     2
 67
     7
 79
     3
170
     0
171
     0
290
     0
174
     0
 93
        1
 44
0.0
173
     0
291
     0
 45
0.0
1001
ACAD
1000
AcDbSavedByObjectVersion
1070
     0
  0
VISUALSTYLE
  5
3C700
102
{ACAD_XDICTIONARY
360
3C7EA
102
}
102
{ACAD_REACTORS
330
3C6F5
102
}
330
3C6F5
100
AcDbVisualStyle
  2
Dim
 70
    11
 71
     2
 72
     2
 73
     0
 90
        0
 40
-0.6
 41
-30.0
 62
     5
 63
     7
421
 16777215
 74
     1
 91
        4
 64
     7
 65
   257
 75
     1
175
     1
 42
1.0
 92
        8
 66
     7
 43
1.0
 76
     1
 77
     6
 78
     2
 67
     7
 79
     5
170
     0
171
     0
290
     0
174
     0
 93
        1
 44
-50.0
173
     0
291
     1
 45
0.0
1001
ACAD
1000
AcDbSavedByObjectVersion
1070
     0
  0
VISUALSTYLE
  5
3C70D
102
{ACAD_XDICTIONARY
360
3C804
102
}
102
{ACAD_REACTORS
330
3C6F5
102
}
330
3C6F5
100
AcDbVisualStyle
  2
EdgeColorOff
 70
    22
 71
     2
 72
     2
 73
     0
 90
        0
 40
-0.6
 41
-30.0
 62
     5
 63
     7
421
 16777215
 74
     1
 91
        4
 64
     7
 65
   257
 75
     1
175
     1
 42
1.0
 92
        8
 66
     7
 43
1.0
 76
     1
 77
     6
 78
     2
 67
     7
 79
     5
170
     0
171
     0
290
     0
174
     0
 93
        1
 44
0.0
173
     0
291
     1
 45
0.0
1001
ACAD
1000
AcDbSavedByObjectVersion
1070
     0
  0
VISUALSTYLE
  5
3C704
102
{ACAD_XDICTIONARY
360
3C7F2
102
}
102
{ACAD_REACTORS
330
3C6F5
102
}
330
3C6F5
100
AcDbVisualStyle
  2
Facepattern
 70
    15
 71
     2
 72
     2
 73
     0
 90
        0
 40
-0.6
 41
-30.0
 62
     5
 63
     7
421
 16777215
 74
     1
 91
        4
 64
     7
 65
   257
 75
     1
175
     1
 42
1.0
 92
        8
 66
     7
 43
1.0
 76
     1
 77
     6
 78
     2
 67
     7
 79
     5
170
     0
171
     0
290
     0
174
     0
 93
        1
 44
0.0
173
     0
291
     1
 45
0.0
1001
ACAD
1000
AcDbSavedByObjectVersion
1070
     0
  0
VISUALSTYLE
  5
3C6F6
102
{ACAD_XDICTIONARY
360
3C7D6
102
}
102
{ACAD_REACTORS
330
3C6F5
102
}
330
3C6F5
100
AcDbVisualStyle
  2
Flat
 70
     0
 71
     2
 72
     1
 73
     1
 90
        2
 40
-0.6
 41
30.0
 62
     5
 63
     7
421
 16777215
 74
     0
 91
        0
 64
     7
 65
   257
 75
     1
175
     1
 42
1.0
 92
        8
 66
     7
 43
1.0
 76
     1
 77
     6
 78
     2
 67
     7
 79
     5
170
     0
171
     0
290
     0
174
     0
 93
       13
 44
0.0
173
     0
291
     1
 45
0.0
1001
ACAD
1000
AcDbSavedByObjectVersion
1070
     0
  0
VISUALSTYLE
  5
3C6F7
102
{ACAD_XDICTIONARY
360
3C7D8
102
}
102
{ACAD_REACTORS
330
3C6F5
102
}
330
3C6F5
100
AcDbVisualStyle
  2
FlatWithEdges
 70
     1
 71
     2
 72
     1
 73
     1
 90
        2
 40
-0.6
 41
30.0
 62
     5
 63
     7
421
 16777215
 74
     1
 91
        0
 64
     7
 65
   257
 75
     1
175
     1
 42
1.0
 92
        0
 66
   257
 43
1.0
 76
     1
 77
     6
 78
     2
 67
     7
 79
     5
170
     0
171
     0
290
     0
174
     0
 93
       13
 44
0.0
173
     0
291
     1
 45
0.0
1001
ACAD
1000
AcDbSavedByObjectVersion
1070
     0
  0
VISUALSTYLE
  5
3C6F8
102
{ACAD_XDICTIONARY
360
3C7DA
102
}
102
{ACAD_REACTORS
330
3C6F5
102
}
330
3C6F5
100
AcDbVisualStyle
  2
Gouraud
 70
     2
 71
     2
 72
     2
 73
     1
 90
        2
 40
-0.6
 41
30.0
 62
     5
 63
     7
421
 16777215
 74
     0
 91
        0
 64
     7
 65
   257
 75
     1
175
     1
 42
1.0
 92
        0
 66
     7
 43
1.0
 76
     1
 77
     6
 78
     2
 67
     7
 79
     5
170
     0
171
     0
290
     0
174
     0
 93
       13
 44
0.0
173
     0
291
     1
 45
0.0
1001
ACAD
1000
AcDbSavedByObjectVersion
1070
     0
  0
VISUALSTYLE
  5
3C6F9
102
{ACAD_XDICTIONARY
360
3C7DC
102
}
102
{ACAD_REACTORS
330
3C6F5
102
}
330
3C6F5
100
AcDbVisualStyle
  2
GouraudWithEdges
 70
     3
 71
     2
 72
     2
 73
     1
 90
        2
 40
-0.6
 41
30.0
 62
     5
 63
     7
421
 16777215
 74
     1
 91
        0
 64
     7
 65
   257
 75
     1
175
     1
 42
1.0
 92
        0
 66
   257
 43
1.0
 76
     1
 77
     6
 78
     2
 67
     7
 79
     5
170
     0
171
     0
290
     0
174
     0
 93
       13
 44
0.0
173
     0
291
     1
 45
0.0
1001
ACAD
1000
AcDbSavedByObjectVersion
1070
     0
  0
VISUALSTYLE
  5
3C6FD
102
{ACAD_XDICTIONARY
360
3C7E4
102
}
102
{ACAD_REACTORS
330
3C6F5
102
}
330
3C6F5
100
AcDbVisualStyle
  2
Hidden
 70
     6
 71
     1
 72
     2
 73
     2
 90
        0
 40
-0.6
 41
-30.0
 62
     5
 63
     7
421
 16777215
 74
     2
 91
        2
 64
     7
 65
   257
 75
     2
175
     1
 42
40.0
 92
        0
 66
   257
 43
1.0
 76
     1
 77
     6
 78
     2
 67
     7
 79
     3
170
     0
171
     0
290
     0
174
     0
 93
        1
 44
0.0
173
     0
291
     0
 45
0.0
1001
ACAD
1000
AcDbSavedByObjectVersion
1070
     0
  0
VISUALSTYLE
  5
3C70B
102
{ACAD_XDICTIONARY
360
3C800
102
}
102
{ACAD_REACTORS
330
3C6F5
102
}
330
3C6F5
100
AcDbVisualStyle
  2
JitterOff
 70
    20
 71
     2
 72
     2
 73
     0
 90
        0
 40
-0.6
 41
-30.0
 62
     5
 63
     7
421
 16777215
 74
     1
 91
        4
 64
     7
 65
   257
 75
     1
175
     1
 42
1.0
 92
       10
 66
     7
 43
1.0
 76
     1
 77
     6
 78
     2
 67
     7
 79
     5
170
     0
171
     0
290
     0
174
     0
 93
        1
 44
0.0
173
     0
291
     1
 45
0.0
1001
ACAD
1000
AcDbSavedByObjectVersion
1070
     0
  0
VISUALSTYLE
  5
3C703
102
{ACAD_XDICTIONARY
360
3C7F0
102
}
102
{ACAD_REACTORS
330
3C6F5
102
}
330
3C6F5
100
AcDbVisualStyle
  2
Linepattern
 70
    14
 71
     2
 72
     2
 73
     0
 90
        0
 40
-0.6
 41
-30.0
 62
     5
 63
     7
421
 16777215
 74
     1
 91
        4
 64
     7
 65
   257
 75
     7
175
     7
 42
1.0
 92
        8
 66
     7
 43
1.0
 76
     1
 77
     6
 78
     2
 67
     7
 79
     5
170
     0
171
     0
290
     0
174
     0
 93
        1
 44
0.0
173
     0
291
     1
 45
0.0
1001
ACAD
1000
AcDbSavedByObjectVersion
1070
     0
  0
VISUALSTYLE
  5
3C70C
102
{ACAD_XDICTIONARY
360
3C802
102
}
102
{ACAD_REACTORS
330
3C6F5
102
}
330
3C6F5
100
AcDbVisualStyle
  2
OverhangOff
 70
    21
 71
     2
 72
     2
 73
     0
 90
        0
 40
-0.6
 41
-30.0
 62
     5
 63
     7
421
 16777215
 74
     1
 91
        4
 64
     7
 65
   257
 75
     1
175
     1
 42
1.0
 92
        9
 66
     7
 43
1.0
 76
     1
 77
     6
 78
     2
 67
     7
 79
     5
170
     0
171
     0
290
     0
174
     0
 93
        1
 44
0.0
173
     0
291
     1
 45
0.0
1001
ACAD
1000
AcDbSavedByObjectVersion
1070
     0
  0
VISUALSTYLE
  5
3C6FF
102
{ACAD_XDICTIONARY
360
3C7E8
102
}
102
{ACAD_REACTORS
330
3C6F5
102
}
330
3C6F5
100
AcDbVisualStyle
  2
Realistic
 70
     8
 71
     2
 72
     3
 73
     0
 90
        2
 40
-0.6
 41
30.0
 62
     5
 63
     7
421
 16777215
 74
     0
 91
        0
 64
     7
 65
   257
 75
     1
175
     1
 42
1.0
 92
        8
 66
   257
 43
1.0
 76
     1
 77
     6
 78
     2
 67
     7
 79
     3
170
     0
171
     0
290
     0
174
     0
 93
       13
 44
0.0
173
     0
291
     0
 45
0.0
1001
ACAD
1000
AcDbSavedByObjectVersion
1070
     0
  0
VISUALSTYLE
  5
3C70A
102
{ACAD_XDICTIONARY
360
3C7FE
102
}
102
{ACAD_REACTORS
330
3C6F5
102
}
330
3C6F5
100
AcDbVisualStyle
  2
Shaded
 70
    27
 71
     2
 72
     2
 73
     1
 90
        2
 40
-0.6
 41
30.0
 62
     5
 63
     7
421
 16777215
 74
     0
 91
        4
 64
     7
 65
   257
 75
     1
175
     1
 42
1.0
 92
        8
 66
   257
 43
1.0
 76
     1
 77
     6
 78
     2
 67
     8
425
  7895160
 79
     3
170
     0
171
     0
290
     0
174
     0
 93
        5
 44
0.0
173
     0
291
     0
 45
0.0
1001
ACAD
1000
AcDbSavedByObjectVersion
1070
     0
  0
VISUALSTYLE
  5
3C709
102
{ACAD_XDICTIONARY
360
3C7FC
102
}
102
{ACAD_REACTORS
330
3C6F5
102
}
330
3C6F5
100
AcDbVisualStyle
  2
Shaded with edges
 70
    26
 71
     2
 72
     2
 73
     1
 90
        2
 40
-0.6
 41
30.0
 62
     5
 63
     7
421
 16777215
 74
     1
 91
        2
 64
     7
 65
   257
 75
     2
175
     1
 42
1.0
 92
        8
 66
   257
 43
1.0
 76
     1
 77
     6
 78
     2
 67
     7
 79
     3
170
     0
171
     0
290
     0
174
     0
 93
        5
 44
0.0
173
     0
291
     0
 45
0.0
1001
ACAD
1000
AcDbSavedByObjectVersion
1070
     0
  0
VISUALSTYLE
  5
3C706
102
{ACAD_XDICTIONARY
360
3C7F6
102
}
102
{ACAD_REACTORS
330
3C6F5
102
}
330
3C6F5
100
AcDbVisualStyle
  2
Shades of Gray
 70
    23
 71
     2
 72
     2
 73
     3
 90
        0
 40
-0.6
 41
-30.0
 62
     5
 63
     7
421
 16777215
 74
     2
 91
        2
 64
     7
 65
     7
 75
     1
175
     1
 42
40.0
 92
        8
 66
     7
 43
1.0
 76
     1
 77
     6
 78
     2
 67
     7
 79
     3
170
     0
171
     0
290
     0
174
     0
 93
        1
 44
0.0
173
     0
291
     0
 45
0.0
1001
ACAD
1000
AcDbSavedByObjectVersion
1070
     0
  0
VISUALSTYLE
  5
3C707
102
{ACAD_XDICTIONARY
360
3C7F8
102
}
102
{ACAD_REACTORS
330
3C6F5
102
}
330
3C6F5
100
AcDbVisualStyle
  2
Sketchy
 70
    24
 71
     1
 72
     2
 73
     2
 90
        0
 40
-0.6
 41
-30.0
 62
     5
 63
     7
421
 16777215
 74
     2
 91
        2
 64
     7
 65
     7
 75
     1
175
     1
 42
40.0
 92
       11
 66
     7
 43
1.0
 76
     1
 77
     6
 78
     2
 67
     7
 79
     6
170
     0
171
     0
290
     0
174
     0
 93
        1
 44
0.0
173
     0
291
     0
 45
0.0
1001
ACAD
1000
AcDbSavedByObjectVersion
1070
     0
  0
VISUALSTYLE
  5
3C702
102
{ACAD_XDICTIONARY
360
3C7EE
102
}
102
{ACAD_REACTORS
330
3C6F5
102
}
330
3C6F5
100
AcDbVisualStyle
  2
Thicken
 70
    13
 71
     2
 72
     2
 73
     0
 90
        0
 40
-0.6
 41
-30.0
 62
     5
 63
     7
421
 16777215
 74
     1
 91
        4
 64
     7
 65
   257
 75
     1
175
     1
 42
1.0
 92
       12
 66
     7
 43
1.0
 76
     1
 77
     6
 78
     2
 67
     7
 79
     5
170
     0
171
     0
290
     0
174
     0
 93
        1
 44
0.0
173
     0
291
     1
 45
0.0
1001
ACAD
1000
AcDbSavedByObjectVersion
1070
     0
  0
VISUALSTYLE
  5
3C6FC
102
{ACAD_XDICTIONARY
360
3C7E2
102
}
102
{ACAD_REACTORS
330
3C6F5
102
}
330
3C6F5
100
AcDbVisualStyle
  2
Wireframe
 70
     5
 71
     0
 72
     2
 73
     0
 90
        0
 40
-0.6
 41
-30.0
 62
     5
 63
     7
421
 16777215
 74
     1
 91
        4
 64
     7
 65
   257
 75
     1
175
     1
 42
1.0
 92
        0
 66
   257
 43
1.0
 76
     1
 77
     6
 78
     2
 67
     7
 79
     3
170
     0
171
     0
290
     0
174
     0
 93
        1
 44
0.0
173
     0
291
     0
 45
0.0
1001
ACAD
1000
AcDbSavedByObjectVersion
1070
     0
  0
VISUALSTYLE
  5
3C708
102
{ACAD_XDICTIONARY
360
3C7FA
102
}
102
{ACAD_REACTORS
330
3C6F5
102
}
330
3C6F5
100
AcDbVisualStyle
  2
X-Ray
 70
    25
 71
     2
 72
     2
 73
     1
 90
        1
 40
0.5
 41
-30.0
 62
     5
 63
     7
421
 16777215
 74
     1
 91
        0
 64
     7
 65
   257
 75
     1
175
     1
 42
1.0
 92
        8
 66
     7
 43
1.0
 76
     1
 77
     6
 78
     2
 67
     7
 79
     3
170
     0
171
     0
290
     0
174
     0
 93
       13
 44
0.0
173
     0
291
     0
 45
0.0
1001
ACAD
1000
AcDbSavedByObjectVersion
1070
     0
  0
DICTIONARYVAR
  5
3C7CE
102
{ACAD_REACTORS
330
3C7C8
102
}
330
3C7C8
100
DictionaryVariables
280
     0
  1
1:1
  0
DICTIONARYVAR
  5
3C7CA
102
{ACAD_REACTORS
330
3C7C8
102
}
330
3C7C8
100
DictionaryVariables
280
     0
  1
STANDARD
  0
DICTIONARYVAR
  5
3C7C9
102
{ACAD_REACTORS
330
3C7C8
102
}
330
3C7C8
100
DictionaryVariables
280
     0
  1
STANDARD
  0
DICTIONARYVAR
  5
3C7CB
102
{ACAD_REACTORS
330
3C7C8
102
}
330
3C7C8
100
DictionaryVariables
280
     0
  1
Imperial24
  0
DICTIONARYVAR
  5
3C7CC
102
{ACAD_REACTORS
330
3C7C8
102
}
330
3C7C8
100
DictionaryVariables
280
     0
  1
Imperial24
  0
DICTIONARYVAR
  5
3C7D0
102
{ACAD_REACTORS
330
3C7C8
102
}
330
3C7C8
100
DictionaryVariables
280
     0
  1
1
  0
DICTIONARYVAR
  5
3C7D1
102
{ACAD_REACTORS
330
3C7C8
102
}
330
3C7C8
100
DictionaryVariables
280
     0
  1
15
  0
DICTIONARYVAR
  5
3C7CF
102
{ACAD_REACTORS
330
3C7C8
102
}
330
3C7C8
100
DictionaryVariables
280
     0
  1
0
  0
DICTIONARYVAR
  5
3C7CD
102
{ACAD_REACTORS
330
3C7C8
102
}
330
3C7C8
100
DictionaryVariables
280
     0
  1
0
  0
DICTIONARYVAR
  5
3C7D2
102
{ACAD_REACTORS
330
3C7C8
102
}
330
3C7C8
100
DictionaryVariables
280
     0
  1
2
  0
DICTIONARY
  5
3C75F
102
{ACAD_REACTORS
330
3C758
102
}
330
3C758
100
AcDbDictionary
281
     1
  0
DICTIONARY
  5
3C809
330
3C728
100
AcDbDictionary
280
     1
281
     1
  3
ACAD_XREC_ROUNDTRIP
360
3C80A
  0
DICTIONARY
  5
3C6E6
330
3C6E5
100
AcDbDictionary
280
     1
281
     1
  3
BUMPTILE
360
3C6E8
  3
DIFFUSETILE
360
3C6E7
  3
OPACITYTILE
360
3C6EB
  3
REFLECTIONTILE
360
3C6EA
  3
REFRACTIONTILE
360
3C6EC
  3
SPECULARTILE
360
3C6E9
  0
DICTIONARY
  5
3C6DE
330
3C6DD
100
AcDbDictionary
280
     1
281
     1
  3
BUMPTILE
360
3C6E0
  3
DIFFUSETILE
360
3C6DF
  3
OPACITYTILE
360
3C6E3
  3
REFLECTIONTILE
360
3C6E2
  3
REFRACTIONTILE
360
3C6E4
  3
SPECULARTILE
360
3C6E1
  0
DICTIONARY
  5
3C6EE
330
3C6ED
100
AcDbDictionary
280
     1
281
     1
  3
BUMPTILE
360
3C6F0
  3
DIFFUSETILE
360
3C6EF
  3
OPACITYTILE
360
3C6F3
  3
REFLECTIONTILE
360
3C6F2
  3
REFRACTIONTILE
360
3C6F4
  3
SPECULARTILE
360
3C6F1
  0
DICTIONARY
  5
3C807
330
3C726
100
AcDbDictionary
280
     1
281
     1
  3
ACAD_XREC_ROUNDTRIP
360
3C808
  0
DICTIONARY
  5
3C7D3
330
3C710
100
AcDbDictionary
280
     1
281
     1
  3
ACAD_ROUNDTRIP_2008_TABLESTYLE_CELLSTYLEMAP
360
3C7D4
  0
DICTIONARY
  5
3C7E0
330
3C6FB
100
AcDbDictionary
280
     1
281
     1
  3
ACAD_XREC_ROUNDTRIP
360
3C7E1
  0
DICTIONARY
  5
3C7DE
330
3C6FA
100
AcDbDictionary
280
     1
281
     1
  3
ACAD_XREC_ROUNDTRIP
360
3C7DF
  0
DICTIONARY
  5
3C7EC
330
3C701
100
AcDbDictionary
280
     1
281
     1
  3
ACAD_XREC_ROUNDTRIP
360
3C7ED
  0
DICTIONARY
  5
3C7F4
330
3C705
100
AcDbDictionary
280
     1
281
     1
  3
ACAD_XREC_ROUNDTRIP
360
3C7F5
  0
DICTIONARY
  5
3C7E6
330
3C6FE
100
AcDbDictionary
280
     1
281
     1
  3
ACAD_XREC_ROUNDTRIP
360
3C7E7
  0
DICTIONARY
  5
3C7EA
330
3C700
100
AcDbDictionary
280
     1
281
     1
  3
ACAD_XREC_ROUNDTRIP
360
3C7EB
  0
DICTIONARY
  5
3C804
330
3C70D
100
AcDbDictionary
280
     1
281
     1
  3
ACAD_XREC_ROUNDTRIP
360
3C805
  0
DICTIONARY
  5
3C7F2
330
3C704
100
AcDbDictionary
280
     1
281
     1
  3
ACAD_XREC_ROUNDTRIP
360
3C7F3
  0
DICTIONARY
  5
3C7D6
330
3C6F6
100
AcDbDictionary
280
     1
281
     1
  3
ACAD_XREC_ROUNDTRIP
360
3C7D7
  0
DICTIONARY
  5
3C7D8
330
3C6F7
100
AcDbDictionary
280
     1
281
     1
  3
ACAD_XREC_ROUNDTRIP
360
3C7D9
  0
DICTIONARY
  5
3C7DA
330
3C6F8
100
AcDbDictionary
280
     1
281
     1
  3
ACAD_XREC_ROUNDTRIP
360
3C7DB
  0
DICTIONARY
  5
3C7DC
330
3C6F9
100
AcDbDictionary
280
     1
281
     1
  3
ACAD_XREC_ROUNDTRIP
360
3C7DD
  0
DICTIONARY
  5
3C7E4
330
3C6FD
100
AcDbDictionary
280
     1
281
     1
  3
ACAD_XREC_ROUNDTRIP
360
3C7E5
  0
DICTIONARY
  5
3C800
330
3C70B
100
AcDbDictionary
280
     1
281
     1
  3
ACAD_XREC_ROUNDTRIP
360
3C801
  0
DICTIONARY
  5
3C7F0
330
3C703
100
AcDbDictionary
280
     1
281
     1
  3
ACAD_XREC_ROUNDTRIP
360
3C7F1
  0
DICTIONARY
  5
3C802
330
3C70C
100
AcDbDictionary
280
     1
281
     1
  3
ACAD_XREC_ROUNDTRIP
360
3C803
  0
DICTIONARY
  5
3C7E8
330
3C6FF
100
AcDbDictionary
280
     1
281
     1
  3
ACAD_XREC_ROUNDTRIP
360
3C7E9
  0
DICTIONARY
  5
3C7FE
330
3C70A
100
AcDbDictionary
280
     1
281
     1
  3
ACAD_XREC_ROUNDTRIP
360
3C7FF
  0
DICTIONARY
  5
3C7FC
330
3C709
100
AcDbDictionary
280
     1
281
     1
  3
ACAD_XREC_ROUNDTRIP
360
3C7FD
  0
DICTIONARY
  5
3C7F6
330
3C706
100
AcDbDictionary
280
     1
281
     1
  3
ACAD_XREC_ROUNDTRIP
360
3C7F7
  0
DICTIONARY
  5
3C7F8
330
3C707
100
AcDbDictionary
280
     1
281
     1
  3
ACAD_XREC_ROUNDTRIP
360
3C7F9
  0
DICTIONARY
  5
3C7EE
330
3C702
100
AcDbDictionary
280
     1
281
     1
  3
ACAD_XREC_ROUNDTRIP
360
3C7EF
  0
DICTIONARY
  5
3C7E2
330
3C6FC
100
AcDbDictionary
280
     1
281
     1
  3
ACAD_XREC_ROUNDTRIP
360
3C7E3
  0
DICTIONARY
  5
3C7FA
330
3C708
100
AcDbDictionary
280
     1
281
     1
  3
ACAD_XREC_ROUNDTRIP
360
3C7FB
  0
XRECORD
  5
3C80A
102
{ACAD_REACTORS
330
3C809
102
}
330
3C809
100
AcDbXrecord
280
     1
102
DISPLAYNAME
  1
Imperial24
102
FLAGS
 90
        0
  0
XRECORD
  5
3C6E8
102
{ACAD_REACTORS
330
3C6E6
102
}
330
3C6E6
100
AcDbXrecord
280
     1
270
     1
271
     1
  0
XRECORD
  5
3C6E7
102
{ACAD_REACTORS
330
3C6E6
102
}
330
3C6E6
100
AcDbXrecord
280
     1
270
     1
271
     1
  0
XRECORD
  5
3C6EB
102
{ACAD_REACTORS
330
3C6E6
102
}
330
3C6E6
100
AcDbXrecord
280
     1
270
     1
271
     1
  0
XRECORD
  5
3C6EA
102
{ACAD_REACTORS
330
3C6E6
102
}
330
3C6E6
100
AcDbXrecord
280
     1
270
     1
271
     1
  0
XRECORD
  5
3C6EC
102
{ACAD_REACTORS
330
3C6E6
102
}
330
3C6E6
100
AcDbXrecord
280
     1
270
     1
271
     1
  0
XRECORD
  5
3C6E9
102
{ACAD_REACTORS
330
3C6E6
102
}
330
3C6E6
100
AcDbXrecord
280
     1
270
     1
271
     1
  0
XRECORD
  5
3C6E0
102
{ACAD_REACTORS
330
3C6DE
102
}
330
3C6DE
100
AcDbXrecord
280
     1
270
     1
271
     1
  0
XRECORD
  5
3C6DF
102
{ACAD_REACTORS
330
3C6DE
102
}
330
3C6DE
100
AcDbXrecord
280
     1
270
     1
271
     1
  0
XRECORD
  5
3C6E3
102
{ACAD_REACTORS
330
3C6DE
102
}
330
3C6DE
100
AcDbXrecord
280
     1
270
     1
271
     1
  0
XRECORD
  5
3C6E2
102
{ACAD_REACTORS
330
3C6DE
102
}
330
3C6DE
100
AcDbXrecord
280
     1
270
     1
271
     1
  0
XRECORD
  5
3C6E4
102
{ACAD_REACTORS
330
3C6DE
102
}
330
3C6DE
100
AcDbXrecord
280
     1
270
     1
271
     1
  0
XRECORD
  5
3C6E1
102
{ACAD_REACTORS
330
3C6DE
102
}
330
3C6DE
100
AcDbXrecord
280
     1
270
     1
271
     1
  0
XRECORD
  5
3C6F0
102
{ACAD_REACTORS
330
3C6EE
102
}
330
3C6EE
100
AcDbXrecord
280
     1
270
     1
271
     1
  0
XRECORD
  5
3C6EF
102
{ACAD_REACTORS
330
3C6EE
102
}
330
3C6EE
100
AcDbXrecord
280
     1
270
     1
271
     1
  0
XRECORD
  5
3C6F3
102
{ACAD_REACTORS
330
3C6EE
102
}
330
3C6EE
100
AcDbXrecord
280
     1
270
     1
271
     1
  0
XRECORD
  5
3C6F2
102
{ACAD_REACTORS
330
3C6EE
102
}
330
3C6EE
100
AcDbXrecord
280
     1
270
     1
271
     1
  0
XRECORD
  5
3C6F4
102
{ACAD_REACTORS
330
3C6EE
102
}
330
3C6EE
100
AcDbXrecord
280
     1
270
     1
271
     1
  0
XRECORD
  5
3C6F1
102
{ACAD_REACTORS
330
3C6EE
102
}
330
3C6EE
100
AcDbXrecord
280
     1
270
     1
271
     1
  0
XRECORD
  5
3C808
102
{ACAD_REACTORS
330
3C807
102
}
330
3C807
100
AcDbXrecord
280
     1
102
DISPLAYNAME
  1
Imperial24
102
FLAGS
 90
        0
  0
CELLSTYLEMAP
  5
3C7D4
102
{ACAD_REACTORS
330
3C7D3
102
}
330
3C7D3
100
AcDbCellStyleMap
 90
        3
300
CELLSTYLE
  1
TABLEFORMAT_BEGIN
 90
        5
170
     1
 91
        0
 92
    32768
 62
   257
 93
        1
300
CONTENTFORMAT
  1
CONTENTFORMAT_BEGIN
 90
        0
 91
        0
 92
      512
 93
        0
300

 40
0.0
140
1.0
 94
        5
 62
     0
340
1D1
144
0.25
309
CONTENTFORMAT_END
171
     0
 94
        0
309
TABLEFORMAT_END
  1
CELLSTYLE_BEGIN
 90
        1
 91
        1
300
_TITLE
309
CELLSTYLE_END
300
CELLSTYLE
  1
TABLEFORMAT_BEGIN
 90
        5
170
     1
 91
        0
 92
        0
 62
   257
 93
        1
300
CONTENTFORMAT
  1
CONTENTFORMAT_BEGIN
 90
        0
 91
        0
 92
      512
 93
        0
300

 40
0.0
140
1.0
 94
        5
 62
     0
340
1D1
144
0.18
309
CONTENTFORMAT_END
171
     0
 94
        0
309
TABLEFORMAT_END
  1
CELLSTYLE_BEGIN
 90
        2
 91
        1
300
_HEADER
309
CELLSTYLE_END
300
CELLSTYLE
  1
TABLEFORMAT_BEGIN
 90
        5
170
     1
 91
        0
 92
        0
 62
   257
 93
        1
300
CONTENTFORMAT
  1
CONTENTFORMAT_BEGIN
 90
        0
 91
        0
 92
      512
 93
        0
300

 40
0.0
140
1.0
 94
        2
 62
     0
340
1D1
144
0.18
309
CONTENTFORMAT_END
171
     0
 94
        0
309
TABLEFORMAT_END
  1
CELLSTYLE_BEGIN
 90
        3
 91
        2
300
_DATA
309
CELLSTYLE_END
  0
XRECORD
  5
3C7E1
102
{ACAD_REACTORS
330
3C7E0
102
}
330
3C7E0
100
AcDbXrecord
280
     1
102
RTVSPost2010Prop28
280
     1
102
RTVSPost2010PropOp28
 70
     1
102
RTVSPost2010Prop29
280
     1
102
RTVSPost2010PropOp29
 70
     1
102
RTVSPost2010Prop30
280
     0
102
RTVSPost2010PropOp30
 70
     1
102
RTVSPost2010Prop31
280
     0
102
RTVSPost2010PropOp31
 70
     1
102
RTVSPost2010Prop32
280
     0
102
RTVSPost2010PropOp32
 70
     1
102
RTVSPost2010Prop33
280
     0
102
RTVSPost2010PropOp33
 70
     1
102
RTVSPost2010Prop34
280
     0
102
RTVSPost2010PropOp34
 70
     1
102
RTVSPost2010Prop35
280
     0
102
RTVSPost2010PropOp35
 70
     1
102
RTVSPost2010Prop36
280
     0
102
RTVSPost2010PropOp36
 70
     1
102
RTVSPost2010Prop37
 90
       50
102
RTVSPost2010PropOp37
 70
     1
102
RTVSPost2010Prop38
140
0.0
102
RTVSPost2010PropOp38
 70
     1
102
RTVSPost2010Prop39
140
1.0
102
RTVSPost2010PropOp39
 70
     1
102
RTVSPost2010Prop40
 90
        0
102
RTVSPost2010PropOp40
 70
     1
102
RTVSPost2010Prop41ColorIndex
 90
       18
102
RTVSPost2010Prop41ColorRGB
 90
        0
102
RTVSPost2010PropOp41
 70
     1
102
RTVSPost2010Prop42
 90
       50
102
RTVSPost2010PropOp42
 70
     1
102
RTVSPost2010Prop43
 90
        3
102
RTVSPost2010PropOp43
 70
     1
102
RTVSPost2010Prop44ColorIndex
 90
        5
102
RTVSPost2010Prop44ColorRGB
 90
      255
102
RTVSPost2010PropOp44
 70
     1
102
RTVSPost2010Prop45
280
     0
102
RTVSPost2010PropOp45
 70
     1
102
RTVSPost2010Prop46
 90
       50
102
RTVSPost2010PropOp46
 70
     1
102
RTVSPost2010Prop47
 90
       50
102
RTVSPost2010PropOp47
 70
     1
102
RTVSPost2010Prop48
 90
       50
102
RTVSPost2010PropOp48
 70
     1
102
RTVSPost2010Prop49
280
     0
102
RTVSPost2010PropOp49
 70
     1
102
RTVSPost2010Prop50
 90
       50
102
RTVSPost2010PropOp50
 70
     1
102
RTVSPost2010Prop51ColorIndex
 90
      256
102
RTVSPost2010Prop51ColorRGB
 90
-16777216
102
RTVSPost2010PropOp51
 70
     0
102
RTVSPost2010Prop52
140
1.0
102
RTVSPost2010PropOp52
 70
     0
102
RTVSPost2010Prop53
 90
        2
102
RTVSPost2010PropOp53
 70
     1
102
RTVSPost2010Prop54
  1
strokes_ogs.tif
102
RTVSPost2010PropOp54
 70
     1
102
RTVSPost2010Prop55
280
     0
102
RTVSPost2010PropOp55
 70
     1
102
RTVSPost2010Prop56
140
1.0
102
RTVSPost2010PropOp56
 70
     1
102
RTVSPost2010Prop57
140
1.0
102
RTVSPost2010PropOp57
 70
     1
102
RTVSPropertyOp0
 70
     1
102
RTVSPropertyOp1
 70
     1
102
RTVSPropertyOp2
 70
     1
102
RTVSPropertyOp3
 70
     1
102
RTVSPropertyOp4
 70
     1
102
RTVSPropertyOp5
 70
     1
102
RTVSPropertyOp6
 70
     1
102
RTVSPropertyOp7
 70
     1
102
RTVSPropertyOp8
 70
     1
102
RTVSPropertyOp9
 70
     1
102
RTVSPropertyOp10
 70
     1
102
RTVSPropertyOp11
 70
     1
102
RTVSPropertyOp12
 70
     1
102
RTVSPropertyOp13
 70
     1
102
RTVSPropertyOp14
 70
     1
102
RTVSPropertyOp15
 70
     1
102
RTVSPropertyOp16
 70
     1
102
RTVSPropertyOp17
 70
     1
102
RTVSPropertyOp18
 70
     1
102
RTVSPropertyOp19
 70
     1
102
RTVSPropertyOp20
 70
     1
102
RTVSPropertyOp21
 70
     1
102
RTVSPropertyOp22
 70
     1
102
RTVSPropertyOp23
 70
     1
102
RTVSPropertyOp24
 70
     1
102
RTVSPropertyOp25
 70
     1
102
RTVSPropertyOp26
 70
     1
102
RTVSPropertyOp27
 70
     1
102
RTVSPropertyOp28
 70
     1
102
RTVSPropertyOp29
 70
     1
102
RTVSPropertyOp30
 70
     1
102
RTVSPropertyOp31
 70
     1
102
RTVSPropertyOp32
 70
     1
102
RTVSPropertyOp33
 70
     1
102
RTVSPropertyOp34
 70
     1
102
RTVSPropertyOp35
 70
     1
102
RTVSPropertyOp36
 70
     1
102
RTVSPropertyOp37
 70
     1
102
RTVSPropertyOp38
 70
     1
102
RTVSPropertyOp39
 70
     1
102
RTVSPropertyOp40
 70
     1
102
RTVSPropertyOp41
 70
     1
102
RTVSPropertyOp42
 70
     1
102
RTVSPropertyOp43
 70
     1
102
RTVSPropertyOp44
 70
     1
102
RTVSPropertyOp45
 70
     1
102
RTVSPropertyOp46
 70
     1
102
RTVSPropertyOp47
 70
     1
102
RTVSPropertyOp48
 70
     1
102
RTVSPropertyOp49
 70
     1
102
RTVSPropertyOp50
 70
     1
102
RTVSPropertyOp51
 70
     0
102
RTVSPropertyOp52
 70
     0
102
RTVSPropertyOp53
 70
     1
102
RTVSPropertyOp54
 70
     1
102
RTVSPropertyOp55
 70
     1
102
RTVSPropertyOp56
 70
     1
102
RTVSPropertyOp57
 70
     1
102
RTVSPropertyOp58
 70
     1
102
RTVSPropertyOp59
 70
     1
102
RTVSPropertyOp60
 70
     1
102
RTVSPropertyOp61
 70
     1
102
RTVSPropertyOp62
 70
     1
  0
XRECORD
  5
3C7DF
102
{ACAD_REACTORS
330
3C7DE
102
}
330
3C7DE
100
AcDbXrecord
280
     1
102
RTVSPost2010Prop28
280
     0
102
RTVSPost2010PropOp28
 70
     1
102
RTVSPost2010Prop29
280
     1
102
RTVSPost2010PropOp29
 70
     1
102
RTVSPost2010Prop30
280
     1
102
RTVSPost2010PropOp30
 70
     1
102
RTVSPost2010Prop31
280
     0
102
RTVSPost2010PropOp31
 70
     1
102
RTVSPost2010Prop32
280
     0
102
RTVSPost2010PropOp32
 70
     1
102
RTVSPost2010Prop33
280
     0
102
RTVSPost2010PropOp33
 70
     1
102
RTVSPost2010Prop34
280
     0
102
RTVSPost2010PropOp34
 70
     1
102
RTVSPost2010Prop35
280
     0
102
RTVSPost2010PropOp35
 70
     1
102
RTVSPost2010Prop36
280
     0
102
RTVSPost2010PropOp36
 70
     1
102
RTVSPost2010Prop37
 90
       50
102
RTVSPost2010PropOp37
 70
     1
102
RTVSPost2010Prop38
140
0.0
102
RTVSPost2010PropOp38
 70
     1
102
RTVSPost2010Prop39
140
1.0
102
RTVSPost2010PropOp39
 70
     1
102
RTVSPost2010Prop40
 90
        0
102
RTVSPost2010PropOp40
 70
     1
102
RTVSPost2010Prop41ColorIndex
 90
       18
102
RTVSPost2010Prop41ColorRGB
 90
        0
102
RTVSPost2010PropOp41
 70
     1
102
RTVSPost2010Prop42
 90
       50
102
RTVSPost2010PropOp42
 70
     1
102
RTVSPost2010Prop43
 90
        3
102
RTVSPost2010PropOp43
 70
     1
102
RTVSPost2010Prop44ColorIndex
 90
        5
102
RTVSPost2010Prop44ColorRGB
 90
      255
102
RTVSPost2010PropOp44
 70
     1
102
RTVSPost2010Prop45
280
     0
102
RTVSPost2010PropOp45
 70
     1
102
RTVSPost2010Prop46
 90
       50
102
RTVSPost2010PropOp46
 70
     1
102
RTVSPost2010Prop47
 90
       50
102
RTVSPost2010PropOp47
 70
     1
102
RTVSPost2010Prop48
 90
       50
102
RTVSPost2010PropOp48
 70
     1
102
RTVSPost2010Prop49
280
     0
102
RTVSPost2010PropOp49
 70
     1
102
RTVSPost2010Prop50
 90
       50
102
RTVSPost2010PropOp50
 70
     1
102
RTVSPost2010Prop51ColorIndex
 90
      256
102
RTVSPost2010Prop51ColorRGB
 90
-16777216
102
RTVSPost2010PropOp51
 70
     0
102
RTVSPost2010Prop52
140
1.0
102
RTVSPost2010PropOp52
 70
     0
102
RTVSPost2010Prop53
 90
        2
102
RTVSPost2010PropOp53
 70
     1
102
RTVSPost2010Prop54
  1
strokes_ogs.tif
102
RTVSPost2010PropOp54
 70
     1
102
RTVSPost2010Prop55
280
     0
102
RTVSPost2010PropOp55
 70
     1
102
RTVSPost2010Prop56
140
1.0
102
RTVSPost2010PropOp56
 70
     1
102
RTVSPost2010Prop57
140
1.0
102
RTVSPost2010PropOp57
 70
     1
102
RTVSPropertyOp0
 70
     1
102
RTVSPropertyOp1
 70
     1
102
RTVSPropertyOp2
 70
     1
102
RTVSPropertyOp3
 70
     1
102
RTVSPropertyOp4
 70
     1
102
RTVSPropertyOp5
 70
     1
102
RTVSPropertyOp6
 70
     1
102
RTVSPropertyOp7
 70
     1
102
RTVSPropertyOp8
 70
     1
102
RTVSPropertyOp9
 70
     1
102
RTVSPropertyOp10
 70
     1
102
RTVSPropertyOp11
 70
     1
102
RTVSPropertyOp12
 70
     1
102
RTVSPropertyOp13
 70
     1
102
RTVSPropertyOp14
 70
     1
102
RTVSPropertyOp15
 70
     1
102
RTVSPropertyOp16
 70
     1
102
RTVSPropertyOp17
 70
     1
102
RTVSPropertyOp18
 70
     1
102
RTVSPropertyOp19
 70
     1
102
RTVSPropertyOp20
 70
     1
102
RTVSPropertyOp21
 70
     1
102
RTVSPropertyOp22
 70
     1
102
RTVSPropertyOp23
 70
     1
102
RTVSPropertyOp24
 70
     1
102
RTVSPropertyOp25
 70
     1
102
RTVSPropertyOp26
 70
     1
102
RTVSPropertyOp27
 70
     1
102
RTVSPropertyOp28
 70
     1
102
RTVSPropertyOp29
 70
     1
102
RTVSPropertyOp30
 70
     1
102
RTVSPropertyOp31
 70
     1
102
RTVSPropertyOp32
 70
     1
102
RTVSPropertyOp33
 70
     1
102
RTVSPropertyOp34
 70
     1
102
RTVSPropertyOp35
 70
     1
102
RTVSPropertyOp36
 70
     1
102
RTVSPropertyOp37
 70
     1
102
RTVSPropertyOp38
 70
     1
102
RTVSPropertyOp39
 70
     1
102
RTVSPropertyOp40
 70
     1
102
RTVSPropertyOp41
 70
     1
102
RTVSPropertyOp42
 70
     1
102
RTVSPropertyOp43
 70
     1
102
RTVSPropertyOp44
 70
     1
102
RTVSPropertyOp45
 70
     1
102
RTVSPropertyOp46
 70
     1
102
RTVSPropertyOp47
 70
     1
102
RTVSPropertyOp48
 70
     1
102
RTVSPropertyOp49
 70
     1
102
RTVSPropertyOp50
 70
     1
102
RTVSPropertyOp51
 70
     0
102
RTVSPropertyOp52
 70
     0
102
RTVSPropertyOp53
 70
     1
102
RTVSPropertyOp54
 70
     1
102
RTVSPropertyOp55
 70
     1
102
RTVSPropertyOp56
 70
     1
102
RTVSPropertyOp57
 70
     1
102
RTVSPropertyOp58
 70
     1
102
RTVSPropertyOp59
 70
     1
102
RTVSPropertyOp60
 70
     1
102
RTVSPropertyOp61
 70
     1
102
RTVSPropertyOp62
 70
     1
  0
XRECORD
  5
3C7ED
102
{ACAD_REACTORS
330
3C7EC
102
}
330
3C7EC
100
AcDbXrecord
280
     1
102
RTVSPost2010Prop28
280
     0
102
RTVSPost2010PropOp28
 70
     1
102
RTVSPost2010Prop29
280
     1
102
RTVSPost2010PropOp29
 70
     1
102
RTVSPost2010Prop30
280
     1
102
RTVSPost2010PropOp30
 70
     1
102
RTVSPost2010Prop31
280
     0
102
RTVSPost2010PropOp31
 70
     1
102
RTVSPost2010Prop32
280
     0
102
RTVSPost2010PropOp32
 70
     1
102
RTVSPost2010Prop33
280
     0
102
RTVSPost2010PropOp33
 70
     1
102
RTVSPost2010Prop34
280
     0
102
RTVSPost2010PropOp34
 70
     1
102
RTVSPost2010Prop35
280
     0
102
RTVSPost2010PropOp35
 70
     1
102
RTVSPost2010Prop36
280
     0
102
RTVSPost2010PropOp36
 70
     1
102
RTVSPost2010Prop37
 90
       50
102
RTVSPost2010PropOp37
 70
     1
102
RTVSPost2010Prop38
140
0.0
102
RTVSPost2010PropOp38
 70
     1
102
RTVSPost2010Prop39
140
1.0
102
RTVSPost2010PropOp39
 70
     1
102
RTVSPost2010Prop40
 90
        0
102
RTVSPost2010PropOp40
 70
     1
102
RTVSPost2010Prop41ColorIndex
 90
       18
102
RTVSPost2010Prop41ColorRGB
 90
        0
102
RTVSPost2010PropOp41
 70
     1
102
RTVSPost2010Prop42
 90
       50
102
RTVSPost2010PropOp42
 70
     1
102
RTVSPost2010Prop43
 90
        3
102
RTVSPost2010PropOp43
 70
     1
102
RTVSPost2010Prop44ColorIndex
 90
        5
102
RTVSPost2010Prop44ColorRGB
 90
      255
102
RTVSPost2010PropOp44
 70
     1
102
RTVSPost2010Prop45
280
     0
102
RTVSPost2010PropOp45
 70
     1
102
RTVSPost2010Prop46
 90
       50
102
RTVSPost2010PropOp46
 70
     1
102
RTVSPost2010Prop47
 90
       50
102
RTVSPost2010PropOp47
 70
     1
102
RTVSPost2010Prop48
 90
       50
102
RTVSPost2010PropOp48
 70
     1
102
RTVSPost2010Prop49
280
     0
102
RTVSPost2010PropOp49
 70
     1
102
RTVSPost2010Prop50
 90
       50
102
RTVSPost2010PropOp50
 70
     1
102
RTVSPost2010Prop51ColorIndex
 90
      256
102
RTVSPost2010Prop51ColorRGB
 90
-16777216
102
RTVSPost2010PropOp51
 70
     0
102
RTVSPost2010Prop52
140
1.0
102
RTVSPost2010PropOp52
 70
     0
102
RTVSPost2010Prop53
 90
        2
102
RTVSPost2010PropOp53
 70
     1
102
RTVSPost2010Prop54
  1
strokes_ogs.tif
102
RTVSPost2010PropOp54
 70
     1
102
RTVSPost2010Prop55
280
     0
102
RTVSPost2010PropOp55
 70
     1
102
RTVSPost2010Prop56
140
1.0
102
RTVSPost2010PropOp56
 70
     1
102
RTVSPost2010Prop57
140
1.0
102
RTVSPost2010PropOp57
 70
     1
102
RTVSPropertyOp0
 70
     1
102
RTVSPropertyOp1
 70
     1
102
RTVSPropertyOp2
 70
     1
102
RTVSPropertyOp3
 70
     1
102
RTVSPropertyOp4
 70
     1
102
RTVSPropertyOp5
 70
     1
102
RTVSPropertyOp6
 70
     1
102
RTVSPropertyOp7
 70
     1
102
RTVSPropertyOp8
 70
     1
102
RTVSPropertyOp9
 70
     1
102
RTVSPropertyOp10
 70
     1
102
RTVSPropertyOp11
 70
     1
102
RTVSPropertyOp12
 70
     1
102
RTVSPropertyOp13
 70
     1
102
RTVSPropertyOp14
 70
     1
102
RTVSPropertyOp15
 70
     1
102
RTVSPropertyOp16
 70
     1
102
RTVSPropertyOp17
 70
     1
102
RTVSPropertyOp18
 70
     1
102
RTVSPropertyOp19
 70
     1
102
RTVSPropertyOp20
 70
     1
102
RTVSPropertyOp21
 70
     1
102
RTVSPropertyOp22
 70
     1
102
RTVSPropertyOp23
 70
     1
102
RTVSPropertyOp24
 70
     1
102
RTVSPropertyOp25
 70
     1
102
RTVSPropertyOp26
 70
     1
102
RTVSPropertyOp27
 70
     1
102
RTVSPropertyOp28
 70
     1
102
RTVSPropertyOp29
 70
     1
102
RTVSPropertyOp30
 70
     1
102
RTVSPropertyOp31
 70
     1
102
RTVSPropertyOp32
 70
     1
102
RTVSPropertyOp33
 70
     1
102
RTVSPropertyOp34
 70
     1
102
RTVSPropertyOp35
 70
     1
102
RTVSPropertyOp36
 70
     1
102
RTVSPropertyOp37
 70
     1
102
RTVSPropertyOp38
 70
     1
102
RTVSPropertyOp39
 70
     1
102
RTVSPropertyOp40
 70
     1
102
RTVSPropertyOp41
 70
     1
102
RTVSPropertyOp42
 70
     1
102
RTVSPropertyOp43
 70
     1
102
RTVSPropertyOp44
 70
     1
102
RTVSPropertyOp45
 70
     1
102
RTVSPropertyOp46
 70
     1
102
RTVSPropertyOp47
 70
     1
102
RTVSPropertyOp48
 70
     1
102
RTVSPropertyOp49
 70
     1
102
RTVSPropertyOp50
 70
     1
102
RTVSPropertyOp51
 70
     0
102
RTVSPropertyOp52
 70
     0
102
RTVSPropertyOp53
 70
     1
102
RTVSPropertyOp54
 70
     1
102
RTVSPropertyOp55
 70
     1
102
RTVSPropertyOp56
 70
     1
102
RTVSPropertyOp57
 70
     1
102
RTVSPropertyOp58
 70
     1
102
RTVSPropertyOp59
 70
     1
102
RTVSPropertyOp60
 70
     1
102
RTVSPropertyOp61
 70
     1
102
RTVSPropertyOp62
 70
     1
  0
XRECORD
  5
3C7F5
102
{ACAD_REACTORS
330
3C7F4
102
}
330
3C7F4
100
AcDbXrecord
280
     1
102
RTVSPost2010Prop28
280
     0
102
RTVSPost2010PropOp28
 70
     1
102
RTVSPost2010Prop29
280
     1
102
RTVSPost2010PropOp29
 70
     1
102
RTVSPost2010Prop30
280
     1
102
RTVSPost2010PropOp30
 70
     1
102
RTVSPost2010Prop31
280
     0
102
RTVSPost2010PropOp31
 70
     1
102
RTVSPost2010Prop32
280
     0
102
RTVSPost2010PropOp32
 70
     1
102
RTVSPost2010Prop33
280
     0
102
RTVSPost2010PropOp33
 70
     1
102
RTVSPost2010Prop34
280
     0
102
RTVSPost2010PropOp34
 70
     1
102
RTVSPost2010Prop35
280
     0
102
RTVSPost2010PropOp35
 70
     1
102
RTVSPost2010Prop36
280
     0
102
RTVSPost2010PropOp36
 70
     1
102
RTVSPost2010Prop37
 90
       50
102
RTVSPost2010PropOp37
 70
     1
102
RTVSPost2010Prop38
140
0.0
102
RTVSPost2010PropOp38
 70
     1
102
RTVSPost2010Prop39
140
1.0
102
RTVSPost2010PropOp39
 70
     1
102
RTVSPost2010Prop40
 90
        0
102
RTVSPost2010PropOp40
 70
     1
102
RTVSPost2010Prop41ColorIndex
 90
       18
102
RTVSPost2010Prop41ColorRGB
 90
        0
102
RTVSPost2010PropOp41
 70
     1
102
RTVSPost2010Prop42
 90
       50
102
RTVSPost2010PropOp42
 70
     1
102
RTVSPost2010Prop43
 90
        3
102
RTVSPost2010PropOp43
 70
     1
102
RTVSPost2010Prop44ColorIndex
 90
        5
102
RTVSPost2010Prop44ColorRGB
 90
      255
102
RTVSPost2010PropOp44
 70
     1
102
RTVSPost2010Prop45
280
     0
102
RTVSPost2010PropOp45
 70
     1
102
RTVSPost2010Prop46
 90
       50
102
RTVSPost2010PropOp46
 70
     1
102
RTVSPost2010Prop47
 90
       50
102
RTVSPost2010PropOp47
 70
     1
102
RTVSPost2010Prop48
 90
       50
102
RTVSPost2010PropOp48
 70
     1
102
RTVSPost2010Prop49
280
     0
102
RTVSPost2010PropOp49
 70
     1
102
RTVSPost2010Prop50
 90
       50
102
RTVSPost2010PropOp50
 70
     1
102
RTVSPost2010Prop51ColorIndex
 90
      256
102
RTVSPost2010Prop51ColorRGB
 90
-16777216
102
RTVSPost2010PropOp51
 70
     0
102
RTVSPost2010Prop52
140
1.0
102
RTVSPost2010PropOp52
 70
     0
102
RTVSPost2010Prop53
 90
        2
102
RTVSPost2010PropOp53
 70
     1
102
RTVSPost2010Prop54
  1
strokes_ogs.tif
102
RTVSPost2010PropOp54
 70
     1
102
RTVSPost2010Prop55
280
     0
102
RTVSPost2010PropOp55
 70
     1
102
RTVSPost2010Prop56
140
1.0
102
RTVSPost2010PropOp56
 70
     1
102
RTVSPost2010Prop57
140
1.0
102
RTVSPost2010PropOp57
 70
     1
102
RTVSPropertyOp0
 70
     1
102
RTVSPropertyOp1
 70
     1
102
RTVSPropertyOp2
 70
     1
102
RTVSPropertyOp3
 70
     1
102
RTVSPropertyOp4
 70
     1
102
RTVSPropertyOp5
 70
     1
102
RTVSPropertyOp6
 70
     1
102
RTVSPropertyOp7
 70
     1
102
RTVSPropertyOp8
 70
     1
102
RTVSPropertyOp9
 70
     1
102
RTVSPropertyOp10
 70
     1
102
RTVSPropertyOp11
 70
     1
102
RTVSPropertyOp12
 70
     1
102
RTVSPropertyOp13
 70
     1
102
RTVSPropertyOp14
 70
     1
102
RTVSPropertyOp15
 70
     1
102
RTVSPropertyOp16
 70
     1
102
RTVSPropertyOp17
 70
     1
102
RTVSPropertyOp18
 70
     1
102
RTVSPropertyOp19
 70
     1
102
RTVSPropertyOp20
 70
     1
102
RTVSPropertyOp21
 70
     1
102
RTVSPropertyOp22
 70
     1
102
RTVSPropertyOp23
 70
     1
102
RTVSPropertyOp24
 70
     1
102
RTVSPropertyOp25
 70
     1
102
RTVSPropertyOp26
 70
     1
102
RTVSPropertyOp27
 70
     1
102
RTVSPropertyOp28
 70
     1
102
RTVSPropertyOp29
 70
     1
102
RTVSPropertyOp30
 70
     1
102
RTVSPropertyOp31
 70
     1
102
RTVSPropertyOp32
 70
     1
102
RTVSPropertyOp33
 70
     1
102
RTVSPropertyOp34
 70
     1
102
RTVSPropertyOp35
 70
     1
102
RTVSPropertyOp36
 70
     1
102
RTVSPropertyOp37
 70
     1
102
RTVSPropertyOp38
 70
     1
102
RTVSPropertyOp39
 70
     1
102
RTVSPropertyOp40
 70
     1
102
RTVSPropertyOp41
 70
     1
102
RTVSPropertyOp42
 70
     1
102
RTVSPropertyOp43
 70
     1
102
RTVSPropertyOp44
 70
     1
102
RTVSPropertyOp45
 70
     1
102
RTVSPropertyOp46
 70
     1
102
RTVSPropertyOp47
 70
     1
102
RTVSPropertyOp48
 70
     1
102
RTVSPropertyOp49
 70
     1
102
RTVSPropertyOp50
 70
     1
102
RTVSPropertyOp51
 70
     0
102
RTVSPropertyOp52
 70
     0
102
RTVSPropertyOp53
 70
     1
102
RTVSPropertyOp54
 70
     1
102
RTVSPropertyOp55
 70
     1
102
RTVSPropertyOp56
 70
     1
102
RTVSPropertyOp57
 70
     1
102
RTVSPropertyOp58
 70
     1
102
RTVSPropertyOp59
 70
     1
102
RTVSPropertyOp60
 70
     1
102
RTVSPropertyOp61
 70
     1
102
RTVSPropertyOp62
 70
     1
  0
XRECORD
  5
3C7E7
102
{ACAD_REACTORS
330
3C7E6
102
}
330
3C7E6
100
AcDbXrecord
280
     1
102
RTVSPost2010Prop28
280
     0
102
RTVSPost2010PropOp28
 70
     1
102
RTVSPost2010Prop29
280
     1
102
RTVSPost2010PropOp29
 70
     1
102
RTVSPost2010Prop30
280
     1
102
RTVSPost2010PropOp30
 70
     1
102
RTVSPost2010Prop31
280
     0
102
RTVSPost2010PropOp31
 70
     1
102
RTVSPost2010Prop32
280
     0
102
RTVSPost2010PropOp32
 70
     1
102
RTVSPost2010Prop33
280
     0
102
RTVSPost2010PropOp33
 70
     1
102
RTVSPost2010Prop34
280
     0
102
RTVSPost2010PropOp34
 70
     1
102
RTVSPost2010Prop35
280
     0
102
RTVSPost2010PropOp35
 70
     1
102
RTVSPost2010Prop36
280
     0
102
RTVSPost2010PropOp36
 70
     1
102
RTVSPost2010Prop37
 90
       50
102
RTVSPost2010PropOp37
 70
     1
102
RTVSPost2010Prop38
140
0.0
102
RTVSPost2010PropOp38
 70
     1
102
RTVSPost2010Prop39
140
1.0
102
RTVSPost2010PropOp39
 70
     1
102
RTVSPost2010Prop40
 90
        0
102
RTVSPost2010PropOp40
 70
     1
102
RTVSPost2010Prop41ColorIndex
 90
       18
102
RTVSPost2010Prop41ColorRGB
 90
        0
102
RTVSPost2010PropOp41
 70
     1
102
RTVSPost2010Prop42
 90
       50
102
RTVSPost2010PropOp42
 70
     1
102
RTVSPost2010Prop43
 90
        3
102
RTVSPost2010PropOp43
 70
     1
102
RTVSPost2010Prop44ColorIndex
 90
        5
102
RTVSPost2010Prop44ColorRGB
 90
      255
102
RTVSPost2010PropOp44
 70
     1
102
RTVSPost2010Prop45
280
     0
102
RTVSPost2010PropOp45
 70
     1
102
RTVSPost2010Prop46
 90
       50
102
RTVSPost2010PropOp46
 70
     1
102
RTVSPost2010Prop47
 90
       50
102
RTVSPost2010PropOp47
 70
     1
102
RTVSPost2010Prop48
 90
       50
102
RTVSPost2010PropOp48
 70
     1
102
RTVSPost2010Prop49
280
     0
102
RTVSPost2010PropOp49
 70
     1
102
RTVSPost2010Prop50
 90
       50
102
RTVSPost2010PropOp50
 70
     1
102
RTVSPost2010Prop51ColorIndex
 90
      256
102
RTVSPost2010Prop51ColorRGB
 90
-16777216
102
RTVSPost2010PropOp51
 70
     0
102
RTVSPost2010Prop52
140
1.0
102
RTVSPost2010PropOp52
 70
     0
102
RTVSPost2010Prop53
 90
        2
102
RTVSPost2010PropOp53
 70
     1
102
RTVSPost2010Prop54
  1
strokes_ogs.tif
102
RTVSPost2010PropOp54
 70
     1
102
RTVSPost2010Prop55
280
     0
102
RTVSPost2010PropOp55
 70
     1
102
RTVSPost2010Prop56
140
1.0
102
RTVSPost2010PropOp56
 70
     1
102
RTVSPost2010Prop57
140
1.0
102
RTVSPost2010PropOp57
 70
     1
102
RTVSPropertyOp0
 70
     1
102
RTVSPropertyOp1
 70
     1
102
RTVSPropertyOp2
 70
     1
102
RTVSPropertyOp3
 70
     1
102
RTVSPropertyOp4
 70
     1
102
RTVSPropertyOp5
 70
     1
102
RTVSPropertyOp6
 70
     1
102
RTVSPropertyOp7
 70
     1
102
RTVSPropertyOp8
 70
     1
102
RTVSPropertyOp9
 70
     1
102
RTVSPropertyOp10
 70
     1
102
RTVSPropertyOp11
 70
     1
102
RTVSPropertyOp12
 70
     1
102
RTVSPropertyOp13
 70
     1
102
RTVSPropertyOp14
 70
     1
102
RTVSPropertyOp15
 70
     1
102
RTVSPropertyOp16
 70
     1
102
RTVSPropertyOp17
 70
     1
102
RTVSPropertyOp18
 70
     1
102
RTVSPropertyOp19
 70
     1
102
RTVSPropertyOp20
 70
     1
102
RTVSPropertyOp21
 70
     1
102
RTVSPropertyOp22
 70
     1
102
RTVSPropertyOp23
 70
     1
102
RTVSPropertyOp24
 70
     1
102
RTVSPropertyOp25
 70
     1
102
RTVSPropertyOp26
 70
     1
102
RTVSPropertyOp27
 70
     1
102
RTVSPropertyOp28
 70
     1
102
RTVSPropertyOp29
 70
     1
102
RTVSPropertyOp30
 70
     1
102
RTVSPropertyOp31
 70
     1
102
RTVSPropertyOp32
 70
     1
102
RTVSPropertyOp33
 70
     1
102
RTVSPropertyOp34
 70
     1
102
RTVSPropertyOp35
 70
     1
102
RTVSPropertyOp36
 70
     1
102
RTVSPropertyOp37
 70
     1
102
RTVSPropertyOp38
 70
     1
102
RTVSPropertyOp39
 70
     1
102
RTVSPropertyOp40
 70
     1
102
RTVSPropertyOp41
 70
     1
102
RTVSPropertyOp42
 70
     1
102
RTVSPropertyOp43
 70
     1
102
RTVSPropertyOp44
 70
     1
102
RTVSPropertyOp45
 70
     1
102
RTVSPropertyOp46
 70
     1
102
RTVSPropertyOp47
 70
     1
102
RTVSPropertyOp48
 70
     1
102
RTVSPropertyOp49
 70
     1
102
RTVSPropertyOp50
 70
     1
102
RTVSPropertyOp51
 70
     0
102
RTVSPropertyOp52
 70
     0
102
RTVSPropertyOp53
 70
     1
102
RTVSPropertyOp54
 70
     1
102
RTVSPropertyOp55
 70
     1
102
RTVSPropertyOp56
 70
     1
102
RTVSPropertyOp57
 70
     1
102
RTVSPropertyOp58
 70
     1
102
RTVSPropertyOp59
 70
     1
102
RTVSPropertyOp60
 70
     1
102
RTVSPropertyOp61
 70
     1
102
RTVSPropertyOp62
 70
     1
  0
XRECORD
  5
3C7EB
102
{ACAD_REACTORS
330
3C7EA
102
}
330
3C7EA
100
AcDbXrecord
280
     1
102
RTVSPost2010Prop28
280
     0
102
RTVSPost2010PropOp28
 70
     1
102
RTVSPost2010Prop29
280
     1
102
RTVSPost2010PropOp29
 70
     1
102
RTVSPost2010Prop30
280
     1
102
RTVSPost2010PropOp30
 70
     1
102
RTVSPost2010Prop31
280
     0
102
RTVSPost2010PropOp31
 70
     1
102
RTVSPost2010Prop32
280
     0
102
RTVSPost2010PropOp32
 70
     1
102
RTVSPost2010Prop33
280
     0
102
RTVSPost2010PropOp33
 70
     1
102
RTVSPost2010Prop34
280
     0
102
RTVSPost2010PropOp34
 70
     1
102
RTVSPost2010Prop35
280
     0
102
RTVSPost2010PropOp35
 70
     1
102
RTVSPost2010Prop36
280
     0
102
RTVSPost2010PropOp36
 70
     1
102
RTVSPost2010Prop37
 90
       50
102
RTVSPost2010PropOp37
 70
     1
102
RTVSPost2010Prop38
140
0.0
102
RTVSPost2010PropOp38
 70
     1
102
RTVSPost2010Prop39
140
1.0
102
RTVSPost2010PropOp39
 70
     1
102
RTVSPost2010Prop40
 90
        0
102
RTVSPost2010PropOp40
 70
     1
102
RTVSPost2010Prop41ColorIndex
 90
       18
102
RTVSPost2010Prop41ColorRGB
 90
        0
102
RTVSPost2010PropOp41
 70
     1
102
RTVSPost2010Prop42
 90
       50
102
RTVSPost2010PropOp42
 70
     1
102
RTVSPost2010Prop43
 90
        3
102
RTVSPost2010PropOp43
 70
     1
102
RTVSPost2010Prop44ColorIndex
 90
        5
102
RTVSPost2010Prop44ColorRGB
 90
      255
102
RTVSPost2010PropOp44
 70
     1
102
RTVSPost2010Prop45
280
     0
102
RTVSPost2010PropOp45
 70
     1
102
RTVSPost2010Prop46
 90
       50
102
RTVSPost2010PropOp46
 70
     1
102
RTVSPost2010Prop47
 90
       50
102
RTVSPost2010PropOp47
 70
     1
102
RTVSPost2010Prop48
 90
       50
102
RTVSPost2010PropOp48
 70
     1
102
RTVSPost2010Prop49
280
     0
102
RTVSPost2010PropOp49
 70
     1
102
RTVSPost2010Prop50
 90
       50
102
RTVSPost2010PropOp50
 70
     1
102
RTVSPost2010Prop51ColorIndex
 90
      256
102
RTVSPost2010Prop51ColorRGB
 90
-16777216
102
RTVSPost2010PropOp51
 70
     0
102
RTVSPost2010Prop52
140
1.0
102
RTVSPost2010PropOp52
 70
     0
102
RTVSPost2010Prop53
 90
        2
102
RTVSPost2010PropOp53
 70
     1
102
RTVSPost2010Prop54
  1
strokes_ogs.tif
102
RTVSPost2010PropOp54
 70
     1
102
RTVSPost2010Prop55
280
     0
102
RTVSPost2010PropOp55
 70
     1
102
RTVSPost2010Prop56
140
1.0
102
RTVSPost2010PropOp56
 70
     1
102
RTVSPost2010Prop57
140
1.0
102
RTVSPost2010PropOp57
 70
     1
102
RTVSPropertyOp0
 70
     1
102
RTVSPropertyOp1
 70
     1
102
RTVSPropertyOp2
 70
     1
102
RTVSPropertyOp3
 70
     1
102
RTVSPropertyOp4
 70
     1
102
RTVSPropertyOp5
 70
     1
102
RTVSPropertyOp6
 70
     1
102
RTVSPropertyOp7
 70
     1
102
RTVSPropertyOp8
 70
     1
102
RTVSPropertyOp9
 70
     1
102
RTVSPropertyOp10
 70
     1
102
RTVSPropertyOp11
 70
     1
102
RTVSPropertyOp12
 70
     1
102
RTVSPropertyOp13
 70
     1
102
RTVSPropertyOp14
 70
     1
102
RTVSPropertyOp15
 70
     1
102
RTVSPropertyOp16
 70
     1
102
RTVSPropertyOp17
 70
     1
102
RTVSPropertyOp18
 70
     1
102
RTVSPropertyOp19
 70
     1
102
RTVSPropertyOp20
 70
     1
102
RTVSPropertyOp21
 70
     1
102
RTVSPropertyOp22
 70
     1
102
RTVSPropertyOp23
 70
     1
102
RTVSPropertyOp24
 70
     1
102
RTVSPropertyOp25
 70
     1
102
RTVSPropertyOp26
 70
     1
102
RTVSPropertyOp27
 70
     1
102
RTVSPropertyOp28
 70
     1
102
RTVSPropertyOp29
 70
     1
102
RTVSPropertyOp30
 70
     1
102
RTVSPropertyOp31
 70
     1
102
RTVSPropertyOp32
 70
     1
102
RTVSPropertyOp33
 70
     1
102
RTVSPropertyOp34
 70
     1
102
RTVSPropertyOp35
 70
     1
102
RTVSPropertyOp36
 70
     1
102
RTVSPropertyOp37
 70
     1
102
RTVSPropertyOp38
 70
     1
102
RTVSPropertyOp39
 70
     1
102
RTVSPropertyOp40
 70
     1
102
RTVSPropertyOp41
 70
     1
102
RTVSPropertyOp42
 70
     1
102
RTVSPropertyOp43
 70
     1
102
RTVSPropertyOp44
 70
     1
102
RTVSPropertyOp45
 70
     1
102
RTVSPropertyOp46
 70
     1
102
RTVSPropertyOp47
 70
     1
102
RTVSPropertyOp48
 70
     1
102
RTVSPropertyOp49
 70
     1
102
RTVSPropertyOp50
 70
     1
102
RTVSPropertyOp51
 70
     0
102
RTVSPropertyOp52
 70
     0
102
RTVSPropertyOp53
 70
     1
102
RTVSPropertyOp54
 70
     1
102
RTVSPropertyOp55
 70
     1
102
RTVSPropertyOp56
 70
     1
102
RTVSPropertyOp57
 70
     1
102
RTVSPropertyOp58
 70
     1
102
RTVSPropertyOp59
 70
     1
102
RTVSPropertyOp60
 70
     1
102
RTVSPropertyOp61
 70
     1
102
RTVSPropertyOp62
 70
     1
  0
XRECORD
  5
3C805
102
{ACAD_REACTORS
330
3C804
102
}
330
3C804
100
AcDbXrecord
280
     1
102
RTVSPost2010Prop28
280
     0
102
RTVSPost2010PropOp28
 70
     1
102
RTVSPost2010Prop29
280
     1
102
RTVSPost2010PropOp29
 70
     1
102
RTVSPost2010Prop30
280
     1
102
RTVSPost2010PropOp30
 70
     1
102
RTVSPost2010Prop31
280
     0
102
RTVSPost2010PropOp31
 70
     1
102
RTVSPost2010Prop32
280
     0
102
RTVSPost2010PropOp32
 70
     1
102
RTVSPost2010Prop33
280
     0
102
RTVSPost2010PropOp33
 70
     1
102
RTVSPost2010Prop34
280
     0
102
RTVSPost2010PropOp34
 70
     1
102
RTVSPost2010Prop35
280
     0
102
RTVSPost2010PropOp35
 70
     1
102
RTVSPost2010Prop36
280
     0
102
RTVSPost2010PropOp36
 70
     1
102
RTVSPost2010Prop37
 90
       50
102
RTVSPost2010PropOp37
 70
     0
102
RTVSPost2010Prop38
140
0.0
102
RTVSPost2010PropOp38
 70
     0
102
RTVSPost2010Prop39
140
1.0
102
RTVSPost2010PropOp39
 70
     0
102
RTVSPost2010Prop40
 90
        0
102
RTVSPost2010PropOp40
 70
     0
102
RTVSPost2010Prop41ColorIndex
 90
       18
102
RTVSPost2010Prop41ColorRGB
 90
        0
102
RTVSPost2010PropOp41
 70
     0
102
RTVSPost2010Prop42
 90
       50
102
RTVSPost2010PropOp42
 70
     0
102
RTVSPost2010Prop43
 90
        3
102
RTVSPost2010PropOp43
 70
     0
102
RTVSPost2010Prop44ColorIndex
 90
        5
102
RTVSPost2010Prop44ColorRGB
 90
      255
102
RTVSPost2010PropOp44
 70
     0
102
RTVSPost2010Prop45
280
     0
102
RTVSPost2010PropOp45
 70
     1
102
RTVSPost2010Prop46
 90
       50
102
RTVSPost2010PropOp46
 70
     0
102
RTVSPost2010Prop47
 90
       50
102
RTVSPost2010PropOp47
 70
     0
102
RTVSPost2010Prop48
 90
       50
102
RTVSPost2010PropOp48
 70
     0
102
RTVSPost2010Prop49
280
     0
102
RTVSPost2010PropOp49
 70
     1
102
RTVSPost2010Prop50
 90
       50
102
RTVSPost2010PropOp50
 70
     0
102
RTVSPost2010Prop51ColorIndex
 90
      256
102
RTVSPost2010Prop51ColorRGB
 90
-16777216
102
RTVSPost2010PropOp51
 70
     0
102
RTVSPost2010Prop52
140
1.0
102
RTVSPost2010PropOp52
 70
     0
102
RTVSPost2010Prop53
 90
        2
102
RTVSPost2010PropOp53
 70
     0
102
RTVSPost2010Prop54
  1
strokes_ogs.tif
102
RTVSPost2010PropOp54
 70
     0
102
RTVSPost2010Prop55
280
     0
102
RTVSPost2010PropOp55
 70
     1
102
RTVSPost2010Prop56
140
1.0
102
RTVSPost2010PropOp56
 70
     0
102
RTVSPost2010Prop57
140
1.0
102
RTVSPost2010PropOp57
 70
     0
102
RTVSPropertyOp0
 70
     0
102
RTVSPropertyOp1
 70
     0
102
RTVSPropertyOp2
 70
     0
102
RTVSPropertyOp3
 70
     0
102
RTVSPropertyOp4
 70
     0
102
RTVSPropertyOp5
 70
     0
102
RTVSPropertyOp6
 70
     0
102
RTVSPropertyOp7
 70
     0
102
RTVSPropertyOp8
 70
     0
102
RTVSPropertyOp9
 70
     0
102
RTVSPropertyOp10
 70
     0
102
RTVSPropertyOp11
 70
     0
102
RTVSPropertyOp12
 70
     0
102
RTVSPropertyOp13
 70
     0
102
RTVSPropertyOp14
 70
     2
102
RTVSPropertyOp15
 70
     0
102
RTVSPropertyOp16
 70
     0
102
RTVSPropertyOp17
 70
     0
102
RTVSPropertyOp18
 70
     0
102
RTVSPropertyOp19
 70
     0
102
RTVSPropertyOp20
 70
     0
102
RTVSPropertyOp21
 70
     0
102
RTVSPropertyOp22
 70
     0
102
RTVSPropertyOp23
 70
     0
102
RTVSPropertyOp24
 70
     0
102
RTVSPropertyOp25
 70
     0
102
RTVSPropertyOp26
 70
     0
102
RTVSPropertyOp27
 70
     0
102
RTVSPropertyOp28
 70
     1
102
RTVSPropertyOp29
 70
     1
102
RTVSPropertyOp30
 70
     1
102
RTVSPropertyOp31
 70
     1
102
RTVSPropertyOp32
 70
     1
102
RTVSPropertyOp33
 70
     1
102
RTVSPropertyOp34
 70
     1
102
RTVSPropertyOp35
 70
     1
102
RTVSPropertyOp36
 70
     1
102
RTVSPropertyOp37
 70
     0
102
RTVSPropertyOp38
 70
     0
102
RTVSPropertyOp39
 70
     0
102
RTVSPropertyOp40
 70
     0
102
RTVSPropertyOp41
 70
     0
102
RTVSPropertyOp42
 70
     0
102
RTVSPropertyOp43
 70
     0
102
RTVSPropertyOp44
 70
     0
102
RTVSPropertyOp45
 70
     1
102
RTVSPropertyOp46
 70
     0
102
RTVSPropertyOp47
 70
     0
102
RTVSPropertyOp48
 70
     0
102
RTVSPropertyOp49
 70
     1
102
RTVSPropertyOp50
 70
     0
102
RTVSPropertyOp51
 70
     0
102
RTVSPropertyOp52
 70
     0
102
RTVSPropertyOp53
 70
     0
102
RTVSPropertyOp54
 70
     0
102
RTVSPropertyOp55
 70
     1
102
RTVSPropertyOp56
 70
     0
102
RTVSPropertyOp57
 70
     0
102
RTVSPropertyOp58
 70
     0
102
RTVSPropertyOp59
 70
     0
102
RTVSPropertyOp60
 70
     0
102
RTVSPropertyOp61
 70
     0
102
RTVSPropertyOp62
 70
     0
  0
XRECORD
  5
3C7F3
102
{ACAD_REACTORS
330
3C7F2
102
}
330
3C7F2
100
AcDbXrecord
280
     1
102
RTVSPost2010Prop28
280
     0
102
RTVSPost2010PropOp28
 70
     1
102
RTVSPost2010Prop29
280
     1
102
RTVSPost2010PropOp29
 70
     1
102
RTVSPost2010Prop30
280
     1
102
RTVSPost2010PropOp30
 70
     1
102
RTVSPost2010Prop31
280
     0
102
RTVSPost2010PropOp31
 70
     1
102
RTVSPost2010Prop32
280
     0
102
RTVSPost2010PropOp32
 70
     1
102
RTVSPost2010Prop33
280
     0
102
RTVSPost2010PropOp33
 70
     1
102
RTVSPost2010Prop34
280
     0
102
RTVSPost2010PropOp34
 70
     1
102
RTVSPost2010Prop35
280
     0
102
RTVSPost2010PropOp35
 70
     1
102
RTVSPost2010Prop36
280
     0
102
RTVSPost2010PropOp36
 70
     1
102
RTVSPost2010Prop37
 90
       50
102
RTVSPost2010PropOp37
 70
     1
102
RTVSPost2010Prop38
140
0.0
102
RTVSPost2010PropOp38
 70
     1
102
RTVSPost2010Prop39
140
1.0
102
RTVSPost2010PropOp39
 70
     1
102
RTVSPost2010Prop40
 90
        0
102
RTVSPost2010PropOp40
 70
     1
102
RTVSPost2010Prop41ColorIndex
 90
       18
102
RTVSPost2010Prop41ColorRGB
 90
        0
102
RTVSPost2010PropOp41
 70
     1
102
RTVSPost2010Prop42
 90
       50
102
RTVSPost2010PropOp42
 70
     1
102
RTVSPost2010Prop43
 90
        3
102
RTVSPost2010PropOp43
 70
     1
102
RTVSPost2010Prop44ColorIndex
 90
        5
102
RTVSPost2010Prop44ColorRGB
 90
      255
102
RTVSPost2010PropOp44
 70
     1
102
RTVSPost2010Prop45
280
     0
102
RTVSPost2010PropOp45
 70
     1
102
RTVSPost2010Prop46
 90
       50
102
RTVSPost2010PropOp46
 70
     1
102
RTVSPost2010Prop47
 90
       50
102
RTVSPost2010PropOp47
 70
     1
102
RTVSPost2010Prop48
 90
       50
102
RTVSPost2010PropOp48
 70
     1
102
RTVSPost2010Prop49
280
     0
102
RTVSPost2010PropOp49
 70
     1
102
RTVSPost2010Prop50
 90
       50
102
RTVSPost2010PropOp50
 70
     1
102
RTVSPost2010Prop51ColorIndex
 90
      256
102
RTVSPost2010Prop51ColorRGB
 90
-16777216
102
RTVSPost2010PropOp51
 70
     0
102
RTVSPost2010Prop52
140
1.0
102
RTVSPost2010PropOp52
 70
     0
102
RTVSPost2010Prop53
 90
        2
102
RTVSPost2010PropOp53
 70
     1
102
RTVSPost2010Prop54
  1
strokes_ogs.tif
102
RTVSPost2010PropOp54
 70
     1
102
RTVSPost2010Prop55
280
     0
102
RTVSPost2010PropOp55
 70
     1
102
RTVSPost2010Prop56
140
1.0
102
RTVSPost2010PropOp56
 70
     1
102
RTVSPost2010Prop57
140
1.0
102
RTVSPost2010PropOp57
 70
     1
102
RTVSPropertyOp0
 70
     1
102
RTVSPropertyOp1
 70
     1
102
RTVSPropertyOp2
 70
     1
102
RTVSPropertyOp3
 70
     1
102
RTVSPropertyOp4
 70
     1
102
RTVSPropertyOp5
 70
     1
102
RTVSPropertyOp6
 70
     1
102
RTVSPropertyOp7
 70
     1
102
RTVSPropertyOp8
 70
     1
102
RTVSPropertyOp9
 70
     1
102
RTVSPropertyOp10
 70
     1
102
RTVSPropertyOp11
 70
     1
102
RTVSPropertyOp12
 70
     1
102
RTVSPropertyOp13
 70
     1
102
RTVSPropertyOp14
 70
     1
102
RTVSPropertyOp15
 70
     1
102
RTVSPropertyOp16
 70
     1
102
RTVSPropertyOp17
 70
     1
102
RTVSPropertyOp18
 70
     1
102
RTVSPropertyOp19
 70
     1
102
RTVSPropertyOp20
 70
     1
102
RTVSPropertyOp21
 70
     1
102
RTVSPropertyOp22
 70
     1
102
RTVSPropertyOp23
 70
     1
102
RTVSPropertyOp24
 70
     1
102
RTVSPropertyOp25
 70
     1
102
RTVSPropertyOp26
 70
     1
102
RTVSPropertyOp27
 70
     1
102
RTVSPropertyOp28
 70
     1
102
RTVSPropertyOp29
 70
     1
102
RTVSPropertyOp30
 70
     1
102
RTVSPropertyOp31
 70
     1
102
RTVSPropertyOp32
 70
     1
102
RTVSPropertyOp33
 70
     1
102
RTVSPropertyOp34
 70
     1
102
RTVSPropertyOp35
 70
     1
102
RTVSPropertyOp36
 70
     1
102
RTVSPropertyOp37
 70
     1
102
RTVSPropertyOp38
 70
     1
102
RTVSPropertyOp39
 70
     1
102
RTVSPropertyOp40
 70
     1
102
RTVSPropertyOp41
 70
     1
102
RTVSPropertyOp42
 70
     1
102
RTVSPropertyOp43
 70
     1
102
RTVSPropertyOp44
 70
     1
102
RTVSPropertyOp45
 70
     1
102
RTVSPropertyOp46
 70
     1
102
RTVSPropertyOp47
 70
     1
102
RTVSPropertyOp48
 70
     1
102
RTVSPropertyOp49
 70
     1
102
RTVSPropertyOp50
 70
     1
102
RTVSPropertyOp51
 70
     0
102
RTVSPropertyOp52
 70
     0
102
RTVSPropertyOp53
 70
     1
102
RTVSPropertyOp54
 70
     1
102
RTVSPropertyOp55
 70
     1
102
RTVSPropertyOp56
 70
     1
102
RTVSPropertyOp57
 70
     1
102
RTVSPropertyOp58
 70
     1
102
RTVSPropertyOp59
 70
     1
102
RTVSPropertyOp60
 70
     1
102
RTVSPropertyOp61
 70
     1
102
RTVSPropertyOp62
 70
     1
  0
XRECORD
  5
3C7D7
102
{ACAD_REACTORS
330
3C7D6
102
}
330
3C7D6
100
AcDbXrecord
280
     1
102
RTVSPost2010Prop28
280
     0
102
RTVSPost2010PropOp28
 70
     1
102
RTVSPost2010Prop29
280
     1
102
RTVSPost2010PropOp29
 70
     1
102
RTVSPost2010Prop30
280
     1
102
RTVSPost2010PropOp30
 70
     1
102
RTVSPost2010Prop31
280
     0
102
RTVSPost2010PropOp31
 70
     1
102
RTVSPost2010Prop32
280
     0
102
RTVSPost2010PropOp32
 70
     1
102
RTVSPost2010Prop33
280
     0
102
RTVSPost2010PropOp33
 70
     1
102
RTVSPost2010Prop34
280
     0
102
RTVSPost2010PropOp34
 70
     1
102
RTVSPost2010Prop35
280
     0
102
RTVSPost2010PropOp35
 70
     1
102
RTVSPost2010Prop36
280
     0
102
RTVSPost2010PropOp36
 70
     1
102
RTVSPost2010Prop37
 90
       50
102
RTVSPost2010PropOp37
 70
     1
102
RTVSPost2010Prop38
140
0.0
102
RTVSPost2010PropOp38
 70
     1
102
RTVSPost2010Prop39
140
1.0
102
RTVSPost2010PropOp39
 70
     1
102
RTVSPost2010Prop40
 90
        0
102
RTVSPost2010PropOp40
 70
     1
102
RTVSPost2010Prop41ColorIndex
 90
       18
102
RTVSPost2010Prop41ColorRGB
 90
        0
102
RTVSPost2010PropOp41
 70
     1
102
RTVSPost2010Prop42
 90
       50
102
RTVSPost2010PropOp42
 70
     1
102
RTVSPost2010Prop43
 90
        3
102
RTVSPost2010PropOp43
 70
     1
102
RTVSPost2010Prop44ColorIndex
 90
        5
102
RTVSPost2010Prop44ColorRGB
 90
      255
102
RTVSPost2010PropOp44
 70
     1
102
RTVSPost2010Prop45
280
     0
102
RTVSPost2010PropOp45
 70
     1
102
RTVSPost2010Prop46
 90
       50
102
RTVSPost2010PropOp46
 70
     1
102
RTVSPost2010Prop47
 90
       50
102
RTVSPost2010PropOp47
 70
     1
102
RTVSPost2010Prop48
 90
       50
102
RTVSPost2010PropOp48
 70
     1
102
RTVSPost2010Prop49
280
     0
102
RTVSPost2010PropOp49
 70
     1
102
RTVSPost2010Prop50
 90
       50
102
RTVSPost2010PropOp50
 70
     1
102
RTVSPost2010Prop51ColorIndex
 90
      256
102
RTVSPost2010Prop51ColorRGB
 90
-16777216
102
RTVSPost2010PropOp51
 70
     0
102
RTVSPost2010Prop52
140
1.0
102
RTVSPost2010PropOp52
 70
     0
102
RTVSPost2010Prop53
 90
        2
102
RTVSPost2010PropOp53
 70
     1
102
RTVSPost2010Prop54
  1
strokes_ogs.tif
102
RTVSPost2010PropOp54
 70
     1
102
RTVSPost2010Prop55
280
     0
102
RTVSPost2010PropOp55
 70
     1
102
RTVSPost2010Prop56
140
1.0
102
RTVSPost2010PropOp56
 70
     1
102
RTVSPost2010Prop57
140
1.0
102
RTVSPost2010PropOp57
 70
     1
102
RTVSPropertyOp0
 70
     1
102
RTVSPropertyOp1
 70
     1
102
RTVSPropertyOp2
 70
     1
102
RTVSPropertyOp3
 70
     1
102
RTVSPropertyOp4
 70
     1
102
RTVSPropertyOp5
 70
     1
102
RTVSPropertyOp6
 70
     1
102
RTVSPropertyOp7
 70
     1
102
RTVSPropertyOp8
 70
     1
102
RTVSPropertyOp9
 70
     1
102
RTVSPropertyOp10
 70
     1
102
RTVSPropertyOp11
 70
     1
102
RTVSPropertyOp12
 70
     1
102
RTVSPropertyOp13
 70
     1
102
RTVSPropertyOp14
 70
     1
102
RTVSPropertyOp15
 70
     1
102
RTVSPropertyOp16
 70
     1
102
RTVSPropertyOp17
 70
     1
102
RTVSPropertyOp18
 70
     1
102
RTVSPropertyOp19
 70
     1
102
RTVSPropertyOp20
 70
     1
102
RTVSPropertyOp21
 70
     1
102
RTVSPropertyOp22
 70
     1
102
RTVSPropertyOp23
 70
     1
102
RTVSPropertyOp24
 70
     1
102
RTVSPropertyOp25
 70
     1
102
RTVSPropertyOp26
 70
     1
102
RTVSPropertyOp27
 70
     1
102
RTVSPropertyOp28
 70
     1
102
RTVSPropertyOp29
 70
     1
102
RTVSPropertyOp30
 70
     1
102
RTVSPropertyOp31
 70
     1
102
RTVSPropertyOp32
 70
     1
102
RTVSPropertyOp33
 70
     1
102
RTVSPropertyOp34
 70
     1
102
RTVSPropertyOp35
 70
     1
102
RTVSPropertyOp36
 70
     1
102
RTVSPropertyOp37
 70
     1
102
RTVSPropertyOp38
 70
     1
102
RTVSPropertyOp39
 70
     1
102
RTVSPropertyOp40
 70
     1
102
RTVSPropertyOp41
 70
     1
102
RTVSPropertyOp42
 70
     1
102
RTVSPropertyOp43
 70
     1
102
RTVSPropertyOp44
 70
     1
102
RTVSPropertyOp45
 70
     1
102
RTVSPropertyOp46
 70
     1
102
RTVSPropertyOp47
 70
     1
102
RTVSPropertyOp48
 70
     1
102
RTVSPropertyOp49
 70
     1
102
RTVSPropertyOp50
 70
     1
102
RTVSPropertyOp51
 70
     0
102
RTVSPropertyOp52
 70
     0
102
RTVSPropertyOp53
 70
     1
102
RTVSPropertyOp54
 70
     1
102
RTVSPropertyOp55
 70
     1
102
RTVSPropertyOp56
 70
     1
102
RTVSPropertyOp57
 70
     1
102
RTVSPropertyOp58
 70
     1
102
RTVSPropertyOp59
 70
     1
102
RTVSPropertyOp60
 70
     1
102
RTVSPropertyOp61
 70
     1
102
RTVSPropertyOp62
 70
     1
  0
XRECORD
  5
3C7D9
102
{ACAD_REACTORS
330
3C7D8
102
}
330
3C7D8
100
AcDbXrecord
280
     1
102
RTVSPost2010Prop28
280
     0
102
RTVSPost2010PropOp28
 70
     1
102
RTVSPost2010Prop29
280
     1
102
RTVSPost2010PropOp29
 70
     1
102
RTVSPost2010Prop30
280
     1
102
RTVSPost2010PropOp30
 70
     1
102
RTVSPost2010Prop31
280
     0
102
RTVSPost2010PropOp31
 70
     1
102
RTVSPost2010Prop32
280
     0
102
RTVSPost2010PropOp32
 70
     1
102
RTVSPost2010Prop33
280
     0
102
RTVSPost2010PropOp33
 70
     1
102
RTVSPost2010Prop34
280
     0
102
RTVSPost2010PropOp34
 70
     1
102
RTVSPost2010Prop35
280
     0
102
RTVSPost2010PropOp35
 70
     1
102
RTVSPost2010Prop36
280
     0
102
RTVSPost2010PropOp36
 70
     1
102
RTVSPost2010Prop37
 90
       50
102
RTVSPost2010PropOp37
 70
     1
102
RTVSPost2010Prop38
140
0.0
102
RTVSPost2010PropOp38
 70
     1
102
RTVSPost2010Prop39
140
1.0
102
RTVSPost2010PropOp39
 70
     1
102
RTVSPost2010Prop40
 90
        0
102
RTVSPost2010PropOp40
 70
     1
102
RTVSPost2010Prop41ColorIndex
 90
       18
102
RTVSPost2010Prop41ColorRGB
 90
        0
102
RTVSPost2010PropOp41
 70
     1
102
RTVSPost2010Prop42
 90
       50
102
RTVSPost2010PropOp42
 70
     1
102
RTVSPost2010Prop43
 90
        3
102
RTVSPost2010PropOp43
 70
     1
102
RTVSPost2010Prop44ColorIndex
 90
        5
102
RTVSPost2010Prop44ColorRGB
 90
      255
102
RTVSPost2010PropOp44
 70
     1
102
RTVSPost2010Prop45
280
     0
102
RTVSPost2010PropOp45
 70
     1
102
RTVSPost2010Prop46
 90
       50
102
RTVSPost2010PropOp46
 70
     1
102
RTVSPost2010Prop47
 90
       50
102
RTVSPost2010PropOp47
 70
     1
102
RTVSPost2010Prop48
 90
       50
102
RTVSPost2010PropOp48
 70
     1
102
RTVSPost2010Prop49
280
     0
102
RTVSPost2010PropOp49
 70
     1
102
RTVSPost2010Prop50
 90
       50
102
RTVSPost2010PropOp50
 70
     1
102
RTVSPost2010Prop51ColorIndex
 90
      256
102
RTVSPost2010Prop51ColorRGB
 90
-16777216
102
RTVSPost2010PropOp51
 70
     0
102
RTVSPost2010Prop52
140
1.0
102
RTVSPost2010PropOp52
 70
     0
102
RTVSPost2010Prop53
 90
        2
102
RTVSPost2010PropOp53
 70
     1
102
RTVSPost2010Prop54
  1
strokes_ogs.tif
102
RTVSPost2010PropOp54
 70
     1
102
RTVSPost2010Prop55
280
     0
102
RTVSPost2010PropOp55
 70
     1
102
RTVSPost2010Prop56
140
1.0
102
RTVSPost2010PropOp56
 70
     1
102
RTVSPost2010Prop57
140
1.0
102
RTVSPost2010PropOp57
 70
     1
102
RTVSPropertyOp0
 70
     1
102
RTVSPropertyOp1
 70
     1
102
RTVSPropertyOp2
 70
     1
102
RTVSPropertyOp3
 70
     1
102
RTVSPropertyOp4
 70
     1
102
RTVSPropertyOp5
 70
     1
102
RTVSPropertyOp6
 70
     1
102
RTVSPropertyOp7
 70
     1
102
RTVSPropertyOp8
 70
     1
102
RTVSPropertyOp9
 70
     1
102
RTVSPropertyOp10
 70
     1
102
RTVSPropertyOp11
 70
     1
102
RTVSPropertyOp12
 70
     1
102
RTVSPropertyOp13
 70
     1
102
RTVSPropertyOp14
 70
     1
102
RTVSPropertyOp15
 70
     1
102
RTVSPropertyOp16
 70
     1
102
RTVSPropertyOp17
 70
     1
102
RTVSPropertyOp18
 70
     1
102
RTVSPropertyOp19
 70
     1
102
RTVSPropertyOp20
 70
     1
102
RTVSPropertyOp21
 70
     1
102
RTVSPropertyOp22
 70
     1
102
RTVSPropertyOp23
 70
     1
102
RTVSPropertyOp24
 70
     1
102
RTVSPropertyOp25
 70
     1
102
RTVSPropertyOp26
 70
     1
102
RTVSPropertyOp27
 70
     1
102
RTVSPropertyOp28
 70
     1
102
RTVSPropertyOp29
 70
     1
102
RTVSPropertyOp30
 70
     1
102
RTVSPropertyOp31
 70
     1
102
RTVSPropertyOp32
 70
     1
102
RTVSPropertyOp33
 70
     1
102
RTVSPropertyOp34
 70
     1
102
RTVSPropertyOp35
 70
     1
102
RTVSPropertyOp36
 70
     1
102
RTVSPropertyOp37
 70
     1
102
RTVSPropertyOp38
 70
     1
102
RTVSPropertyOp39
 70
     1
102
RTVSPropertyOp40
 70
     1
102
RTVSPropertyOp41
 70
     1
102
RTVSPropertyOp42
 70
     1
102
RTVSPropertyOp43
 70
     1
102
RTVSPropertyOp44
 70
     1
102
RTVSPropertyOp45
 70
     1
102
RTVSPropertyOp46
 70
     1
102
RTVSPropertyOp47
 70
     1
102
RTVSPropertyOp48
 70
     1
102
RTVSPropertyOp49
 70
     1
102
RTVSPropertyOp50
 70
     1
102
RTVSPropertyOp51
 70
     0
102
RTVSPropertyOp52
 70
     0
102
RTVSPropertyOp53
 70
     1
102
RTVSPropertyOp54
 70
     1
102
RTVSPropertyOp55
 70
     1
102
RTVSPropertyOp56
 70
     1
102
RTVSPropertyOp57
 70
     1
102
RTVSPropertyOp58
 70
     1
102
RTVSPropertyOp59
 70
     1
102
RTVSPropertyOp60
 70
     1
102
RTVSPropertyOp61
 70
     1
102
RTVSPropertyOp62
 70
     1
  0
XRECORD
  5
3C7DB
102
{ACAD_REACTORS
330
3C7DA
102
}
330
3C7DA
100
AcDbXrecord
280
     1
102
RTVSPost2010Prop28
280
     0
102
RTVSPost2010PropOp28
 70
     1
102
RTVSPost2010Prop29
280
     1
102
RTVSPost2010PropOp29
 70
     1
102
RTVSPost2010Prop30
280
     1
102
RTVSPost2010PropOp30
 70
     1
102
RTVSPost2010Prop31
280
     0
102
RTVSPost2010PropOp31
 70
     1
102
RTVSPost2010Prop32
280
     0
102
RTVSPost2010PropOp32
 70
     1
102
RTVSPost2010Prop33
280
     0
102
RTVSPost2010PropOp33
 70
     1
102
RTVSPost2010Prop34
280
     0
102
RTVSPost2010PropOp34
 70
     1
102
RTVSPost2010Prop35
280
     0
102
RTVSPost2010PropOp35
 70
     1
102
RTVSPost2010Prop36
280
     0
102
RTVSPost2010PropOp36
 70
     1
102
RTVSPost2010Prop37
 90
       50
102
RTVSPost2010PropOp37
 70
     1
102
RTVSPost2010Prop38
140
0.0
102
RTVSPost2010PropOp38
 70
     1
102
RTVSPost2010Prop39
140
1.0
102
RTVSPost2010PropOp39
 70
     1
102
RTVSPost2010Prop40
 90
        0
102
RTVSPost2010PropOp40
 70
     1
102
RTVSPost2010Prop41ColorIndex
 90
       18
102
RTVSPost2010Prop41ColorRGB
 90
        0
102
RTVSPost2010PropOp41
 70
     1
102
RTVSPost2010Prop42
 90
       50
102
RTVSPost2010PropOp42
 70
     1
102
RTVSPost2010Prop43
 90
        3
102
RTVSPost2010PropOp43
 70
     1
102
RTVSPost2010Prop44ColorIndex
 90
        5
102
RTVSPost2010Prop44ColorRGB
 90
      255
102
RTVSPost2010PropOp44
 70
     1
102
RTVSPost2010Prop45
280
     0
102
RTVSPost2010PropOp45
 70
     1
102
RTVSPost2010Prop46
 90
       50
102
RTVSPost2010PropOp46
 70
     1
102
RTVSPost2010Prop47
 90
       50
102
RTVSPost2010PropOp47
 70
     1
102
RTVSPost2010Prop48
 90
       50
102
RTVSPost2010PropOp48
 70
     1
102
RTVSPost2010Prop49
280
     0
102
RTVSPost2010PropOp49
 70
     1
102
RTVSPost2010Prop50
 90
       50
102
RTVSPost2010PropOp50
 70
     1
102
RTVSPost2010Prop51ColorIndex
 90
      256
102
RTVSPost2010Prop51ColorRGB
 90
-16777216
102
RTVSPost2010PropOp51
 70
     0
102
RTVSPost2010Prop52
140
1.0
102
RTVSPost2010PropOp52
 70
     0
102
RTVSPost2010Prop53
 90
        2
102
RTVSPost2010PropOp53
 70
     1
102
RTVSPost2010Prop54
  1
strokes_ogs.tif
102
RTVSPost2010PropOp54
 70
     1
102
RTVSPost2010Prop55
280
     0
102
RTVSPost2010PropOp55
 70
     1
102
RTVSPost2010Prop56
140
1.0
102
RTVSPost2010PropOp56
 70
     1
102
RTVSPost2010Prop57
140
1.0
102
RTVSPost2010PropOp57
 70
     1
102
RTVSPropertyOp0
 70
     1
102
RTVSPropertyOp1
 70
     1
102
RTVSPropertyOp2
 70
     1
102
RTVSPropertyOp3
 70
     1
102
RTVSPropertyOp4
 70
     1
102
RTVSPropertyOp5
 70
     1
102
RTVSPropertyOp6
 70
     1
102
RTVSPropertyOp7
 70
     1
102
RTVSPropertyOp8
 70
     1
102
RTVSPropertyOp9
 70
     1
102
RTVSPropertyOp10
 70
     1
102
RTVSPropertyOp11
 70
     1
102
RTVSPropertyOp12
 70
     1
102
RTVSPropertyOp13
 70
     1
102
RTVSPropertyOp14
 70
     1
102
RTVSPropertyOp15
 70
     1
102
RTVSPropertyOp16
 70
     1
102
RTVSPropertyOp17
 70
     1
102
RTVSPropertyOp18
 70
     1
102
RTVSPropertyOp19
 70
     1
102
RTVSPropertyOp20
 70
     1
102
RTVSPropertyOp21
 70
     1
102
RTVSPropertyOp22
 70
     1
102
RTVSPropertyOp23
 70
     1
102
RTVSPropertyOp24
 70
     1
102
RTVSPropertyOp25
 70
     1
102
RTVSPropertyOp26
 70
     1
102
RTVSPropertyOp27
 70
     1
102
RTVSPropertyOp28
 70
     1
102
RTVSPropertyOp29
 70
     1
102
RTVSPropertyOp30
 70
     1
102
RTVSPropertyOp31
 70
     1
102
RTVSPropertyOp32
 70
     1
102
RTVSPropertyOp33
 70
     1
102
RTVSPropertyOp34
 70
     1
102
RTVSPropertyOp35
 70
     1
102
RTVSPropertyOp36
 70
     1
102
RTVSPropertyOp37
 70
     1
102
RTVSPropertyOp38
 70
     1
102
RTVSPropertyOp39
 70
     1
102
RTVSPropertyOp40
 70
     1
102
RTVSPropertyOp41
 70
     1
102
RTVSPropertyOp42
 70
     1
102
RTVSPropertyOp43
 70
     1
102
RTVSPropertyOp44
 70
     1
102
RTVSPropertyOp45
 70
     1
102
RTVSPropertyOp46
 70
     1
102
RTVSPropertyOp47
 70
     1
102
RTVSPropertyOp48
 70
     1
102
RTVSPropertyOp49
 70
     1
102
RTVSPropertyOp50
 70
     1
102
RTVSPropertyOp51
 70
     0
102
RTVSPropertyOp52
 70
     0
102
RTVSPropertyOp53
 70
     1
102
RTVSPropertyOp54
 70
     1
102
RTVSPropertyOp55
 70
     1
102
RTVSPropertyOp56
 70
     1
102
RTVSPropertyOp57
 70
     1
102
RTVSPropertyOp58
 70
     1
102
RTVSPropertyOp59
 70
     1
102
RTVSPropertyOp60
 70
     1
102
RTVSPropertyOp61
 70
     1
102
RTVSPropertyOp62
 70
     1
  0
XRECORD
  5
3C7DD
102
{ACAD_REACTORS
330
3C7DC
102
}
330
3C7DC
100
AcDbXrecord
280
     1
102
RTVSPost2010Prop28
280
     0
102
RTVSPost2010PropOp28
 70
     1
102
RTVSPost2010Prop29
280
     1
102
RTVSPost2010PropOp29
 70
     1
102
RTVSPost2010Prop30
280
     1
102
RTVSPost2010PropOp30
 70
     1
102
RTVSPost2010Prop31
280
     0
102
RTVSPost2010PropOp31
 70
     1
102
RTVSPost2010Prop32
280
     0
102
RTVSPost2010PropOp32
 70
     1
102
RTVSPost2010Prop33
280
     0
102
RTVSPost2010PropOp33
 70
     1
102
RTVSPost2010Prop34
280
     0
102
RTVSPost2010PropOp34
 70
     1
102
RTVSPost2010Prop35
280
     0
102
RTVSPost2010PropOp35
 70
     1
102
RTVSPost2010Prop36
280
     0
102
RTVSPost2010PropOp36
 70
     1
102
RTVSPost2010Prop37
 90
       50
102
RTVSPost2010PropOp37
 70
     1
102
RTVSPost2010Prop38
140
0.0
102
RTVSPost2010PropOp38
 70
     1
102
RTVSPost2010Prop39
140
1.0
102
RTVSPost2010PropOp39
 70
     1
102
RTVSPost2010Prop40
 90
        0
102
RTVSPost2010PropOp40
 70
     1
102
RTVSPost2010Prop41ColorIndex
 90
       18
102
RTVSPost2010Prop41ColorRGB
 90
        0
102
RTVSPost2010PropOp41
 70
     1
102
RTVSPost2010Prop42
 90
       50
102
RTVSPost2010PropOp42
 70
     1
102
RTVSPost2010Prop43
 90
        3
102
RTVSPost2010PropOp43
 70
     1
102
RTVSPost2010Prop44ColorIndex
 90
        5
102
RTVSPost2010Prop44ColorRGB
 90
      255
102
RTVSPost2010PropOp44
 70
     1
102
RTVSPost2010Prop45
280
     0
102
RTVSPost2010PropOp45
 70
     1
102
RTVSPost2010Prop46
 90
       50
102
RTVSPost2010PropOp46
 70
     1
102
RTVSPost2010Prop47
 90
       50
102
RTVSPost2010PropOp47
 70
     1
102
RTVSPost2010Prop48
 90
       50
102
RTVSPost2010PropOp48
 70
     1
102
RTVSPost2010Prop49
280
     0
102
RTVSPost2010PropOp49
 70
     1
102
RTVSPost2010Prop50
 90
       50
102
RTVSPost2010PropOp50
 70
     1
102
RTVSPost2010Prop51ColorIndex
 90
      256
102
RTVSPost2010Prop51ColorRGB
 90
-16777216
102
RTVSPost2010PropOp51
 70
     0
102
RTVSPost2010Prop52
140
1.0
102
RTVSPost2010PropOp52
 70
     0
102
RTVSPost2010Prop53
 90
        2
102
RTVSPost2010PropOp53
 70
     1
102
RTVSPost2010Prop54
  1
strokes_ogs.tif
102
RTVSPost2010PropOp54
 70
     1
102
RTVSPost2010Prop55
280
     0
102
RTVSPost2010PropOp55
 70
     1
102
RTVSPost2010Prop56
140
1.0
102
RTVSPost2010PropOp56
 70
     1
102
RTVSPost2010Prop57
140
1.0
102
RTVSPost2010PropOp57
 70
     1
102
RTVSPropertyOp0
 70
     1
102
RTVSPropertyOp1
 70
     1
102
RTVSPropertyOp2
 70
     1
102
RTVSPropertyOp3
 70
     1
102
RTVSPropertyOp4
 70
     1
102
RTVSPropertyOp5
 70
     1
102
RTVSPropertyOp6
 70
     1
102
RTVSPropertyOp7
 70
     1
102
RTVSPropertyOp8
 70
     1
102
RTVSPropertyOp9
 70
     1
102
RTVSPropertyOp10
 70
     1
102
RTVSPropertyOp11
 70
     1
102
RTVSPropertyOp12
 70
     1
102
RTVSPropertyOp13
 70
     1
102
RTVSPropertyOp14
 70
     1
102
RTVSPropertyOp15
 70
     1
102
RTVSPropertyOp16
 70
     1
102
RTVSPropertyOp17
 70
     1
102
RTVSPropertyOp18
 70
     1
102
RTVSPropertyOp19
 70
     1
102
RTVSPropertyOp20
 70
     1
102
RTVSPropertyOp21
 70
     1
102
RTVSPropertyOp22
 70
     1
102
RTVSPropertyOp23
 70
     1
102
RTVSPropertyOp24
 70
     1
102
RTVSPropertyOp25
 70
     1
102
RTVSPropertyOp26
 70
     1
102
RTVSPropertyOp27
 70
     1
102
RTVSPropertyOp28
 70
     1
102
RTVSPropertyOp29
 70
     1
102
RTVSPropertyOp30
 70
     1
102
RTVSPropertyOp31
 70
     1
102
RTVSPropertyOp32
 70
     1
102
RTVSPropertyOp33
 70
     1
102
RTVSPropertyOp34
 70
     1
102
RTVSPropertyOp35
 70
     1
102
RTVSPropertyOp36
 70
     1
102
RTVSPropertyOp37
 70
     1
102
RTVSPropertyOp38
 70
     1
102
RTVSPropertyOp39
 70
     1
102
RTVSPropertyOp40
 70
     1
102
RTVSPropertyOp41
 70
     1
102
RTVSPropertyOp42
 70
     1
102
RTVSPropertyOp43
 70
     1
102
RTVSPropertyOp44
 70
     1
102
RTVSPropertyOp45
 70
     1
102
RTVSPropertyOp46
 70
     1
102
RTVSPropertyOp47
 70
     1
102
RTVSPropertyOp48
 70
     1
102
RTVSPropertyOp49
 70
     1
102
RTVSPropertyOp50
 70
     1
102
RTVSPropertyOp51
 70
     0
102
RTVSPropertyOp52
 70
     0
102
RTVSPropertyOp53
 70
     1
102
RTVSPropertyOp54
 70
     1
102
RTVSPropertyOp55
 70
     1
102
RTVSPropertyOp56
 70
     1
102
RTVSPropertyOp57
 70
     1
102
RTVSPropertyOp58
 70
     1
102
RTVSPropertyOp59
 70
     1
102
RTVSPropertyOp60
 70
     1
102
RTVSPropertyOp61
 70
     1
102
RTVSPropertyOp62
 70
     1
  0
XRECORD
  5
3C7E5
102
{ACAD_REACTORS
330
3C7E4
102
}
330
3C7E4
100
AcDbXrecord
280
     1
102
RTVSPost2010Prop28
280
     0
102
RTVSPost2010PropOp28
 70
     1
102
RTVSPost2010Prop29
280
     1
102
RTVSPost2010PropOp29
 70
     1
102
RTVSPost2010Prop30
280
     1
102
RTVSPost2010PropOp30
 70
     1
102
RTVSPost2010Prop31
280
     0
102
RTVSPost2010PropOp31
 70
     1
102
RTVSPost2010Prop32
280
     0
102
RTVSPost2010PropOp32
 70
     1
102
RTVSPost2010Prop33
280
     0
102
RTVSPost2010PropOp33
 70
     1
102
RTVSPost2010Prop34
280
     0
102
RTVSPost2010PropOp34
 70
     1
102
RTVSPost2010Prop35
280
     0
102
RTVSPost2010PropOp35
 70
     1
102
RTVSPost2010Prop36
280
     0
102
RTVSPost2010PropOp36
 70
     1
102
RTVSPost2010Prop37
 90
       50
102
RTVSPost2010PropOp37
 70
     1
102
RTVSPost2010Prop38
140
0.0
102
RTVSPost2010PropOp38
 70
     1
102
RTVSPost2010Prop39
140
1.0
102
RTVSPost2010PropOp39
 70
     1
102
RTVSPost2010Prop40
 90
        0
102
RTVSPost2010PropOp40
 70
     1
102
RTVSPost2010Prop41ColorIndex
 90
       18
102
RTVSPost2010Prop41ColorRGB
 90
        0
102
RTVSPost2010PropOp41
 70
     1
102
RTVSPost2010Prop42
 90
       50
102
RTVSPost2010PropOp42
 70
     1
102
RTVSPost2010Prop43
 90
        3
102
RTVSPost2010PropOp43
 70
     1
102
RTVSPost2010Prop44ColorIndex
 90
        5
102
RTVSPost2010Prop44ColorRGB
 90
      255
102
RTVSPost2010PropOp44
 70
     1
102
RTVSPost2010Prop45
280
     0
102
RTVSPost2010PropOp45
 70
     1
102
RTVSPost2010Prop46
 90
       50
102
RTVSPost2010PropOp46
 70
     1
102
RTVSPost2010Prop47
 90
       50
102
RTVSPost2010PropOp47
 70
     1
102
RTVSPost2010Prop48
 90
       50
102
RTVSPost2010PropOp48
 70
     1
102
RTVSPost2010Prop49
280
     0
102
RTVSPost2010PropOp49
 70
     1
102
RTVSPost2010Prop50
 90
       50
102
RTVSPost2010PropOp50
 70
     1
102
RTVSPost2010Prop51ColorIndex
 90
      256
102
RTVSPost2010Prop51ColorRGB
 90
-16777216
102
RTVSPost2010PropOp51
 70
     0
102
RTVSPost2010Prop52
140
1.0
102
RTVSPost2010PropOp52
 70
     0
102
RTVSPost2010Prop53
 90
        2
102
RTVSPost2010PropOp53
 70
     1
102
RTVSPost2010Prop54
  1
strokes_ogs.tif
102
RTVSPost2010PropOp54
 70
     1
102
RTVSPost2010Prop55
280
     0
102
RTVSPost2010PropOp55
 70
     1
102
RTVSPost2010Prop56
140
1.0
102
RTVSPost2010PropOp56
 70
     1
102
RTVSPost2010Prop57
140
1.0
102
RTVSPost2010PropOp57
 70
     1
102
RTVSPropertyOp0
 70
     1
102
RTVSPropertyOp1
 70
     1
102
RTVSPropertyOp2
 70
     1
102
RTVSPropertyOp3
 70
     1
102
RTVSPropertyOp4
 70
     1
102
RTVSPropertyOp5
 70
     1
102
RTVSPropertyOp6
 70
     1
102
RTVSPropertyOp7
 70
     1
102
RTVSPropertyOp8
 70
     1
102
RTVSPropertyOp9
 70
     1
102
RTVSPropertyOp10
 70
     1
102
RTVSPropertyOp11
 70
     1
102
RTVSPropertyOp12
 70
     1
102
RTVSPropertyOp13
 70
     1
102
RTVSPropertyOp14
 70
     1
102
RTVSPropertyOp15
 70
     1
102
RTVSPropertyOp16
 70
     1
102
RTVSPropertyOp17
 70
     1
102
RTVSPropertyOp18
 70
     1
102
RTVSPropertyOp19
 70
     1
102
RTVSPropertyOp20
 70
     1
102
RTVSPropertyOp21
 70
     1
102
RTVSPropertyOp22
 70
     1
102
RTVSPropertyOp23
 70
     1
102
RTVSPropertyOp24
 70
     1
102
RTVSPropertyOp25
 70
     1
102
RTVSPropertyOp26
 70
     1
102
RTVSPropertyOp27
 70
     1
102
RTVSPropertyOp28
 70
     1
102
RTVSPropertyOp29
 70
     1
102
RTVSPropertyOp30
 70
     1
102
RTVSPropertyOp31
 70
     1
102
RTVSPropertyOp32
 70
     1
102
RTVSPropertyOp33
 70
     1
102
RTVSPropertyOp34
 70
     1
102
RTVSPropertyOp35
 70
     1
102
RTVSPropertyOp36
 70
     1
102
RTVSPropertyOp37
 70
     1
102
RTVSPropertyOp38
 70
     1
102
RTVSPropertyOp39
 70
     1
102
RTVSPropertyOp40
 70
     1
102
RTVSPropertyOp41
 70
     1
102
RTVSPropertyOp42
 70
     1
102
RTVSPropertyOp43
 70
     1
102
RTVSPropertyOp44
 70
     1
102
RTVSPropertyOp45
 70
     1
102
RTVSPropertyOp46
 70
     1
102
RTVSPropertyOp47
 70
     1
102
RTVSPropertyOp48
 70
     1
102
RTVSPropertyOp49
 70
     1
102
RTVSPropertyOp50
 70
     1
102
RTVSPropertyOp51
 70
     0
102
RTVSPropertyOp52
 70
     0
102
RTVSPropertyOp53
 70
     1
102
RTVSPropertyOp54
 70
     1
102
RTVSPropertyOp55
 70
     1
102
RTVSPropertyOp56
 70
     1
102
RTVSPropertyOp57
 70
     1
102
RTVSPropertyOp58
 70
     1
102
RTVSPropertyOp59
 70
     1
102
RTVSPropertyOp60
 70
     1
102
RTVSPropertyOp61
 70
     1
102
RTVSPropertyOp62
 70
     1
  0
XRECORD
  5
3C801
102
{ACAD_REACTORS
330
3C800
102
}
330
3C800
100
AcDbXrecord
280
     1
102
RTVSPost2010Prop28
280
     0
102
RTVSPost2010PropOp28
 70
     1
102
RTVSPost2010Prop29
280
     1
102
RTVSPost2010PropOp29
 70
     1
102
RTVSPost2010Prop30
280
     1
102
RTVSPost2010PropOp30
 70
     1
102
RTVSPost2010Prop31
280
     0
102
RTVSPost2010PropOp31
 70
     1
102
RTVSPost2010Prop32
280
     0
102
RTVSPost2010PropOp32
 70
     1
102
RTVSPost2010Prop33
280
     0
102
RTVSPost2010PropOp33
 70
     1
102
RTVSPost2010Prop34
280
     0
102
RTVSPost2010PropOp34
 70
     1
102
RTVSPost2010Prop35
280
     0
102
RTVSPost2010PropOp35
 70
     1
102
RTVSPost2010Prop36
280
     0
102
RTVSPost2010PropOp36
 70
     1
102
RTVSPost2010Prop37
 90
       50
102
RTVSPost2010PropOp37
 70
     0
102
RTVSPost2010Prop38
140
0.0
102
RTVSPost2010PropOp38
 70
     0
102
RTVSPost2010Prop39
140
1.0
102
RTVSPost2010PropOp39
 70
     0
102
RTVSPost2010Prop40
 90
        0
102
RTVSPost2010PropOp40
 70
     0
102
RTVSPost2010Prop41ColorIndex
 90
       18
102
RTVSPost2010Prop41ColorRGB
 90
        0
102
RTVSPost2010PropOp41
 70
     0
102
RTVSPost2010Prop42
 90
       50
102
RTVSPost2010PropOp42
 70
     0
102
RTVSPost2010Prop43
 90
        3
102
RTVSPost2010PropOp43
 70
     0
102
RTVSPost2010Prop44ColorIndex
 90
        5
102
RTVSPost2010Prop44ColorRGB
 90
      255
102
RTVSPost2010PropOp44
 70
     0
102
RTVSPost2010Prop45
280
     0
102
RTVSPost2010PropOp45
 70
     1
102
RTVSPost2010Prop46
 90
       50
102
RTVSPost2010PropOp46
 70
     0
102
RTVSPost2010Prop47
 90
       50
102
RTVSPost2010PropOp47
 70
     0
102
RTVSPost2010Prop48
 90
       50
102
RTVSPost2010PropOp48
 70
     0
102
RTVSPost2010Prop49
280
     0
102
RTVSPost2010PropOp49
 70
     1
102
RTVSPost2010Prop50
 90
       50
102
RTVSPost2010PropOp50
 70
     0
102
RTVSPost2010Prop51ColorIndex
 90
      256
102
RTVSPost2010Prop51ColorRGB
 90
-16777216
102
RTVSPost2010PropOp51
 70
     0
102
RTVSPost2010Prop52
140
1.0
102
RTVSPost2010PropOp52
 70
     0
102
RTVSPost2010Prop53
 90
        2
102
RTVSPost2010PropOp53
 70
     0
102
RTVSPost2010Prop54
  1
strokes_ogs.tif
102
RTVSPost2010PropOp54
 70
     0
102
RTVSPost2010Prop55
280
     0
102
RTVSPost2010PropOp55
 70
     1
102
RTVSPost2010Prop56
140
1.0
102
RTVSPost2010PropOp56
 70
     0
102
RTVSPost2010Prop57
140
1.0
102
RTVSPost2010PropOp57
 70
     0
102
RTVSPropertyOp0
 70
     0
102
RTVSPropertyOp1
 70
     0
102
RTVSPropertyOp2
 70
     0
102
RTVSPropertyOp3
 70
     0
102
RTVSPropertyOp4
 70
     0
102
RTVSPropertyOp5
 70
     0
102
RTVSPropertyOp6
 70
     0
102
RTVSPropertyOp7
 70
     0
102
RTVSPropertyOp8
 70
     0
102
RTVSPropertyOp9
 70
     0
102
RTVSPropertyOp10
 70
     0
102
RTVSPropertyOp11
 70
     0
102
RTVSPropertyOp12
 70
     0
102
RTVSPropertyOp13
 70
     0
102
RTVSPropertyOp14
 70
     2
102
RTVSPropertyOp15
 70
     0
102
RTVSPropertyOp16
 70
     0
102
RTVSPropertyOp17
 70
     0
102
RTVSPropertyOp18
 70
     0
102
RTVSPropertyOp19
 70
     0
102
RTVSPropertyOp20
 70
     0
102
RTVSPropertyOp21
 70
     0
102
RTVSPropertyOp22
 70
     0
102
RTVSPropertyOp23
 70
     0
102
RTVSPropertyOp24
 70
     0
102
RTVSPropertyOp25
 70
     0
102
RTVSPropertyOp26
 70
     0
102
RTVSPropertyOp27
 70
     0
102
RTVSPropertyOp28
 70
     1
102
RTVSPropertyOp29
 70
     1
102
RTVSPropertyOp30
 70
     1
102
RTVSPropertyOp31
 70
     1
102
RTVSPropertyOp32
 70
     1
102
RTVSPropertyOp33
 70
     1
102
RTVSPropertyOp34
 70
     1
102
RTVSPropertyOp35
 70
     1
102
RTVSPropertyOp36
 70
     1
102
RTVSPropertyOp37
 70
     0
102
RTVSPropertyOp38
 70
     0
102
RTVSPropertyOp39
 70
     0
102
RTVSPropertyOp40
 70
     0
102
RTVSPropertyOp41
 70
     0
102
RTVSPropertyOp42
 70
     0
102
RTVSPropertyOp43
 70
     0
102
RTVSPropertyOp44
 70
     0
102
RTVSPropertyOp45
 70
     1
102
RTVSPropertyOp46
 70
     0
102
RTVSPropertyOp47
 70
     0
102
RTVSPropertyOp48
 70
     0
102
RTVSPropertyOp49
 70
     1
102
RTVSPropertyOp50
 70
     0
102
RTVSPropertyOp51
 70
     0
102
RTVSPropertyOp52
 70
     0
102
RTVSPropertyOp53
 70
     0
102
RTVSPropertyOp54
 70
     0
102
RTVSPropertyOp55
 70
     1
102
RTVSPropertyOp56
 70
     0
102
RTVSPropertyOp57
 70
     0
102
RTVSPropertyOp58
 70
     0
102
RTVSPropertyOp59
 70
     0
102
RTVSPropertyOp60
 70
     0
102
RTVSPropertyOp61
 70
     0
102
RTVSPropertyOp62
 70
     0
  0
XRECORD
  5
3C7F1
102
{ACAD_REACTORS
330
3C7F0
102
}
330
3C7F0
100
AcDbXrecord
280
     1
102
RTVSPost2010Prop28
280
     0
102
RTVSPost2010PropOp28
 70
     1
102
RTVSPost2010Prop29
280
     1
102
RTVSPost2010PropOp29
 70
     1
102
RTVSPost2010Prop30
280
     1
102
RTVSPost2010PropOp30
 70
     1
102
RTVSPost2010Prop31
280
     0
102
RTVSPost2010PropOp31
 70
     1
102
RTVSPost2010Prop32
280
     0
102
RTVSPost2010PropOp32
 70
     1
102
RTVSPost2010Prop33
280
     0
102
RTVSPost2010PropOp33
 70
     1
102
RTVSPost2010Prop34
280
     0
102
RTVSPost2010PropOp34
 70
     1
102
RTVSPost2010Prop35
280
     0
102
RTVSPost2010PropOp35
 70
     1
102
RTVSPost2010Prop36
280
     0
102
RTVSPost2010PropOp36
 70
     1
102
RTVSPost2010Prop37
 90
       50
102
RTVSPost2010PropOp37
 70
     1
102
RTVSPost2010Prop38
140
0.0
102
RTVSPost2010PropOp38
 70
     1
102
RTVSPost2010Prop39
140
1.0
102
RTVSPost2010PropOp39
 70
     1
102
RTVSPost2010Prop40
 90
        0
102
RTVSPost2010PropOp40
 70
     1
102
RTVSPost2010Prop41ColorIndex
 90
       18
102
RTVSPost2010Prop41ColorRGB
 90
        0
102
RTVSPost2010PropOp41
 70
     1
102
RTVSPost2010Prop42
 90
       50
102
RTVSPost2010PropOp42
 70
     1
102
RTVSPost2010Prop43
 90
        3
102
RTVSPost2010PropOp43
 70
     1
102
RTVSPost2010Prop44ColorIndex
 90
        5
102
RTVSPost2010Prop44ColorRGB
 90
      255
102
RTVSPost2010PropOp44
 70
     1
102
RTVSPost2010Prop45
280
     0
102
RTVSPost2010PropOp45
 70
     1
102
RTVSPost2010Prop46
 90
       50
102
RTVSPost2010PropOp46
 70
     1
102
RTVSPost2010Prop47
 90
       50
102
RTVSPost2010PropOp47
 70
     1
102
RTVSPost2010Prop48
 90
       50
102
RTVSPost2010PropOp48
 70
     1
102
RTVSPost2010Prop49
280
     0
102
RTVSPost2010PropOp49
 70
     1
102
RTVSPost2010Prop50
 90
       50
102
RTVSPost2010PropOp50
 70
     1
102
RTVSPost2010Prop51ColorIndex
 90
      256
102
RTVSPost2010Prop51ColorRGB
 90
-16777216
102
RTVSPost2010PropOp51
 70
     0
102
RTVSPost2010Prop52
140
1.0
102
RTVSPost2010PropOp52
 70
     0
102
RTVSPost2010Prop53
 90
        2
102
RTVSPost2010PropOp53
 70
     1
102
RTVSPost2010Prop54
  1
strokes_ogs.tif
102
RTVSPost2010PropOp54
 70
     1
102
RTVSPost2010Prop55
280
     0
102
RTVSPost2010PropOp55
 70
     1
102
RTVSPost2010Prop56
140
1.0
102
RTVSPost2010PropOp56
 70
     1
102
RTVSPost2010Prop57
140
1.0
102
RTVSPost2010PropOp57
 70
     1
102
RTVSPropertyOp0
 70
     1
102
RTVSPropertyOp1
 70
     1
102
RTVSPropertyOp2
 70
     1
102
RTVSPropertyOp3
 70
     1
102
RTVSPropertyOp4
 70
     1
102
RTVSPropertyOp5
 70
     1
102
RTVSPropertyOp6
 70
     1
102
RTVSPropertyOp7
 70
     1
102
RTVSPropertyOp8
 70
     1
102
RTVSPropertyOp9
 70
     1
102
RTVSPropertyOp10
 70
     1
102
RTVSPropertyOp11
 70
     1
102
RTVSPropertyOp12
 70
     1
102
RTVSPropertyOp13
 70
     1
102
RTVSPropertyOp14
 70
     1
102
RTVSPropertyOp15
 70
     1
102
RTVSPropertyOp16
 70
     1
102
RTVSPropertyOp17
 70
     1
102
RTVSPropertyOp18
 70
     1
102
RTVSPropertyOp19
 70
     1
102
RTVSPropertyOp20
 70
     1
102
RTVSPropertyOp21
 70
     1
102
RTVSPropertyOp22
 70
     1
102
RTVSPropertyOp23
 70
     1
102
RTVSPropertyOp24
 70
     1
102
RTVSPropertyOp25
 70
     1
102
RTVSPropertyOp26
 70
     1
102
RTVSPropertyOp27
 70
     1
102
RTVSPropertyOp28
 70
     1
102
RTVSPropertyOp29
 70
     1
102
RTVSPropertyOp30
 70
     1
102
RTVSPropertyOp31
 70
     1
102
RTVSPropertyOp32
 70
     1
102
RTVSPropertyOp33
 70
     1
102
RTVSPropertyOp34
 70
     1
102
RTVSPropertyOp35
 70
     1
102
RTVSPropertyOp36
 70
     1
102
RTVSPropertyOp37
 70
     1
102
RTVSPropertyOp38
 70
     1
102
RTVSPropertyOp39
 70
     1
102
RTVSPropertyOp40
 70
     1
102
RTVSPropertyOp41
 70
     1
102
RTVSPropertyOp42
 70
     1
102
RTVSPropertyOp43
 70
     1
102
RTVSPropertyOp44
 70
     1
102
RTVSPropertyOp45
 70
     1
102
RTVSPropertyOp46
 70
     1
102
RTVSPropertyOp47
 70
     1
102
RTVSPropertyOp48
 70
     1
102
RTVSPropertyOp49
 70
     1
102
RTVSPropertyOp50
 70
     1
102
RTVSPropertyOp51
 70
     0
102
RTVSPropertyOp52
 70
     0
102
RTVSPropertyOp53
 70
     1
102
RTVSPropertyOp54
 70
     1
102
RTVSPropertyOp55
 70
     1
102
RTVSPropertyOp56
 70
     1
102
RTVSPropertyOp57
 70
     1
102
RTVSPropertyOp58
 70
     1
102
RTVSPropertyOp59
 70
     1
102
RTVSPropertyOp60
 70
     1
102
RTVSPropertyOp61
 70
     1
102
RTVSPropertyOp62
 70
     1
  0
XRECORD
  5
3C803
102
{ACAD_REACTORS
330
3C802
102
}
330
3C802
100
AcDbXrecord
280
     1
102
RTVSPost2010Prop28
280
     0
102
RTVSPost2010PropOp28
 70
     1
102
RTVSPost2010Prop29
280
     1
102
RTVSPost2010PropOp29
 70
     1
102
RTVSPost2010Prop30
280
     1
102
RTVSPost2010PropOp30
 70
     1
102
RTVSPost2010Prop31
280
     0
102
RTVSPost2010PropOp31
 70
     1
102
RTVSPost2010Prop32
280
     0
102
RTVSPost2010PropOp32
 70
     1
102
RTVSPost2010Prop33
280
     0
102
RTVSPost2010PropOp33
 70
     1
102
RTVSPost2010Prop34
280
     0
102
RTVSPost2010PropOp34
 70
     1
102
RTVSPost2010Prop35
280
     0
102
RTVSPost2010PropOp35
 70
     1
102
RTVSPost2010Prop36
280
     0
102
RTVSPost2010PropOp36
 70
     1
102
RTVSPost2010Prop37
 90
       50
102
RTVSPost2010PropOp37
 70
     0
102
RTVSPost2010Prop38
140
0.0
102
RTVSPost2010PropOp38
 70
     0
102
RTVSPost2010Prop39
140
1.0
102
RTVSPost2010PropOp39
 70
     0
102
RTVSPost2010Prop40
 90
        0
102
RTVSPost2010PropOp40
 70
     0
102
RTVSPost2010Prop41ColorIndex
 90
       18
102
RTVSPost2010Prop41ColorRGB
 90
        0
102
RTVSPost2010PropOp41
 70
     0
102
RTVSPost2010Prop42
 90
       50
102
RTVSPost2010PropOp42
 70
     0
102
RTVSPost2010Prop43
 90
        3
102
RTVSPost2010PropOp43
 70
     0
102
RTVSPost2010Prop44ColorIndex
 90
        5
102
RTVSPost2010Prop44ColorRGB
 90
      255
102
RTVSPost2010PropOp44
 70
     0
102
RTVSPost2010Prop45
280
     0
102
RTVSPost2010PropOp45
 70
     1
102
RTVSPost2010Prop46
 90
       50
102
RTVSPost2010PropOp46
 70
     0
102
RTVSPost2010Prop47
 90
       50
102
RTVSPost2010PropOp47
 70
     0
102
RTVSPost2010Prop48
 90
       50
102
RTVSPost2010PropOp48
 70
     0
102
RTVSPost2010Prop49
280
     0
102
RTVSPost2010PropOp49
 70
     1
102
RTVSPost2010Prop50
 90
       50
102
RTVSPost2010PropOp50
 70
     0
102
RTVSPost2010Prop51ColorIndex
 90
      256
102
RTVSPost2010Prop51ColorRGB
 90
-16777216
102
RTVSPost2010PropOp51
 70
     0
102
RTVSPost2010Prop52
140
1.0
102
RTVSPost2010PropOp52
 70
     0
102
RTVSPost2010Prop53
 90
        2
102
RTVSPost2010PropOp53
 70
     0
102
RTVSPost2010Prop54
  1
strokes_ogs.tif
102
RTVSPost2010PropOp54
 70
     0
102
RTVSPost2010Prop55
280
     0
102
RTVSPost2010PropOp55
 70
     1
102
RTVSPost2010Prop56
140
1.0
102
RTVSPost2010PropOp56
 70
     0
102
RTVSPost2010Prop57
140
1.0
102
RTVSPost2010PropOp57
 70
     0
102
RTVSPropertyOp0
 70
     0
102
RTVSPropertyOp1
 70
     0
102
RTVSPropertyOp2
 70
     0
102
RTVSPropertyOp3
 70
     0
102
RTVSPropertyOp4
 70
     0
102
RTVSPropertyOp5
 70
     0
102
RTVSPropertyOp6
 70
     0
102
RTVSPropertyOp7
 70
     0
102
RTVSPropertyOp8
 70
     0
102
RTVSPropertyOp9
 70
     0
102
RTVSPropertyOp10
 70
     0
102
RTVSPropertyOp11
 70
     0
102
RTVSPropertyOp12
 70
     0
102
RTVSPropertyOp13
 70
     0
102
RTVSPropertyOp14
 70
     2
102
RTVSPropertyOp15
 70
     0
102
RTVSPropertyOp16
 70
     0
102
RTVSPropertyOp17
 70
     0
102
RTVSPropertyOp18
 70
     0
102
RTVSPropertyOp19
 70
     0
102
RTVSPropertyOp20
 70
     0
102
RTVSPropertyOp21
 70
     0
102
RTVSPropertyOp22
 70
     0
102
RTVSPropertyOp23
 70
     0
102
RTVSPropertyOp24
 70
     0
102
RTVSPropertyOp25
 70
     0
102
RTVSPropertyOp26
 70
     0
102
RTVSPropertyOp27
 70
     0
102
RTVSPropertyOp28
 70
     1
102
RTVSPropertyOp29
 70
     1
102
RTVSPropertyOp30
 70
     1
102
RTVSPropertyOp31
 70
     1
102
RTVSPropertyOp32
 70
     1
102
RTVSPropertyOp33
 70
     1
102
RTVSPropertyOp34
 70
     1
102
RTVSPropertyOp35
 70
     1
102
RTVSPropertyOp36
 70
     1
102
RTVSPropertyOp37
 70
     0
102
RTVSPropertyOp38
 70
     0
102
RTVSPropertyOp39
 70
     0
102
RTVSPropertyOp40
 70
     0
102
RTVSPropertyOp41
 70
     0
102
RTVSPropertyOp42
 70
     0
102
RTVSPropertyOp43
 70
     0
102
RTVSPropertyOp44
 70
     0
102
RTVSPropertyOp45
 70
     1
102
RTVSPropertyOp46
 70
     0
102
RTVSPropertyOp47
 70
     0
102
RTVSPropertyOp48
 70
     0
102
RTVSPropertyOp49
 70
     1
102
RTVSPropertyOp50
 70
     0
102
RTVSPropertyOp51
 70
     0
102
RTVSPropertyOp52
 70
     0
102
RTVSPropertyOp53
 70
     0
102
RTVSPropertyOp54
 70
     0
102
RTVSPropertyOp55
 70
     1
102
RTVSPropertyOp56
 70
     0
102
RTVSPropertyOp57
 70
     0
102
RTVSPropertyOp58
 70
     0
102
RTVSPropertyOp59
 70
     0
102
RTVSPropertyOp60
 70
     0
102
RTVSPropertyOp61
 70
     0
102
RTVSPropertyOp62
 70
     0
  0
XRECORD
  5
3C7E9
102
{ACAD_REACTORS
330
3C7E8
102
}
330
3C7E8
100
AcDbXrecord
280
     1
102
RTVSPost2010Prop28
280
     0
102
RTVSPost2010PropOp28
 70
     1
102
RTVSPost2010Prop29
280
     1
102
RTVSPost2010PropOp29
 70
     1
102
RTVSPost2010Prop30
280
     1
102
RTVSPost2010PropOp30
 70
     1
102
RTVSPost2010Prop31
280
     0
102
RTVSPost2010PropOp31
 70
     1
102
RTVSPost2010Prop32
280
     0
102
RTVSPost2010PropOp32
 70
     1
102
RTVSPost2010Prop33
280
     0
102
RTVSPost2010PropOp33
 70
     1
102
RTVSPost2010Prop34
280
     0
102
RTVSPost2010PropOp34
 70
     1
102
RTVSPost2010Prop35
280
     0
102
RTVSPost2010PropOp35
 70
     1
102
RTVSPost2010Prop36
280
     0
102
RTVSPost2010PropOp36
 70
     1
102
RTVSPost2010Prop37
 90
       50
102
RTVSPost2010PropOp37
 70
     1
102
RTVSPost2010Prop38
140
0.0
102
RTVSPost2010PropOp38
 70
     1
102
RTVSPost2010Prop39
140
1.0
102
RTVSPost2010PropOp39
 70
     1
102
RTVSPost2010Prop40
 90
        0
102
RTVSPost2010PropOp40
 70
     1
102
RTVSPost2010Prop41ColorIndex
 90
       18
102
RTVSPost2010Prop41ColorRGB
 90
        0
102
RTVSPost2010PropOp41
 70
     1
102
RTVSPost2010Prop42
 90
       50
102
RTVSPost2010PropOp42
 70
     1
102
RTVSPost2010Prop43
 90
        3
102
RTVSPost2010PropOp43
 70
     1
102
RTVSPost2010Prop44ColorIndex
 90
        5
102
RTVSPost2010Prop44ColorRGB
 90
      255
102
RTVSPost2010PropOp44
 70
     1
102
RTVSPost2010Prop45
280
     0
102
RTVSPost2010PropOp45
 70
     1
102
RTVSPost2010Prop46
 90
       50
102
RTVSPost2010PropOp46
 70
     1
102
RTVSPost2010Prop47
 90
       50
102
RTVSPost2010PropOp47
 70
     1
102
RTVSPost2010Prop48
 90
       50
102
RTVSPost2010PropOp48
 70
     1
102
RTVSPost2010Prop49
280
     0
102
RTVSPost2010PropOp49
 70
     1
102
RTVSPost2010Prop50
 90
       50
102
RTVSPost2010PropOp50
 70
     1
102
RTVSPost2010Prop51ColorIndex
 90
      256
102
RTVSPost2010Prop51ColorRGB
 90
-16777216
102
RTVSPost2010PropOp51
 70
     0
102
RTVSPost2010Prop52
140
1.0
102
RTVSPost2010PropOp52
 70
     0
102
RTVSPost2010Prop53
 90
        2
102
RTVSPost2010PropOp53
 70
     1
102
RTVSPost2010Prop54
  1
strokes_ogs.tif
102
RTVSPost2010PropOp54
 70
     1
102
RTVSPost2010Prop55
280
     0
102
RTVSPost2010PropOp55
 70
     1
102
RTVSPost2010Prop56
140
1.0
102
RTVSPost2010PropOp56
 70
     1
102
RTVSPost2010Prop57
140
1.0
102
RTVSPost2010PropOp57
 70
     1
102
RTVSPropertyOp0
 70
     1
102
RTVSPropertyOp1
 70
     1
102
RTVSPropertyOp2
 70
     1
102
RTVSPropertyOp3
 70
     1
102
RTVSPropertyOp4
 70
     1
102
RTVSPropertyOp5
 70
     1
102
RTVSPropertyOp6
 70
     1
102
RTVSPropertyOp7
 70
     1
102
RTVSPropertyOp8
 70
     1
102
RTVSPropertyOp9
 70
     1
102
RTVSPropertyOp10
 70
     1
102
RTVSPropertyOp11
 70
     1
102
RTVSPropertyOp12
 70
     1
102
RTVSPropertyOp13
 70
     1
102
RTVSPropertyOp14
 70
     1
102
RTVSPropertyOp15
 70
     1
102
RTVSPropertyOp16
 70
     1
102
RTVSPropertyOp17
 70
     1
102
RTVSPropertyOp18
 70
     1
102
RTVSPropertyOp19
 70
     1
102
RTVSPropertyOp20
 70
     1
102
RTVSPropertyOp21
 70
     1
102
RTVSPropertyOp22
 70
     1
102
RTVSPropertyOp23
 70
     1
102
RTVSPropertyOp24
 70
     1
102
RTVSPropertyOp25
 70
     1
102
RTVSPropertyOp26
 70
     1
102
RTVSPropertyOp27
 70
     1
102
RTVSPropertyOp28
 70
     1
102
RTVSPropertyOp29
 70
     1
102
RTVSPropertyOp30
 70
     1
102
RTVSPropertyOp31
 70
     1
102
RTVSPropertyOp32
 70
     1
102
RTVSPropertyOp33
 70
     1
102
RTVSPropertyOp34
 70
     1
102
RTVSPropertyOp35
 70
     1
102
RTVSPropertyOp36
 70
     1
102
RTVSPropertyOp37
 70
     1
102
RTVSPropertyOp38
 70
     1
102
RTVSPropertyOp39
 70
     1
102
RTVSPropertyOp40
 70
     1
102
RTVSPropertyOp41
 70
     1
102
RTVSPropertyOp42
 70
     1
102
RTVSPropertyOp43
 70
     1
102
RTVSPropertyOp44
 70
     1
102
RTVSPropertyOp45
 70
     1
102
RTVSPropertyOp46
 70
     1
102
RTVSPropertyOp47
 70
     1
102
RTVSPropertyOp48
 70
     1
102
RTVSPropertyOp49
 70
     1
102
RTVSPropertyOp50
 70
     1
102
RTVSPropertyOp51
 70
     0
102
RTVSPropertyOp52
 70
     0
102
RTVSPropertyOp53
 70
     1
102
RTVSPropertyOp54
 70
     1
102
RTVSPropertyOp55
 70
     1
102
RTVSPropertyOp56
 70
     1
102
RTVSPropertyOp57
 70
     1
102
RTVSPropertyOp58
 70
     1
102
RTVSPropertyOp59
 70
     1
102
RTVSPropertyOp60
 70
     1
102
RTVSPropertyOp61
 70
     1
102
RTVSPropertyOp62
 70
     1
  0
XRECORD
  5
3C7FF
102
{ACAD_REACTORS
330
3C7FE
102
}
330
3C7FE
100
AcDbXrecord
280
     1
102
RTVSPost2010Prop28
280
     0
102
RTVSPost2010PropOp28
 70
     1
102
RTVSPost2010Prop29
280
     1
102
RTVSPost2010PropOp29
 70
     1
102
RTVSPost2010Prop30
280
     1
102
RTVSPost2010PropOp30
 70
     1
102
RTVSPost2010Prop31
280
     0
102
RTVSPost2010PropOp31
 70
     1
102
RTVSPost2010Prop32
280
     0
102
RTVSPost2010PropOp32
 70
     1
102
RTVSPost2010Prop33
280
     0
102
RTVSPost2010PropOp33
 70
     1
102
RTVSPost2010Prop34
280
     0
102
RTVSPost2010PropOp34
 70
     1
102
RTVSPost2010Prop35
280
     0
102
RTVSPost2010PropOp35
 70
     1
102
RTVSPost2010Prop36
280
     0
102
RTVSPost2010PropOp36
 70
     1
102
RTVSPost2010Prop37
 90
       50
102
RTVSPost2010PropOp37
 70
     1
102
RTVSPost2010Prop38
140
0.0
102
RTVSPost2010PropOp38
 70
     1
102
RTVSPost2010Prop39
140
1.0
102
RTVSPost2010PropOp39
 70
     1
102
RTVSPost2010Prop40
 90
        0
102
RTVSPost2010PropOp40
 70
     1
102
RTVSPost2010Prop41ColorIndex
 90
       18
102
RTVSPost2010Prop41ColorRGB
 90
        0
102
RTVSPost2010PropOp41
 70
     1
102
RTVSPost2010Prop42
 90
       50
102
RTVSPost2010PropOp42
 70
     1
102
RTVSPost2010Prop43
 90
        3
102
RTVSPost2010PropOp43
 70
     1
102
RTVSPost2010Prop44ColorIndex
 90
        5
102
RTVSPost2010Prop44ColorRGB
 90
      255
102
RTVSPost2010PropOp44
 70
     1
102
RTVSPost2010Prop45
280
     0
102
RTVSPost2010PropOp45
 70
     1
102
RTVSPost2010Prop46
 90
       50
102
RTVSPost2010PropOp46
 70
     1
102
RTVSPost2010Prop47
 90
       50
102
RTVSPost2010PropOp47
 70
     1
102
RTVSPost2010Prop48
 90
       50
102
RTVSPost2010PropOp48
 70
     1
102
RTVSPost2010Prop49
280
     0
102
RTVSPost2010PropOp49
 70
     1
102
RTVSPost2010Prop50
 90
       50
102
RTVSPost2010PropOp50
 70
     1
102
RTVSPost2010Prop51ColorIndex
 90
      256
102
RTVSPost2010Prop51ColorRGB
 90
-16777216
102
RTVSPost2010PropOp51
 70
     0
102
RTVSPost2010Prop52
140
1.0
102
RTVSPost2010PropOp52
 70
     0
102
RTVSPost2010Prop53
 90
        2
102
RTVSPost2010PropOp53
 70
     1
102
RTVSPost2010Prop54
  1
strokes_ogs.tif
102
RTVSPost2010PropOp54
 70
     1
102
RTVSPost2010Prop55
280
     0
102
RTVSPost2010PropOp55
 70
     1
102
RTVSPost2010Prop56
140
1.0
102
RTVSPost2010PropOp56
 70
     1
102
RTVSPost2010Prop57
140
1.0
102
RTVSPost2010PropOp57
 70
     1
102
RTVSPropertyOp0
 70
     1
102
RTVSPropertyOp1
 70
     1
102
RTVSPropertyOp2
 70
     1
102
RTVSPropertyOp3
 70
     1
102
RTVSPropertyOp4
 70
     1
102
RTVSPropertyOp5
 70
     1
102
RTVSPropertyOp6
 70
     1
102
RTVSPropertyOp7
 70
     1
102
RTVSPropertyOp8
 70
     1
102
RTVSPropertyOp9
 70
     1
102
RTVSPropertyOp10
 70
     1
102
RTVSPropertyOp11
 70
     1
102
RTVSPropertyOp12
 70
     1
102
RTVSPropertyOp13
 70
     1
102
RTVSPropertyOp14
 70
     1
102
RTVSPropertyOp15
 70
     1
102
RTVSPropertyOp16
 70
     1
102
RTVSPropertyOp17
 70
     1
102
RTVSPropertyOp18
 70
     1
102
RTVSPropertyOp19
 70
     1
102
RTVSPropertyOp20
 70
     1
102
RTVSPropertyOp21
 70
     1
102
RTVSPropertyOp22
 70
     1
102
RTVSPropertyOp23
 70
     1
102
RTVSPropertyOp24
 70
     1
102
RTVSPropertyOp25
 70
     1
102
RTVSPropertyOp26
 70
     1
102
RTVSPropertyOp27
 70
     1
102
RTVSPropertyOp28
 70
     1
102
RTVSPropertyOp29
 70
     1
102
RTVSPropertyOp30
 70
     1
102
RTVSPropertyOp31
 70
     1
102
RTVSPropertyOp32
 70
     1
102
RTVSPropertyOp33
 70
     1
102
RTVSPropertyOp34
 70
     1
102
RTVSPropertyOp35
 70
     1
102
RTVSPropertyOp36
 70
     1
102
RTVSPropertyOp37
 70
     1
102
RTVSPropertyOp38
 70
     1
102
RTVSPropertyOp39
 70
     1
102
RTVSPropertyOp40
 70
     1
102
RTVSPropertyOp41
 70
     1
102
RTVSPropertyOp42
 70
     1
102
RTVSPropertyOp43
 70
     1
102
RTVSPropertyOp44
 70
     1
102
RTVSPropertyOp45
 70
     1
102
RTVSPropertyOp46
 70
     1
102
RTVSPropertyOp47
 70
     1
102
RTVSPropertyOp48
 70
     1
102
RTVSPropertyOp49
 70
     1
102
RTVSPropertyOp50
 70
     1
102
RTVSPropertyOp51
 70
     0
102
RTVSPropertyOp52
 70
     0
102
RTVSPropertyOp53
 70
     1
102
RTVSPropertyOp54
 70
     1
102
RTVSPropertyOp55
 70
     1
102
RTVSPropertyOp56
 70
     1
102
RTVSPropertyOp57
 70
     1
102
RTVSPropertyOp58
 70
     1
102
RTVSPropertyOp59
 70
     1
102
RTVSPropertyOp60
 70
     1
102
RTVSPropertyOp61
 70
     1
102
RTVSPropertyOp62
 70
     1
  0
XRECORD
  5
3C7FD
102
{ACAD_REACTORS
330
3C7FC
102
}
330
3C7FC
100
AcDbXrecord
280
     1
102
RTVSPost2010Prop28
280
     0
102
RTVSPost2010PropOp28
 70
     1
102
RTVSPost2010Prop29
280
     1
102
RTVSPost2010PropOp29
 70
     1
102
RTVSPost2010Prop30
280
     1
102
RTVSPost2010PropOp30
 70
     1
102
RTVSPost2010Prop31
280
     0
102
RTVSPost2010PropOp31
 70
     1
102
RTVSPost2010Prop32
280
     0
102
RTVSPost2010PropOp32
 70
     1
102
RTVSPost2010Prop33
280
     0
102
RTVSPost2010PropOp33
 70
     1
102
RTVSPost2010Prop34
280
     0
102
RTVSPost2010PropOp34
 70
     1
102
RTVSPost2010Prop35
280
     0
102
RTVSPost2010PropOp35
 70
     1
102
RTVSPost2010Prop36
280
     0
102
RTVSPost2010PropOp36
 70
     1
102
RTVSPost2010Prop37
 90
       50
102
RTVSPost2010PropOp37
 70
     1
102
RTVSPost2010Prop38
140
0.0
102
RTVSPost2010PropOp38
 70
     1
102
RTVSPost2010Prop39
140
1.0
102
RTVSPost2010PropOp39
 70
     1
102
RTVSPost2010Prop40
 90
        0
102
RTVSPost2010PropOp40
 70
     1
102
RTVSPost2010Prop41ColorIndex
 90
       18
102
RTVSPost2010Prop41ColorRGB
 90
        0
102
RTVSPost2010PropOp41
 70
     1
102
RTVSPost2010Prop42
 90
       50
102
RTVSPost2010PropOp42
 70
     1
102
RTVSPost2010Prop43
 90
        3
102
RTVSPost2010PropOp43
 70
     1
102
RTVSPost2010Prop44ColorIndex
 90
        5
102
RTVSPost2010Prop44ColorRGB
 90
      255
102
RTVSPost2010PropOp44
 70
     1
102
RTVSPost2010Prop45
280
     0
102
RTVSPost2010PropOp45
 70
     1
102
RTVSPost2010Prop46
 90
       50
102
RTVSPost2010PropOp46
 70
     1
102
RTVSPost2010Prop47
 90
       50
102
RTVSPost2010PropOp47
 70
     1
102
RTVSPost2010Prop48
 90
       50
102
RTVSPost2010PropOp48
 70
     1
102
RTVSPost2010Prop49
280
     0
102
RTVSPost2010PropOp49
 70
     1
102
RTVSPost2010Prop50
 90
       50
102
RTVSPost2010PropOp50
 70
     1
102
RTVSPost2010Prop51ColorIndex
 90
      256
102
RTVSPost2010Prop51ColorRGB
 90
-16777216
102
RTVSPost2010PropOp51
 70
     0
102
RTVSPost2010Prop52
140
1.0
102
RTVSPost2010PropOp52
 70
     0
102
RTVSPost2010Prop53
 90
        2
102
RTVSPost2010PropOp53
 70
     1
102
RTVSPost2010Prop54
  1
strokes_ogs.tif
102
RTVSPost2010PropOp54
 70
     1
102
RTVSPost2010Prop55
280
     0
102
RTVSPost2010PropOp55
 70
     1
102
RTVSPost2010Prop56
140
1.0
102
RTVSPost2010PropOp56
 70
     1
102
RTVSPost2010Prop57
140
1.0
102
RTVSPost2010PropOp57
 70
     1
102
RTVSPropertyOp0
 70
     1
102
RTVSPropertyOp1
 70
     1
102
RTVSPropertyOp2
 70
     1
102
RTVSPropertyOp3
 70
     1
102
RTVSPropertyOp4
 70
     1
102
RTVSPropertyOp5
 70
     1
102
RTVSPropertyOp6
 70
     1
102
RTVSPropertyOp7
 70
     1
102
RTVSPropertyOp8
 70
     1
102
RTVSPropertyOp9
 70
     1
102
RTVSPropertyOp10
 70
     1
102
RTVSPropertyOp11
 70
     1
102
RTVSPropertyOp12
 70
     1
102
RTVSPropertyOp13
 70
     1
102
RTVSPropertyOp14
 70
     1
102
RTVSPropertyOp15
 70
     1
102
RTVSPropertyOp16
 70
     1
102
RTVSPropertyOp17
 70
     1
102
RTVSPropertyOp18
 70
     1
102
RTVSPropertyOp19
 70
     1
102
RTVSPropertyOp20
 70
     1
102
RTVSPropertyOp21
 70
     1
102
RTVSPropertyOp22
 70
     1
102
RTVSPropertyOp23
 70
     1
102
RTVSPropertyOp24
 70
     1
102
RTVSPropertyOp25
 70
     1
102
RTVSPropertyOp26
 70
     1
102
RTVSPropertyOp27
 70
     1
102
RTVSPropertyOp28
 70
     1
102
RTVSPropertyOp29
 70
     1
102
RTVSPropertyOp30
 70
     1
102
RTVSPropertyOp31
 70
     1
102
RTVSPropertyOp32
 70
     1
102
RTVSPropertyOp33
 70
     1
102
RTVSPropertyOp34
 70
     1
102
RTVSPropertyOp35
 70
     1
102
RTVSPropertyOp36
 70
     1
102
RTVSPropertyOp37
 70
     1
102
RTVSPropertyOp38
 70
     1
102
RTVSPropertyOp39
 70
     1
102
RTVSPropertyOp40
 70
     1
102
RTVSPropertyOp41
 70
     1
102
RTVSPropertyOp42
 70
     1
102
RTVSPropertyOp43
 70
     1
102
RTVSPropertyOp44
 70
     1
102
RTVSPropertyOp45
 70
     1
102
RTVSPropertyOp46
 70
     1
102
RTVSPropertyOp47
 70
     1
102
RTVSPropertyOp48
 70
     1
102
RTVSPropertyOp49
 70
     1
102
RTVSPropertyOp50
 70
     1
102
RTVSPropertyOp51
 70
     0
102
RTVSPropertyOp52
 70
     0
102
RTVSPropertyOp53
 70
     1
102
RTVSPropertyOp54
 70
     1
102
RTVSPropertyOp55
 70
     1
102
RTVSPropertyOp56
 70
     1
102
RTVSPropertyOp57
 70
     1
102
RTVSPropertyOp58
 70
     1
102
RTVSPropertyOp59
 70
     1
102
RTVSPropertyOp60
 70
     1
102
RTVSPropertyOp61
 70
     1
102
RTVSPropertyOp62
 70
     1
  0
XRECORD
  5
3C7F7
102
{ACAD_REACTORS
330
3C7F6
102
}
330
3C7F6
100
AcDbXrecord
280
     1
102
RTVSPost2010Prop28
280
     0
102
RTVSPost2010PropOp28
 70
     1
102
RTVSPost2010Prop29
280
     1
102
RTVSPost2010PropOp29
 70
     1
102
RTVSPost2010Prop30
280
     1
102
RTVSPost2010PropOp30
 70
     1
102
RTVSPost2010Prop31
280
     0
102
RTVSPost2010PropOp31
 70
     1
102
RTVSPost2010Prop32
280
     0
102
RTVSPost2010PropOp32
 70
     1
102
RTVSPost2010Prop33
280
     0
102
RTVSPost2010PropOp33
 70
     1
102
RTVSPost2010Prop34
280
     0
102
RTVSPost2010PropOp34
 70
     1
102
RTVSPost2010Prop35
280
     0
102
RTVSPost2010PropOp35
 70
     1
102
RTVSPost2010Prop36
280
     0
102
RTVSPost2010PropOp36
 70
     1
102
RTVSPost2010Prop37
 90
       50
102
RTVSPost2010PropOp37
 70
     1
102
RTVSPost2010Prop38
140
0.0
102
RTVSPost2010PropOp38
 70
     1
102
RTVSPost2010Prop39
140
1.0
102
RTVSPost2010PropOp39
 70
     1
102
RTVSPost2010Prop40
 90
        0
102
RTVSPost2010PropOp40
 70
     1
102
RTVSPost2010Prop41ColorIndex
 90
       18
102
RTVSPost2010Prop41ColorRGB
 90
        0
102
RTVSPost2010PropOp41
 70
     1
102
RTVSPost2010Prop42
 90
       50
102
RTVSPost2010PropOp42
 70
     1
102
RTVSPost2010Prop43
 90
        3
102
RTVSPost2010PropOp43
 70
     1
102
RTVSPost2010Prop44ColorIndex
 90
        5
102
RTVSPost2010Prop44ColorRGB
 90
      255
102
RTVSPost2010PropOp44
 70
     1
102
RTVSPost2010Prop45
280
     0
102
RTVSPost2010PropOp45
 70
     1
102
RTVSPost2010Prop46
 90
       50
102
RTVSPost2010PropOp46
 70
     1
102
RTVSPost2010Prop47
 90
       50
102
RTVSPost2010PropOp47
 70
     1
102
RTVSPost2010Prop48
 90
       50
102
RTVSPost2010PropOp48
 70
     1
102
RTVSPost2010Prop49
280
     0
102
RTVSPost2010PropOp49
 70
     1
102
RTVSPost2010Prop50
 90
       50
102
RTVSPost2010PropOp50
 70
     1
102
RTVSPost2010Prop51ColorIndex
 90
      256
102
RTVSPost2010Prop51ColorRGB
 90
-16777216
102
RTVSPost2010PropOp51
 70
     0
102
RTVSPost2010Prop52
140
1.0
102
RTVSPost2010PropOp52
 70
     0
102
RTVSPost2010Prop53
 90
        2
102
RTVSPost2010PropOp53
 70
     1
102
RTVSPost2010Prop54
  1
strokes_ogs.tif
102
RTVSPost2010PropOp54
 70
     1
102
RTVSPost2010Prop55
280
     0
102
RTVSPost2010PropOp55
 70
     1
102
RTVSPost2010Prop56
140
1.0
102
RTVSPost2010PropOp56
 70
     1
102
RTVSPost2010Prop57
140
1.0
102
RTVSPost2010PropOp57
 70
     1
102
RTVSPropertyOp0
 70
     1
102
RTVSPropertyOp1
 70
     1
102
RTVSPropertyOp2
 70
     1
102
RTVSPropertyOp3
 70
     1
102
RTVSPropertyOp4
 70
     1
102
RTVSPropertyOp5
 70
     1
102
RTVSPropertyOp6
 70
     1
102
RTVSPropertyOp7
 70
     1
102
RTVSPropertyOp8
 70
     1
102
RTVSPropertyOp9
 70
     1
102
RTVSPropertyOp10
 70
     1
102
RTVSPropertyOp11
 70
     1
102
RTVSPropertyOp12
 70
     1
102
RTVSPropertyOp13
 70
     1
102
RTVSPropertyOp14
 70
     1
102
RTVSPropertyOp15
 70
     1
102
RTVSPropertyOp16
 70
     1
102
RTVSPropertyOp17
 70
     1
102
RTVSPropertyOp18
 70
     1
102
RTVSPropertyOp19
 70
     1
102
RTVSPropertyOp20
 70
     1
102
RTVSPropertyOp21
 70
     1
102
RTVSPropertyOp22
 70
     1
102
RTVSPropertyOp23
 70
     1
102
RTVSPropertyOp24
 70
     1
102
RTVSPropertyOp25
 70
     1
102
RTVSPropertyOp26
 70
     1
102
RTVSPropertyOp27
 70
     1
102
RTVSPropertyOp28
 70
     1
102
RTVSPropertyOp29
 70
     1
102
RTVSPropertyOp30
 70
     1
102
RTVSPropertyOp31
 70
     1
102
RTVSPropertyOp32
 70
     1
102
RTVSPropertyOp33
 70
     1
102
RTVSPropertyOp34
 70
     1
102
RTVSPropertyOp35
 70
     1
102
RTVSPropertyOp36
 70
     1
102
RTVSPropertyOp37
 70
     1
102
RTVSPropertyOp38
 70
     1
102
RTVSPropertyOp39
 70
     1
102
RTVSPropertyOp40
 70
     1
102
RTVSPropertyOp41
 70
     1
102
RTVSPropertyOp42
 70
     1
102
RTVSPropertyOp43
 70
     1
102
RTVSPropertyOp44
 70
     1
102
RTVSPropertyOp45
 70
     1
102
RTVSPropertyOp46
 70
     1
102
RTVSPropertyOp47
 70
     1
102
RTVSPropertyOp48
 70
     1
102
RTVSPropertyOp49
 70
     1
102
RTVSPropertyOp50
 70
     1
102
RTVSPropertyOp51
 70
     0
102
RTVSPropertyOp52
 70
     0
102
RTVSPropertyOp53
 70
     1
102
RTVSPropertyOp54
 70
     1
102
RTVSPropertyOp55
 70
     1
102
RTVSPropertyOp56
 70
     1
102
RTVSPropertyOp57
 70
     1
102
RTVSPropertyOp58
 70
     1
102
RTVSPropertyOp59
 70
     1
102
RTVSPropertyOp60
 70
     1
102
RTVSPropertyOp61
 70
     1
102
RTVSPropertyOp62
 70
     1
  0
XRECORD
  5
3C7F9
102
{ACAD_REACTORS
330
3C7F8
102
}
330
3C7F8
100
AcDbXrecord
280
     1
102
RTVSPost2010Prop28
280
     0
102
RTVSPost2010PropOp28
 70
     1
102
RTVSPost2010Prop29
280
     1
102
RTVSPost2010PropOp29
 70
     1
102
RTVSPost2010Prop30
280
     1
102
RTVSPost2010PropOp30
 70
     1
102
RTVSPost2010Prop31
280
     0
102
RTVSPost2010PropOp31
 70
     1
102
RTVSPost2010Prop32
280
     0
102
RTVSPost2010PropOp32
 70
     1
102
RTVSPost2010Prop33
280
     0
102
RTVSPost2010PropOp33
 70
     1
102
RTVSPost2010Prop34
280
     0
102
RTVSPost2010PropOp34
 70
     1
102
RTVSPost2010Prop35
280
     0
102
RTVSPost2010PropOp35
 70
     1
102
RTVSPost2010Prop36
280
     0
102
RTVSPost2010PropOp36
 70
     1
102
RTVSPost2010Prop37
 90
       50
102
RTVSPost2010PropOp37
 70
     1
102
RTVSPost2010Prop38
140
0.0
102
RTVSPost2010PropOp38
 70
     1
102
RTVSPost2010Prop39
140
1.0
102
RTVSPost2010PropOp39
 70
     1
102
RTVSPost2010Prop40
 90
        0
102
RTVSPost2010PropOp40
 70
     1
102
RTVSPost2010Prop41ColorIndex
 90
       18
102
RTVSPost2010Prop41ColorRGB
 90
        0
102
RTVSPost2010PropOp41
 70
     1
102
RTVSPost2010Prop42
 90
       50
102
RTVSPost2010PropOp42
 70
     1
102
RTVSPost2010Prop43
 90
        3
102
RTVSPost2010PropOp43
 70
     1
102
RTVSPost2010Prop44ColorIndex
 90
        5
102
RTVSPost2010Prop44ColorRGB
 90
      255
102
RTVSPost2010PropOp44
 70
     1
102
RTVSPost2010Prop45
280
     0
102
RTVSPost2010PropOp45
 70
     1
102
RTVSPost2010Prop46
 90
       50
102
RTVSPost2010PropOp46
 70
     1
102
RTVSPost2010Prop47
 90
       50
102
RTVSPost2010PropOp47
 70
     1
102
RTVSPost2010Prop48
 90
       50
102
RTVSPost2010PropOp48
 70
     1
102
RTVSPost2010Prop49
280
     0
102
RTVSPost2010PropOp49
 70
     1
102
RTVSPost2010Prop50
 90
       50
102
RTVSPost2010PropOp50
 70
     1
102
RTVSPost2010Prop51ColorIndex
 90
      256
102
RTVSPost2010Prop51ColorRGB
 90
-16777216
102
RTVSPost2010PropOp51
 70
     0
102
RTVSPost2010Prop52
140
1.0
102
RTVSPost2010PropOp52
 70
     0
102
RTVSPost2010Prop53
 90
        2
102
RTVSPost2010PropOp53
 70
     1
102
RTVSPost2010Prop54
  1
strokes_ogs.tif
102
RTVSPost2010PropOp54
 70
     1
102
RTVSPost2010Prop55
280
     0
102
RTVSPost2010PropOp55
 70
     1
102
RTVSPost2010Prop56
140
1.0
102
RTVSPost2010PropOp56
 70
     1
102
RTVSPost2010Prop57
140
1.0
102
RTVSPost2010PropOp57
 70
     1
102
RTVSPropertyOp0
 70
     1
102
RTVSPropertyOp1
 70
     1
102
RTVSPropertyOp2
 70
     1
102
RTVSPropertyOp3
 70
     1
102
RTVSPropertyOp4
 70
     1
102
RTVSPropertyOp5
 70
     1
102
RTVSPropertyOp6
 70
     1
102
RTVSPropertyOp7
 70
     1
102
RTVSPropertyOp8
 70
     1
102
RTVSPropertyOp9
 70
     1
102
RTVSPropertyOp10
 70
     1
102
RTVSPropertyOp11
 70
     1
102
RTVSPropertyOp12
 70
     1
102
RTVSPropertyOp13
 70
     1
102
RTVSPropertyOp14
 70
     1
102
RTVSPropertyOp15
 70
     1
102
RTVSPropertyOp16
 70
     1
102
RTVSPropertyOp17
 70
     1
102
RTVSPropertyOp18
 70
     1
102
RTVSPropertyOp19
 70
     1
102
RTVSPropertyOp20
 70
     1
102
RTVSPropertyOp21
 70
     1
102
RTVSPropertyOp22
 70
     1
102
RTVSPropertyOp23
 70
     1
102
RTVSPropertyOp24
 70
     1
102
RTVSPropertyOp25
 70
     1
102
RTVSPropertyOp26
 70
     1
102
RTVSPropertyOp27
 70
     1
102
RTVSPropertyOp28
 70
     1
102
RTVSPropertyOp29
 70
     1
102
RTVSPropertyOp30
 70
     1
102
RTVSPropertyOp31
 70
     1
102
RTVSPropertyOp32
 70
     1
102
RTVSPropertyOp33
 70
     1
102
RTVSPropertyOp34
 70
     1
102
RTVSPropertyOp35
 70
     1
102
RTVSPropertyOp36
 70
     1
102
RTVSPropertyOp37
 70
     1
102
RTVSPropertyOp38
 70
     1
102
RTVSPropertyOp39
 70
     1
102
RTVSPropertyOp40
 70
     1
102
RTVSPropertyOp41
 70
     1
102
RTVSPropertyOp42
 70
     1
102
RTVSPropertyOp43
 70
     1
102
RTVSPropertyOp44
 70
     1
102
RTVSPropertyOp45
 70
     1
102
RTVSPropertyOp46
 70
     1
102
RTVSPropertyOp47
 70
     1
102
RTVSPropertyOp48
 70
     1
102
RTVSPropertyOp49
 70
     1
102
RTVSPropertyOp50
 70
     1
102
RTVSPropertyOp51
 70
     0
102
RTVSPropertyOp52
 70
     0
102
RTVSPropertyOp53
 70
     1
102
RTVSPropertyOp54
 70
     1
102
RTVSPropertyOp55
 70
     1
102
RTVSPropertyOp56
 70
     1
102
RTVSPropertyOp57
 70
     1
102
RTVSPropertyOp58
 70
     1
102
RTVSPropertyOp59
 70
     1
102
RTVSPropertyOp60
 70
     1
102
RTVSPropertyOp61
 70
     1
102
RTVSPropertyOp62
 70
     1
  0
XRECORD
  5
3C7EF
102
{ACAD_REACTORS
330
3C7EE
102
}
330
3C7EE
100
AcDbXrecord
280
     1
102
RTVSPost2010Prop28
280
     0
102
RTVSPost2010PropOp28
 70
     1
102
RTVSPost2010Prop29
280
     1
102
RTVSPost2010PropOp29
 70
     1
102
RTVSPost2010Prop30
280
     1
102
RTVSPost2010PropOp30
 70
     1
102
RTVSPost2010Prop31
280
     0
102
RTVSPost2010PropOp31
 70
     1
102
RTVSPost2010Prop32
280
     0
102
RTVSPost2010PropOp32
 70
     1
102
RTVSPost2010Prop33
280
     0
102
RTVSPost2010PropOp33
 70
     1
102
RTVSPost2010Prop34
280
     0
102
RTVSPost2010PropOp34
 70
     1
102
RTVSPost2010Prop35
280
     0
102
RTVSPost2010PropOp35
 70
     1
102
RTVSPost2010Prop36
280
     0
102
RTVSPost2010PropOp36
 70
     1
102
RTVSPost2010Prop37
 90
       50
102
RTVSPost2010PropOp37
 70
     1
102
RTVSPost2010Prop38
140
0.0
102
RTVSPost2010PropOp38
 70
     1
102
RTVSPost2010Prop39
140
1.0
102
RTVSPost2010PropOp39
 70
     1
102
RTVSPost2010Prop40
 90
        0
102
RTVSPost2010PropOp40
 70
     1
102
RTVSPost2010Prop41ColorIndex
 90
       18
102
RTVSPost2010Prop41ColorRGB
 90
        0
102
RTVSPost2010PropOp41
 70
     1
102
RTVSPost2010Prop42
 90
       50
102
RTVSPost2010PropOp42
 70
     1
102
RTVSPost2010Prop43
 90
        3
102
RTVSPost2010PropOp43
 70
     1
102
RTVSPost2010Prop44ColorIndex
 90
        5
102
RTVSPost2010Prop44ColorRGB
 90
      255
102
RTVSPost2010PropOp44
 70
     1
102
RTVSPost2010Prop45
280
     0
102
RTVSPost2010PropOp45
 70
     1
102
RTVSPost2010Prop46
 90
       50
102
RTVSPost2010PropOp46
 70
     1
102
RTVSPost2010Prop47
 90
       50
102
RTVSPost2010PropOp47
 70
     1
102
RTVSPost2010Prop48
 90
       50
102
RTVSPost2010PropOp48
 70
     1
102
RTVSPost2010Prop49
280
     0
102
RTVSPost2010PropOp49
 70
     1
102
RTVSPost2010Prop50
 90
       50
102
RTVSPost2010PropOp50
 70
     1
102
RTVSPost2010Prop51ColorIndex
 90
      256
102
RTVSPost2010Prop51ColorRGB
 90
-16777216
102
RTVSPost2010PropOp51
 70
     0
102
RTVSPost2010Prop52
140
1.0
102
RTVSPost2010PropOp52
 70
     0
102
RTVSPost2010Prop53
 90
        2
102
RTVSPost2010PropOp53
 70
     1
102
RTVSPost2010Prop54
  1
strokes_ogs.tif
102
RTVSPost2010PropOp54
 70
     1
102
RTVSPost2010Prop55
280
     0
102
RTVSPost2010PropOp55
 70
     1
102
RTVSPost2010Prop56
140
1.0
102
RTVSPost2010PropOp56
 70
     1
102
RTVSPost2010Prop57
140
1.0
102
RTVSPost2010PropOp57
 70
     1
102
RTVSPropertyOp0
 70
     1
102
RTVSPropertyOp1
 70
     1
102
RTVSPropertyOp2
 70
     1
102
RTVSPropertyOp3
 70
     1
102
RTVSPropertyOp4
 70
     1
102
RTVSPropertyOp5
 70
     1
102
RTVSPropertyOp6
 70
     1
102
RTVSPropertyOp7
 70
     1
102
RTVSPropertyOp8
 70
     1
102
RTVSPropertyOp9
 70
     1
102
RTVSPropertyOp10
 70
     1
102
RTVSPropertyOp11
 70
     1
102
RTVSPropertyOp12
 70
     1
102
RTVSPropertyOp13
 70
     1
102
RTVSPropertyOp14
 70
     1
102
RTVSPropertyOp15
 70
     1
102
RTVSPropertyOp16
 70
     1
102
RTVSPropertyOp17
 70
     1
102
RTVSPropertyOp18
 70
     1
102
RTVSPropertyOp19
 70
     1
102
RTVSPropertyOp20
 70
     1
102
RTVSPropertyOp21
 70
     1
102
RTVSPropertyOp22
 70
     1
102
RTVSPropertyOp23
 70
     1
102
RTVSPropertyOp24
 70
     1
102
RTVSPropertyOp25
 70
     1
102
RTVSPropertyOp26
 70
     1
102
RTVSPropertyOp27
 70
     1
102
RTVSPropertyOp28
 70
     1
102
RTVSPropertyOp29
 70
     1
102
RTVSPropertyOp30
 70
     1
102
RTVSPropertyOp31
 70
     1
102
RTVSPropertyOp32
 70
     1
102
RTVSPropertyOp33
 70
     1
102
RTVSPropertyOp34
 70
     1
102
RTVSPropertyOp35
 70
     1
102
RTVSPropertyOp36
 70
     1
102
RTVSPropertyOp37
 70
     1
102
RTVSPropertyOp38
 70
     1
102
RTVSPropertyOp39
 70
     1
102
RTVSPropertyOp40
 70
     1
102
RTVSPropertyOp41
 70
     1
102
RTVSPropertyOp42
 70
     1
102
RTVSPropertyOp43
 70
     1
102
RTVSPropertyOp44
 70
     1
102
RTVSPropertyOp45
 70
     1
102
RTVSPropertyOp46
 70
     1
102
RTVSPropertyOp47
 70
     1
102
RTVSPropertyOp48
 70
     1
102
RTVSPropertyOp49
 70
     1
102
RTVSPropertyOp50
 70
     1
102
RTVSPropertyOp51
 70
     0
102
RTVSPropertyOp52
 70
     0
102
RTVSPropertyOp53
 70
     1
102
RTVSPropertyOp54
 70
     1
102
RTVSPropertyOp55
 70
     1
102
RTVSPropertyOp56
 70
     1
102
RTVSPropertyOp57
 70
     1
102
RTVSPropertyOp58
 70
     1
102
RTVSPropertyOp59
 70
     1
102
RTVSPropertyOp60
 70
     1
102
RTVSPropertyOp61
 70
     1
102
RTVSPropertyOp62
 70
     1
  0
XRECORD
  5
3C7E3
102
{ACAD_REACTORS
330
3C7E2
102
}
330
3C7E2
100
AcDbXrecord
280
     1
102
RTVSPost2010Prop28
280
     0
102
RTVSPost2010PropOp28
 70
     1
102
RTVSPost2010Prop29
280
     1
102
RTVSPost2010PropOp29
 70
     1
102
RTVSPost2010Prop30
280
     1
102
RTVSPost2010PropOp30
 70
     1
102
RTVSPost2010Prop31
280
     0
102
RTVSPost2010PropOp31
 70
     1
102
RTVSPost2010Prop32
280
     0
102
RTVSPost2010PropOp32
 70
     1
102
RTVSPost2010Prop33
280
     0
102
RTVSPost2010PropOp33
 70
     1
102
RTVSPost2010Prop34
280
     0
102
RTVSPost2010PropOp34
 70
     1
102
RTVSPost2010Prop35
280
     0
102
RTVSPost2010PropOp35
 70
     1
102
RTVSPost2010Prop36
280
     0
102
RTVSPost2010PropOp36
 70
     1
102
RTVSPost2010Prop37
 90
       50
102
RTVSPost2010PropOp37
 70
     1
102
RTVSPost2010Prop38
140
0.0
102
RTVSPost2010PropOp38
 70
     1
102
RTVSPost2010Prop39
140
1.0
102
RTVSPost2010PropOp39
 70
     1
102
RTVSPost2010Prop40
 90
        0
102
RTVSPost2010PropOp40
 70
     1
102
RTVSPost2010Prop41ColorIndex
 90
       18
102
RTVSPost2010Prop41ColorRGB
 90
        0
102
RTVSPost2010PropOp41
 70
     1
102
RTVSPost2010Prop42
 90
       50
102
RTVSPost2010PropOp42
 70
     1
102
RTVSPost2010Prop43
 90
        3
102
RTVSPost2010PropOp43
 70
     1
102
RTVSPost2010Prop44ColorIndex
 90
        5
102
RTVSPost2010Prop44ColorRGB
 90
      255
102
RTVSPost2010PropOp44
 70
     1
102
RTVSPost2010Prop45
280
     0
102
RTVSPost2010PropOp45
 70
     1
102
RTVSPost2010Prop46
 90
       50
102
RTVSPost2010PropOp46
 70
     1
102
RTVSPost2010Prop47
 90
       50
102
RTVSPost2010PropOp47
 70
     1
102
RTVSPost2010Prop48
 90
       50
102
RTVSPost2010PropOp48
 70
     1
102
RTVSPost2010Prop49
280
     0
102
RTVSPost2010PropOp49
 70
     1
102
RTVSPost2010Prop50
 90
       50
102
RTVSPost2010PropOp50
 70
     1
102
RTVSPost2010Prop51ColorIndex
 90
      256
102
RTVSPost2010Prop51ColorRGB
 90
-16777216
102
RTVSPost2010PropOp51
 70
     0
102
RTVSPost2010Prop52
140
1.0
102
RTVSPost2010PropOp52
 70
     0
102
RTVSPost2010Prop53
 90
        2
102
RTVSPost2010PropOp53
 70
     1
102
RTVSPost2010Prop54
  1
strokes_ogs.tif
102
RTVSPost2010PropOp54
 70
     1
102
RTVSPost2010Prop55
280
     0
102
RTVSPost2010PropOp55
 70
     1
102
RTVSPost2010Prop56
140
1.0
102
RTVSPost2010PropOp56
 70
     1
102
RTVSPost2010Prop57
140
1.0
102
RTVSPost2010PropOp57
 70
     1
102
RTVSPropertyOp0
 70
     1
102
RTVSPropertyOp1
 70
     1
102
RTVSPropertyOp2
 70
     1
102
RTVSPropertyOp3
 70
     1
102
RTVSPropertyOp4
 70
     1
102
RTVSPropertyOp5
 70
     1
102
RTVSPropertyOp6
 70
     1
102
RTVSPropertyOp7
 70
     1
102
RTVSPropertyOp8
 70
     1
102
RTVSPropertyOp9
 70
     1
102
RTVSPropertyOp10
 70
     1
102
RTVSPropertyOp11
 70
     1
102
RTVSPropertyOp12
 70
     1
102
RTVSPropertyOp13
 70
     1
102
RTVSPropertyOp14
 70
     1
102
RTVSPropertyOp15
 70
     1
102
RTVSPropertyOp16
 70
     1
102
RTVSPropertyOp17
 70
     1
102
RTVSPropertyOp18
 70
     1
102
RTVSPropertyOp19
 70
     1
102
RTVSPropertyOp20
 70
     1
102
RTVSPropertyOp21
 70
     1
102
RTVSPropertyOp22
 70
     1
102
RTVSPropertyOp23
 70
     1
102
RTVSPropertyOp24
 70
     1
102
RTVSPropertyOp25
 70
     1
102
RTVSPropertyOp26
 70
     1
102
RTVSPropertyOp27
 70
     1
102
RTVSPropertyOp28
 70
     1
102
RTVSPropertyOp29
 70
     1
102
RTVSPropertyOp30
 70
     1
102
RTVSPropertyOp31
 70
     1
102
RTVSPropertyOp32
 70
     1
102
RTVSPropertyOp33
 70
     1
102
RTVSPropertyOp34
 70
     1
102
RTVSPropertyOp35
 70
     1
102
RTVSPropertyOp36
 70
     1
102
RTVSPropertyOp37
 70
     1
102
RTVSPropertyOp38
 70
     1
102
RTVSPropertyOp39
 70
     1
102
RTVSPropertyOp40
 70
     1
102
RTVSPropertyOp41
 70
     1
102
RTVSPropertyOp42
 70
     1
102
RTVSPropertyOp43
 70
     1
102
RTVSPropertyOp44
 70
     1
102
RTVSPropertyOp45
 70
     1
102
RTVSPropertyOp46
 70
     1
102
RTVSPropertyOp47
 70
     1
102
RTVSPropertyOp48
 70
     1
102
RTVSPropertyOp49
 70
     1
102
RTVSPropertyOp50
 70
     1
102
RTVSPropertyOp51
 70
     0
102
RTVSPropertyOp52
 70
     0
102
RTVSPropertyOp53
 70
     1
102
RTVSPropertyOp54
 70
     1
102
RTVSPropertyOp55
 70
     1
102
RTVSPropertyOp56
 70
     1
102
RTVSPropertyOp57
 70
     1
102
RTVSPropertyOp58
 70
     1
102
RTVSPropertyOp59
 70
     1
102
RTVSPropertyOp60
 70
     1
102
RTVSPropertyOp61
 70
     1
102
RTVSPropertyOp62
 70
     1
  0
XRECORD
  5
3C7FB
102
{ACAD_REACTORS
330
3C7FA
102
}
330
3C7FA
100
AcDbXrecord
280
     1
102
RTVSPost2010Prop28
280
     0
102
RTVSPost2010PropOp28
 70
     1
102
RTVSPost2010Prop29
280
     1
102
RTVSPost2010PropOp29
 70
     1
102
RTVSPost2010Prop30
280
     1
102
RTVSPost2010PropOp30
 70
     1
102
RTVSPost2010Prop31
280
     0
102
RTVSPost2010PropOp31
 70
     1
102
RTVSPost2010Prop32
280
     0
102
RTVSPost2010PropOp32
 70
     1
102
RTVSPost2010Prop33
280
     0
102
RTVSPost2010PropOp33
 70
     1
102
RTVSPost2010Prop34
280
     0
102
RTVSPost2010PropOp34
 70
     1
102
RTVSPost2010Prop35
280
     0
102
RTVSPost2010PropOp35
 70
     1
102
RTVSPost2010Prop36
280
     0
102
RTVSPost2010PropOp36
 70
     1
102
RTVSPost2010Prop37
 90
       50
102
RTVSPost2010PropOp37
 70
     1
102
RTVSPost2010Prop38
140
0.0
102
RTVSPost2010PropOp38
 70
     1
102
RTVSPost2010Prop39
140
1.0
102
RTVSPost2010PropOp39
 70
     1
102
RTVSPost2010Prop40
 90
        0
102
RTVSPost2010PropOp40
 70
     1
102
RTVSPost2010Prop41ColorIndex
 90
       18
102
RTVSPost2010Prop41ColorRGB
 90
        0
102
RTVSPost2010PropOp41
 70
     1
102
RTVSPost2010Prop42
 90
       50
102
RTVSPost2010PropOp42
 70
     1
102
RTVSPost2010Prop43
 90
        3
102
RTVSPost2010PropOp43
 70
     1
102
RTVSPost2010Prop44ColorIndex
 90
        5
102
RTVSPost2010Prop44ColorRGB
 90
      255
102
RTVSPost2010PropOp44
 70
     1
102
RTVSPost2010Prop45
280
     0
102
RTVSPost2010PropOp45
 70
     1
102
RTVSPost2010Prop46
 90
       50
102
RTVSPost2010PropOp46
 70
     1
102
RTVSPost2010Prop47
 90
       50
102
RTVSPost2010PropOp47
 70
     1
102
RTVSPost2010Prop48
 90
       50
102
RTVSPost2010PropOp48
 70
     1
102
RTVSPost2010Prop49
280
     0
102
RTVSPost2010PropOp49
 70
     1
102
RTVSPost2010Prop50
 90
       50
102
RTVSPost2010PropOp50
 70
     1
102
RTVSPost2010Prop51ColorIndex
 90
      256
102
RTVSPost2010Prop51ColorRGB
 90
-16777216
102
RTVSPost2010PropOp51
 70
     0
102
RTVSPost2010Prop52
140
1.0
102
RTVSPost2010PropOp52
 70
     0
102
RTVSPost2010Prop53
 90
        2
102
RTVSPost2010PropOp53
 70
     1
102
RTVSPost2010Prop54
  1
strokes_ogs.tif
102
RTVSPost2010PropOp54
 70
     1
102
RTVSPost2010Prop55
280
     0
102
RTVSPost2010PropOp55
 70
     1
102
RTVSPost2010Prop56
140
1.0
102
RTVSPost2010PropOp56
 70
     1
102
RTVSPost2010Prop57
140
1.0
102
RTVSPost2010PropOp57
 70
     1
102
RTVSPropertyOp0
 70
     1
102
RTVSPropertyOp1
 70
     1
102
RTVSPropertyOp2
 70
     1
102
RTVSPropertyOp3
 70
     1
102
RTVSPropertyOp4
 70
     1
102
RTVSPropertyOp5
 70
     1
102
RTVSPropertyOp6
 70
     1
102
RTVSPropertyOp7
 70
     1
102
RTVSPropertyOp8
 70
     1
102
RTVSPropertyOp9
 70
     1
102
RTVSPropertyOp10
 70
     1
102
RTVSPropertyOp11
 70
     1
102
RTVSPropertyOp12
 70
     1
102
RTVSPropertyOp13
 70
     1
102
RTVSPropertyOp14
 70
     1
102
RTVSPropertyOp15
 70
     1
102
RTVSPropertyOp16
 70
     1
102
RTVSPropertyOp17
 70
     1
102
RTVSPropertyOp18
 70
     1
102
RTVSPropertyOp19
 70
     1
102
RTVSPropertyOp20
 70
     1
102
RTVSPropertyOp21
 70
     1
102
RTVSPropertyOp22
 70
     1
102
RTVSPropertyOp23
 70
     1
102
RTVSPropertyOp24
 70
     1
102
RTVSPropertyOp25
 70
     1
102
RTVSPropertyOp26
 70
     1
102
RTVSPropertyOp27
 70
     1
102
RTVSPropertyOp28
 70
     1
102
RTVSPropertyOp29
 70
     1
102
RTVSPropertyOp30
 70
     1
102
RTVSPropertyOp31
 70
     1
102
RTVSPropertyOp32
 70
     1
102
RTVSPropertyOp33
 70
     1
102
RTVSPropertyOp34
 70
     1
102
RTVSPropertyOp35
 70
     1
102
RTVSPropertyOp36
 70
     1
102
RTVSPropertyOp37
 70
     1
102
RTVSPropertyOp38
 70
     1
102
RTVSPropertyOp39
 70
     1
102
RTVSPropertyOp40
 70
     1
102
RTVSPropertyOp41
 70
     1
102
RTVSPropertyOp42
 70
     1
102
RTVSPropertyOp43
 70
     1
102
RTVSPropertyOp44
 70
     1
102
RTVSPropertyOp45
 70
     1
102
RTVSPropertyOp46
 70
     1
102
RTVSPropertyOp47
 70
     1
102
RTVSPropertyOp48
 70
     1
102
RTVSPropertyOp49
 70
     1
102
RTVSPropertyOp50
 70
     1
102
RTVSPropertyOp51
 70
     0
102
RTVSPropertyOp52
 70
     0
102
RTVSPropertyOp53
 70
     1
102
RTVSPropertyOp54
 70
     1
102
RTVSPropertyOp55
 70
     1
102
RTVSPropertyOp56
 70
     1
102
RTVSPropertyOp57
 70
     1
102
RTVSPropertyOp58
 70
     1
102
RTVSPropertyOp59
 70
     1
102
RTVSPropertyOp60
 70
     1
102
RTVSPropertyOp61
 70
     1
102
RTVSPropertyOp62
 70
     1
  0
ENDSEC
  0
EOF
