  0
SECTION
  2
HEADER
  9
$ACADVER
  1
AC1009
  9
$INSBASE
 10
0.0
 20
0.0
 30
0.0
  9
$EXTMIN
 10
206.1938338207255867
 20
-0.9063029206663487
 30
-0.0015258207003583
  9
$EXTMAX
 10
40701.126679529712419
 20
27752.2064877816192165
 30
0.0000000349246037
  9
$LIMMIN
 10
0.0
 20
0.0
  9
$LIMMAX
 10
42050.0
 20
29700.0
  9
$ORTHOMODE
 70
     0
  9
$REGENMODE
 70
     1
  9
$FILLMODE
 70
     1
  9
$QTEXTMODE
 70
     0
  9
$MIRRTEXT
 70
     0
  9
$DRAGMODE
 70
     2
  9
$LTSCALE
 40
400.0
  9
$OSMODE
 70
   487
  9
$ATTMODE
 70
     1
  9
$TEXTSIZE
 40
150.0
  9
$TRACEWID
 40
0.05
  9
$TEXTSTYLE
  7
STANDARD
  9
$CLAYER
  8
HOJYO
  9
$CELTYPE
  6
BYLAYER
  9
$CECOLOR
 62
   256
  9
$DIMSCALE
 40
50.0
  9
$DIMASZ
 40
2.0
  9
$DIMEXO
 40
2.0
  9
$DIMDLI
 40
7.0
  9
$DIMRND
 40
0.0
  9
$DIMDLE
 40
0.0
  9
$DIMEXE
 40
1.8
  9
$DIMTP
 40
0.0
  9
$DIMTM
 40
0.0
  9
$DIMTXT
 40
2.0
  9
$DIMCEN
 40
0.1
  9
$DIMTSZ
 40
0.0
  9
$DIMTOL
 70
     0
  9
$DIMLIM
 70
     0
  9
$DIMTIH
 70
     0
  9
$DIMTOH
 70
     0
  9
$DIMSE1
 70
     0
  9
$DIMSE2
 70
     0
  9
$DIMTAD
 70
     0
  9
$DIMZIN
 70
     9
  9
$DIMBLK
  1

  9
$DIMASO
 70
     1
  9
$DIMSHO
 70
     1
  9
$DIMPOST
  1

  9
$DIMAPOST
  1

  9
$DIMALT
 70
     0
  9
$DIMALTD
 70
     2
  9
$DIMALTF
 40
25.3999999999999986
  9
$DIMLFAC
 40
1.0
  9
$DIMTOFL
 70
     1
  9
$DIMTVP
 40
1.0
  9
$DIMTIX
 70
     0
  9
$DIMSOXD
 70
     0
  9
$DIMSAH
 70
     1
  9
$DIMBLK1
  1
YAZ1
  9
$DIMBLK2
  1
YAZ1
  9
$DIMSTYLE
  2
YAZ1
  9
$DIMCLRD
 70
   256
  9
$DIMCLRE
 70
   256
  9
$DIMCLRT
 70
   256
  9
$DIMTFAC
 40
1.0
  9
$DIMGAP
 40
0.0
  9
$LUNITS
 70
     2
  9
$LUPREC
 70
     3
  9
$SKETCHINC
 40
0.1
  9
$FILLETRAD
 40
0.0
  9
$AUNITS
 70
     0
  9
$AUPREC
 70
     2
  9
$MENU
  1
amecex
  9
$ELEVATION
 40
0.0
  9
$PELEVATION
 40
0.0
  9
$THICKNESS
 40
0.0
  9
$LIMCHECK
 70
     0
  9
$BLIPMODE
 70
     0
  9
$CHAMFERA
 40
0.0
  9
$CHAMFERB
 40
0.0
  9
$SKPOLY
 70
     0
  9
$TDCREATE
 40
2453896.4658333328552544
  9
$TDUPDATE
 40
2459657.618171296082437
  9
$TDINDWG
 40
1.4862102662000001
  9
$TDUSRTIMER
 40
1.4862102662000001
  9
$USRTIMER
 70
     1
  9
$ANGBASE
 50
0.0
  9
$ANGDIR
 70
     0
  9
$PDMODE
 70
     0
  9
$PDSIZE
 40
0.0
  9
$PLINEWID
 40
0.0
  9
$COORDS
 70
     1
  9
$SPLFRAME
 70
     0
  9
$SPLINETYPE
 70
     6
  9
$SPLINESEGS
 70
     8
  9
$ATTDIA
 70
     1
  9
$ATTREQ
 70
     1
  9
$HANDLING
 70
     1
  9
$HANDSEED
  5
3E634
  9
$SURFTAB1
 70
     6
  9
$SURFTAB2
 70
     6
  9
$SURFTYPE
 70
     6
  9
$SURFU
 70
     6
  9
$SURFV
 70
     6
  9
$UCSNAME
  2

  9
$UCSORG
 10
0.0
 20
0.0
 30
0.0
  9
$UCSXDIR
 10
1.0
 20
0.0
 30
0.0
  9
$UCSYDIR
 10
0.0
 20
1.0
 30
0.0
  9
$PUCSNAME
  2

  9
$PUCSORG
 10
0.0
 20
0.0
 30
0.0
  9
$PUCSXDIR
 10
1.0
 20
0.0
 30
0.0
  9
$PUCSYDIR
 10
0.0
 20
1.0
 30
0.0
  9
$USERI1
 70
     0
  9
$USERI2
 70
     0
  9
$USERI3
 70
     0
  9
$USERI4
 70
     0
  9
$USERI5
 70
     0
  9
$USERR1
 40
30.0
  9
$USERR2
 40
0.0
  9
$USERR3
 40
0.0
  9
$USERR4
 40
0.0
  9
$USERR5
 40
0.0
  9
$WORLDVIEW
 70
     1
  9
$SHADEDGE
 70
     3
  9
$SHADEDIF
 70
    70
  9
$TILEMODE
 70
     1
  9
$MAXACTVP
 70
    16
  9
$PLIMCHECK
 70
     0
  9
$PEXTMIN
 10
1.0000000000000000E+20
 20
1.0000000000000000E+20
 30
1.0000000000000000E+20
  9
$PEXTMAX
 10
-1.0000000000000000E+20
 20
-1.0000000000000000E+20
 30
-1.0000000000000000E+20
  9
$PLIMMIN
 10
0.0
 20
0.0
  9
$PLIMMAX
 10
12.0
 20
9.0
  9
$UNITMODE
 70
     0
  9
$VISRETAIN
 70
     0
  9
$PLINEGEN
 70
     0
  9
$PSLTSCALE
 70
     0
  0
ENDSEC
  0
SECTION
  2
TABLES
  0
TABLE
  2
VPORT
 70
     1
  0
VPORT
  2
*ACTIVE
 70
     0
 10
0.0
 20
0.0
 11
1.0
 21
1.0
 12
20453.6602566752189887
 22
13875.650092430469158
 13
0.0
 23
0.0
 14
1.0
 24
1.0
 15
0.0
 25
0.0
 16
0.0
 26
0.0
 36
1.0
 17
0.0
 27
0.0
 37
0.0
 40
27959.7116452236405166
 41
1.885714285714285
 42
50.0
 43
0.0
 44
0.0
 50
0.0
 51
0.0
 71
     0
 72
   100
 73
     1
 74
     1
 75
     0
 76
     0
 77
     0
 78
     0
  0
ENDTAB
  0
TABLE
  2
LTYPE
 70
    18
  0
LTYPE
  2
CONTINUOUS
 70
     0
  3
実線
 72
    65
 73
     0
 40
0.0
  0
LTYPE
  2
CENTER
 70
     0
  3
____ _ ____ _ ____ _ ____ _ ____ _ ____ _ ____
 72
    65
 73
     4
 40
2.0
 49
1.25
 49
-0.25
 49
0.25
 49
-0.25
  0
LTYPE
  2
DASHED
 70
     0
  3
__ __ __ __ __ __ __ __ __ __ __ __ __ __ __
 72
    65
 73
     2
 40
0.75
 49
0.5
 49
-0.25
  0
LTYPE
  2
PHANTOM
 70
     0
  3
______  __  __  ______  __  __  ______  __  __ 
 72
    65
 73
     6
 40
2.5
 49
1.25
 49
-0.25
 49
0.25
 49
-0.25
 49
0.25
 49
-0.25
  0
LTYPE
  2
AM_ISO02W050
 70
     0
  3
__ __ __ __ __ __ __ __ __ __ __ __ __ __ __
 72
    65
 73
     2
 40
7.5
 49
6.0
 49
-1.5
  0
LTYPE
  2
AM_ISO08W050
 70
     0
  3
____ . ____ . ____ . ____ . ____ . ____ . ____
 72
    65
 73
     4
 40
18.0
 49
12.0
 49
-1.5
 49
3.0
 49
-1.5
  0
LTYPE
  2
AM_ISO09W050
 70
     0
  3
_____ . . _____ . . _____ . . ____ .. ____
 72
    65
 73
     6
 40
22.5
 49
12.0
 49
-1.5
 49
3.0
 49
-1.5
 49
3.0
 49
-1.5
  0
LTYPE
  2
AMCONSTR
 70
     0
  3
_______________________
 72
    65
 73
     2
 40
9999.0
 49
9999.0
 49
0.0
  0
LTYPE
  2
AM_ISO08W050X2
 70
     0
  3
__ . __ . __ . __ . __ . __
 72
    65
 73
     4
 40
9.0
 49
6.0
 49
-0.75
 49
1.5
 49
-0.75
  0
LTYPE
  2
AM_ISO02W050X2
 70
     0
  3
 _ _ _ _ _ _ _ _ _ _ _ _
 72
    65
 73
     2
 40
3.75
 49
3.0
 49
-0.75
  0
LTYPE
  2
AMZIGZAG
 70
     0
  3
/\/-/\/-/\/-/\/-/\/-/\/
 72
    65
 73
     2
 40
11.0000999999999998
 49
0.0001
 49
-11.0
  0
LTYPE
  2
ACISOWELD
 70
     0
  3
_ _ _ _ _
 72
    65
 73
     2
 40
2.0
 49
2.0
 49
-1.0
  0
LTYPE
  2
ACISOTGL
 70
     0
  3
_ _ _ _ _
 72
    65
 73
     2
 40
3.0
 49
2.0
 49
-1.0
  0
LTYPE
  2
ACISOTGB
 70
     0
  3
__ . . __ . .
 72
    65
 73
     6
 40
9.0
 49
4.0
 49
-1.0
 49
1.0
 49
-1.0
 49
1.0
 49
-1.0
  0
ENDTAB
  0
TABLE
  2
LAYER
 70
    21
  0
LAYER
  2
0
 70
     0
 62
     7
  6
CONTINUOUS
  0
LAYER
  2
1
 70
     0
 62
     4
  6
CONTINUOUS
  0
LAYER
  2
CENTER
 70
     0
 62
     1
  6
CENTER
  0
LAYER
  2
GAWA
 70
     0
 62
     2
  6
CONTINUOUS
  0
LAYER
  2
HOJYO
 70
     0
 62
     6
  6
CONTINUOUS
  0
LAYER
  2
SCALE
 70
     0
 62
     4
  6
CONTINUOUS
  0
LAYER
  2
UL1
 70
     0
 62
     3
  6
PHANTOM
  0
LAYER
  2
KARISEN
 70
     0
 62
     5
  6
DASHED
  0
LAYER
  2
DEFPOINTS
 70
     0
 62
     7
  6
CONTINUOUS
  0
ENDTAB
  0
TABLE
  2
STYLE
 70
     8
  0
STYLE
  2
STANDARD
 70
     0
 40
0.0
 41
1.0
 50
0.0
 71
     0
 42
150.0
  3
TXT
  4
BIGFONT
  0
STYLE
  2

 70
     1
 40
0.0
 41
1.0
 50
0.0
 71
     0
 42
150.0
  3
genltshp.shx
  4

  0
STYLE
  2
ACISOGDT
 70
     0
 40
0.0
 41
1.0
 50
0.0
 71
     0
 42
150.0
  3
amgdt.shx
  4

  0
ENDTAB
  0
TABLE
  2
VIEW
 70
     0
  0
ENDTAB
  0
TABLE
  2
UCS
 70
     0
  0
ENDTAB
  0
TABLE
  2
APPID
 70
    11
  0
APPID
  2
ACAD
 70
     0
  0
APPID
  2
ACE-LT__COPYRIGHT_TRIALSOFT-JPN
 70
     0
  0
APPID
  2
MCAD_NO_VIS
 70
     0
  0
APPID
  2
ACAD_TEMP_GRAPHIC
 70
     0
  0
APPID
  2
ACATTRIBSERVICES
 70
     0
  0
APPID
  2
DESIGNERASSEMBLIES
 70
     0
  0
APPID
  2
ACAD_DSTYLE_DIMJAG
 70
     0
  0
APPID
  2
ACAD_DSTYLE_DIMBREAK
 70
     0
  0
APPID
  2
ACAD_NAV_VCDISPLAY
 70
     0
  0
APPID
  2
ACAD_EXEMPT_FROM_CAD_STANDARDS
 70
     0
  0
APPID
  2
ACAD_MLEADERVER
 70
     0
  0
ENDTAB
  0
TABLE
  2
DIMSTYLE
 70
    17
  0
DIMSTYLE
  2
YAZ1
 70
     0
  3

  4

  5

  6
YAZ1
  7
YAZ1
 40
50.0
 41
2.0
 42
0.1
 43
7.0
 44
1.8
 45
0.0
 46
0.0
 47
0.0
 48
0.0
140
2.5
141
0.1
142
0.0
143
25.3999999999999986
144
1.0
145
1.0
146
1.0
147
0.0
 71
     0
 72
     0
 73
     0
 74
     0
 75
     0
 76
     0
 77
     0
 78
     9
170
     0
171
     2
172
     1
173
     1
174
     0
175
     0
176
   256
177
   256
178
   256
  0
DIMSTYLE
  2
STANDARD
 70
     0
  3

  4

  5

  6

  7

 40
1.0
 41
0.18
 42
0.0625
 43
0.38
 44
0.18
 45
0.0
 46
0.0
 47
0.0
 48
0.0
140
0.18
141
0.09
142
0.0
143
25.3999999999999986
144
1.0
145
0.0
146
1.0
147
0.09
 71
     0
 72
     0
 73
     1
 74
     1
 75
     0
 76
     0
 77
     0
 78
     0
170
     0
171
     2
172
     0
173
     0
174
     0
175
     0
176
     0
177
     0
178
     0
  0
DIMSTYLE
  2
AM_ISO
 70
     0
  3

  4
"
  5

  6

  7

 40
1.0
 41
3.5
 42
1.0
 43
10.0
 44
1.0
 45
0.0
 46
0.0
 47
0.1
 48
0.1
140
3.5
141
0.0
142
0.0
143
0.0393701
144
1.0
145
0.0
146
0.71
147
1.5
 71
     0
 72
     0
 73
     0
 74
     0
 75
     0
 76
     0
 77
     1
 78
     8
170
     0
171
     2
172
     1
173
     0
174
     0
175
     0
176
   256
177
   256
178
     2
  0
DIMSTYLE
  2
AM_ISO$3
 70
     0
  3

  4
"
  5

  6

  7

 40
1.0
 41
3.5
 42
1.0
 43
10.0
 44
1.0
 45
0.0
 46
0.0
 47
0.1
 48
0.1
140
3.5
141
0.0
142
0.0
143
0.0393701
144
1.0
145
0.0
146
0.71
147
1.5
 71
     0
 72
     0
 73
     0
 74
     1
 75
     0
 76
     0
 77
     1
 78
     8
170
     0
171
     2
172
     0
173
     0
174
     0
175
     0
176
   256
177
   256
178
     2
  0
DIMSTYLE
  2
AM_ISO$4
 70
     0
  3

  4
"
  5

  6

  7

 40
1.0
 41
3.5
 42
1.0
 43
10.0
 44
1.0
 45
0.0
 46
0.0
 47
0.1
 48
0.1
140
3.5
141
0.0
142
0.0
143
0.0393701
144
1.0
145
0.0
146
0.71
147
1.5
 71
     0
 72
     0
 73
     0
 74
     1
 75
     0
 76
     0
 77
     1
 78
     8
170
     0
171
     2
172
     0
173
     0
174
     0
175
     0
176
   256
177
   256
178
     2
  0
DIMSTYLE
  2
AM_ISO$6
 70
     0
  3

  4
"
  5

  6

  7

 40
1.0
 41
3.5
 42
1.0
 43
10.0
 44
1.0
 45
0.0
 46
0.0
 47
0.1
 48
0.1
140
3.5
141
0.0
142
0.0
143
0.0393701
144
1.0
145
0.0
146
0.71
147
1.5
 71
     0
 72
     0
 73
     0
 74
     0
 75
     0
 76
     0
 77
     0
 78
     8
170
     0
171
     2
172
     1
173
     0
174
     0
175
     0
176
   256
177
   256
178
     2
  0
DIMSTYLE
  2
AM_ISO$7
 70
     0
  3

  4
"
  5

  6

  7

 40
1.0
 41
3.5
 42
1.0
 43
10.0
 44
1.0
 45
0.0
 46
0.0
 47
0.1
 48
0.1
140
3.5
141
0.0
142
0.0
143
0.0393701
144
1.0
145
0.0
146
0.71
147
1.5
 71
     0
 72
     0
 73
     0
 74
     0
 75
     0
 76
     0
 77
     1
 78
     8
170
     0
171
     2
172
     1
173
     0
174
     0
175
     0
176
   256
177
   256
178
     2
  0
DIMSTYLE
  2
AM_ISO$SF
 70
     0
  3

  4
"
  5

  6

  7

 40
1.0
 41
3.5
 42
1.0
 43
10.0
 44
1.0
 45
0.0
 46
0.0
 47
0.1
 48
0.1
140
3.5
141
0.0
142
0.0
143
0.0393701
144
1.0
145
0.0
146
0.71
147
1.5
 71
     0
 72
     0
 73
     0
 74
     0
 75
     1
 76
     1
 77
     1
 78
     8
170
     0
171
     2
172
     1
173
     0
174
     0
175
     0
176
   256
177
   256
178
     2
  0
DIMSTYLE
  2
AM_ISO$SH
 70
     0
  3

  4
"
  5

  6
GENAXEH
  7

 40
1.0
 41
3.5
 42
1.0
 43
10.0
 44
1.0
 45
0.0
 46
0.0
 47
0.1
 48
0.1
140
3.5
141
0.0
142
0.0
143
0.0393701
144
2.0
145
0.0
146
0.71
147
1.5
 71
     0
 72
     0
 73
     0
 74
     0
 75
     1
 76
     1
 77
     1
 78
     8
170
     0
171
     2
172
     1
173
     1
174
     0
175
     0
176
   256
177
   256
178
     2
  0
ENDTAB
  0
ENDSEC
  0
SECTION
  2
BLOCKS
  0
BLOCK
  8
0
  2
$MODEL_SPACE
 70
     0
 10
0.0
 20
0.0
 30
0.0
  3
$MODEL_SPACE
  1

  0
ENDBLK
  5
20B
  8
0
  0
BLOCK
 67
     1
  8
0
  2
$PAPER_SPACE
 70
     0
 10
0.0
 20
0.0
 30
0.0
  3
$PAPER_SPACE
  1

  0
ENDBLK
  5
209
 67
     1
  8
0
  0
BLOCK
  8
0
  2
YAZ1
 70
     0
 10
0.0
 20
0.0
 30
0.0
  3
YAZ1
  1

  0
LINE
  5
255
  8
0
 10
0.0
 20
0.0
 30
0.0
 11
-1.0
 21
-0.2679491924311037
 31
0.0
  0
LINE
  5
256
  8
0
 10
0.0
 20
0.0
 30
0.0
 11
-1.0
 21
0.2679491924311037
 31
0.0
  0
LINE
  5
257
  8
0
 10
-1.0
 20
0.0
 30
0.0
 11
0.0
 21
0.0
 31
0.0
  0
ENDBLK
  5
259
  8
0
  0
BLOCK
  8
0
  2
INSLYTXT
 70
     0
 10
0.0
 20
0.0
 30
0.0
  3
INSLYTXT
  1

  0
ENDBLK
  5
2F2
  8
0
  0
BLOCK
  8
0
  2
GENAXEH
 70
     0
 10
0.0
 20
0.0
 30
0.0
  3
GENAXEH
  1

  0
LINE
  5
3DC87
  8
0
 10
-1.0
 20
0.0
 30
0.0
 11
1.0
 21
0.0
 31
0.0
  0
ENDBLK
  5
3DC89
  8
0
  0
ENDSEC
  0
SECTION
  2
ENTITIES
  0
INSERT
  5
378
  8
0
  2
INSLYTXT
 10
0.0
 20
0.0
 30
0.0
 41
50.0
 42
50.0
 43
50.0
  0
TEXT
  5
402
  8
SCALE
 10
334.1702073142951122
 20
275.6991537608938074
 30
0.0
 40
125.0
  1
08110185
 50
90.0
  0
LINE
  5
1C30C
  8
GAWA
 10
400.0
 20
0.0
 30
0.0
 11
40700.0
 21
0.0
 31
0.0
  0
LINE
  5
1C30D
  8
GAWA
 10
40700.0
 20
27750.0
 30
0.0
 11
400.0
 21
27750.0
 31
0.0
  0
LINE
  5
1C312
  8
GAWA
 10
400.0
 20
27750.0
 30
0.0
 11
400.0
 21
0.0
 31
0.0
  0
LINE
  5
1C313
  8
GAWA
 10
20350.0
 20
0.0
 30
0.0
 11
800.0
 21
0.0
 31
0.0
  0
LINE
  5
1C876
  8
GAWA
 10
40700.0
 20
0.0
 30
0.0
 11
40700.0
 21
27750.0
 31
0.0
  0
LINE
  5
237E4
  8
KARISEN
 10
10475.0
 20
0.0
 30
0.0
 11
10475.0
 21
23750.0
 31
0.0
  0
LINE
  5
237E8
  8
KARISEN
 10
400.0
 20
11875.0
 30
0.0
 11
40700.0
 21
11875.0
 31
0.0
  0
LINE
  5
3730B
  8
GAWA
 10
40700.0
 20
23750.0
 30
0.0
 11
400.0
 21
23750.0
 31
0.0
  0
TEXT
  5
3730E
  8
SCALE
 10
1580.1877159494611078
 20
25367.8948759894701652
 30
0.0
 40
700.0
  1
水平１本タイプ 〔免震量600mm〕
  0
TEXT
  5
3730F
  8
SCALE
 10
29042.6413786299490312
 20
26595.5579263119107054
 30
0.0
 40
500.0
  1
用途例：特殊系統
  0
TEXT
  5
37310
  8
SCALE
 10
29042.6413786299490312
 20
25480.7211221088182356
 30
0.0
 40
500.0
  1
使用圧力：大気圧
  0
TEXT
  5
37311
  8
SCALE
 10
29042.6413786299490312
 20
24375.7230761092687317
 30
0.0
 40
500.0
  1
フレキ：硬質塩ビ
  0
TEXT
  5
37405
  8
SCALE
 10
3930.8333333333330302
 20
22788.6513824063003995
 30
0.0
 40
200.0
  1
品番:MB6VP-HY100SY
 72
     4
 11
5437.5
 21
22888.6513824063003995
 31
0.0
  0
TEXT
  5
37406
  8
SCALE
 10
5137.5
 20
23274.0531561693715048
 30
0.0
 40
200.0
  1
100A
 72
     4
 11
5437.5
 21
23374.0531561693605909
 31
0.0
  0
TEXT
  5
37886
  8
SCALE
 10
4430.0
 20
20655.4609905246907147
 30
0.0
 40
90.0
  1

 72
     4
 11
4430.0
 21
20655.4609905246907147
 31
0.0
  0
TEXT
  5
37922
  8
SCALE
 10
12489.9999999999909051
 20
20655.4609905246907147
 30
0.0
 40
90.0
  1

 72
     4
 11
12489.9999999999909051
 21
20655.4609905246907147
 31
0.0
  0
TEXT
  5
379D8
  8
SCALE
 10
20550.0
 20
20655.4609905246907147
 30
0.0
 40
90.0
  1

 72
     4
 11
20550.0
 21
20655.4609905246907147
 31
0.0
  0
TEXT
  5
37A67
  8
SCALE
 10
28610.0
 20
20655.4609905246907147
 30
0.0
 40
90.0
  1

 72
     4
 11
28610.0
 21
20655.4609905246907147
 31
0.0
  0
TEXT
  5
37B1D
  8
SCALE
 10
36670.0
 20
20655.4609905246907147
 30
0.0
 40
90.0
  1

 72
     4
 11
36670.0
 21
20655.4609905246907147
 31
0.0
  0
TEXT
  5
3815B
  8
SCALE
 10
4429.9999999999918145
 20
8947.0854049793269951
 30
0.0
 40
90.0
  1

 72
     4
 11
4429.9999999999918145
 21
8947.0854049793269951
 31
0.0
  0
TEXT
  5
38175
  8
SCALE
 10
12489.9999999999909051
 20
8947.0854049793269951
 30
0.0
 40
90.0
  1

 72
     4
 11
12489.9999999999909051
 21
8947.0854049793269951
 31
0.0
  0
TEXT
  5
3830B
  8
SCALE
 10
20549.9999999999890861
 20
8947.0854049793269951
 30
0.0
 40
90.0
  1

 72
     4
 11
20549.9999999999890861
 21
8947.0854049793269951
 31
0.0
  0
TEXT
  5
3830E
  8
SCALE
 10
28609.9999999999890861
 20
8947.0854049793269951
 30
0.0
 40
90.0
  1

 72
     4
 11
28609.9999999999890861
 21
8947.0854049793269951
 31
0.0
  0
TEXT
  5
38A21
  8
SCALE
 10
4430.0
 20
19964.5410924941497797
 30
0.0
 40
90.0
  1

 72
     4
 11
4430.0
 21
19964.5410924941497797
 31
0.0
  0
TEXT
  5
38AAD
  8
SCALE
 10
12489.9999999999909051
 20
19964.5410924941497797
 30
0.0
 40
90.0
  1

 72
     4
 11
12489.9999999999909051
 21
19964.5410924941497797
 31
0.0
  0
TEXT
  5
38B3D
  8
SCALE
 10
20550.0
 20
19964.5410924941497797
 30
0.0
 40
90.0
  1

 72
     4
 11
20550.0
 21
19964.5410924941497797
 31
0.0
  0
TEXT
  5
38BD5
  8
SCALE
 10
28610.0
 20
19964.5410924941497797
 30
0.0
 40
90.0
  1

 72
     4
 11
28610.0
 21
19964.5410924941497797
 31
0.0
  0
TEXT
  5
38C70
  8
SCALE
 10
36670.0
 20
19964.5410924941497797
 30
0.0
 40
90.0
  1

 72
     4
 11
36670.0
 21
19964.5410924941497797
 31
0.0
  0
TEXT
  5
391C1
  8
SCALE
 10
4429.9999999999918145
 20
8089.5410924941534176
 30
0.0
 40
90.0
  1

 72
     4
 11
4429.9999999999918145
 21
8089.5410924941534176
 31
0.0
  0
TEXT
  5
3926B
  8
SCALE
 10
12489.9999999999909051
 20
8089.5410924941534176
 30
0.0
 40
90.0
  1

 72
     4
 11
12489.9999999999909051
 21
8089.5410924941534176
 31
0.0
  0
TEXT
  5
3931D
  8
SCALE
 10
20549.9999999999890861
 20
8089.5410924941534176
 30
0.0
 40
90.0
  1

 72
     4
 11
20549.9999999999890861
 21
8089.5410924941534176
 31
0.0
  0
TEXT
  5
393DC
  8
SCALE
 10
28609.9999999999890861
 20
8089.5410924941534176
 30
0.0
 40
90.0
  1

 72
     4
 11
28609.9999999999890861
 21
8089.5410924941534176
 31
0.0
  0
TEXT
  5
39C83
  8
SCALE
 10
4430.0
 20
19493.1618358652303868
 30
0.0
 40
90.0
  1

 72
     4
 11
4430.0
 21
19493.1618358652303868
 31
0.0
  0
TEXT
  5
39C93
  8
SCALE
 10
12490.0
 20
19493.1618358652303868
 30
0.0
 40
90.0
  1

 72
     4
 11
12490.0
 21
19493.1618358652303868
 31
0.0
  0
TEXT
  5
39CA3
  8
SCALE
 10
20550.0
 20
19493.1618358652303868
 30
0.0
 40
90.0
  1

 72
     4
 11
20550.0
 21
19493.1618358652303868
 31
0.0
  0
TEXT
  5
39CB3
  8
SCALE
 10
28610.0
 20
19493.1618358652303868
 30
0.0
 40
90.0
  1

 72
     4
 11
28610.0
 21
19493.1618358652303868
 31
0.0
  0
TEXT
  5
39CC3
  8
SCALE
 10
36670.0
 20
19493.1618358652303868
 30
0.0
 40
90.0
  1

 72
     4
 11
36670.0
 21
19493.1618358652303868
 31
0.0
  0
TEXT
  5
3A589
  8
SCALE
 10
4430.0
 20
7618.1618358653504401
 30
0.0
 40
90.0
  1

 72
     4
 11
4430.0
 21
7618.1618358653504401
 31
0.0
  0
TEXT
  5
3A5A1
  8
SCALE
 10
12490.0
 20
7618.1618358653504401
 30
0.0
 40
90.0
  1

 72
     4
 11
12490.0
 21
7618.1618358653504401
 31
0.0
  0
TEXT
  5
3A5B9
  8
SCALE
 10
20550.0
 20
7618.1618358653504401
 30
0.0
 40
90.0
  1

 72
     4
 11
20550.0
 21
7618.1618358653504401
 31
0.0
  0
TEXT
  5
3A5D1
  8
SCALE
 10
28610.0
 20
7618.1618358653504401
 30
0.0
 40
90.0
  1

 72
     4
 11
28610.0
 21
7618.1618358653504401
 31
0.0
  0
TEXT
  5
3ACA2
  8
SCALE
 10
-899.7026076388574438
 20
22096.2302539357515343
 30
0.0
 40
75.0
  1

 72
     4
 11
-899.7026076388574438
 21
22096.2302539357515343
 31
0.0
  0
TEXT
  5
3ACA3
  8
SCALE
 10
-899.7026076388574438
 20
21736.2302539357515343
 30
0.0
 40
75.0
  1

 72
     4
 11
-899.7026076388574438
 21
21736.2302539357515343
 31
0.0
  0
TEXT
  5
3ACA4
  8
SCALE
 10
-899.7026076388574438
 20
21916.2302539357515343
 30
0.0
 40
75.0
  1

 72
     4
 11
-899.7026076388574438
 21
21916.2302539357515343
 31
0.0
  0
TEXT
  5
3ACA5
  8
SCALE
 10
-899.7026076388574438
 20
22816.2302539357515343
 30
0.0
 40
75.0
  1

 72
     4
 11
-899.7026076388574438
 21
22816.2302539357515343
 31
0.0
  0
TEXT
  5
3ACA6
  8
SCALE
 10
-899.7026076388574438
 20
22276.2302539357515343
 30
0.0
 40
75.0
  1

 72
     4
 11
-899.7026076388574438
 21
22276.2302539357515343
 31
0.0
  0
TEXT
  5
3ACA7
  8
SCALE
 10
-899.7026076388574438
 20
22456.2302539357515343
 30
0.0
 40
75.0
  1

 72
     4
 11
-899.7026076388574438
 21
22456.2302539357515343
 31
0.0
  0
TEXT
  5
3ACA8
  8
SCALE
 10
-899.7026076388574438
 20
22636.2302539357515343
 30
0.0
 40
75.0
  1

 72
     4
 11
-899.7026076388574438
 21
22636.2302539357515343
 31
0.0
  0
LINE
  5
3ACC8
  8
KARISEN
 10
20550.0
 20
0.0
 30
0.0
 11
20550.0
 21
23750.0
 31
0.0
  0
TEXT
  5
3ACCF
  8
SCALE
 10
13972.5
 20
22788.6513824063003995
 30
0.0
 40
200.0
  1
品番:MB6VP-HY125SY
 72
     4
 11
15512.5
 21
22888.6513824063003995
 31
0.0
  0
TEXT
  5
3ACD0
  8
SCALE
 10
15179.1666666666606034
 20
23274.0531561693715048
 30
0.0
 40
200.0
  1
125A
 72
     4
 11
15512.5
 21
23374.0531561693605909
 31
0.0
  0
LINE
  5
3ACD2
  8
KARISEN
 10
30625.0
 20
0.0
 30
0.0
 11
30625.0
 21
23750.0
 31
0.0
  0
TEXT
  5
3ACD9
  8
SCALE
 10
24064.1666666666715173
 20
22788.6513824063003995
 30
0.0
 40
200.0
  1
品番:MB6VP-HY150SY
 72
     4
 11
25587.5
 21
22888.6513824063003995
 31
0.0
  0
TEXT
  5
3ACDA
  8
SCALE
 10
25270.8333333333284827
 20
23274.0531561693715048
 30
0.0
 40
200.0
  1
150A
 72
     4
 11
25587.5
 21
23374.0531561693605909
 31
0.0
  0
TEXT
  5
3ACE3
  8
SCALE
 10
34122.5
 20
22788.6513824063003995
 30
0.0
 40
200.0
  1
品番:MB6VP-HY200SY
 72
     4
 11
35662.5
 21
22888.6513824063003995
 31
0.0
  0
TEXT
  5
3ACE4
  8
SCALE
 10
35329.1666666666569654
 20
23274.0531561693715048
 30
0.0
 40
200.0
  1
200A
 72
     4
 11
35662.5
 21
23374.0531561693605909
 31
0.0
  0
TEXT
  5
3BCE6
  8
SCALE
 10
5437.5
 20
20973.8802130210715404
 30
0.0
 40
200.0
  1

 72
     4
 11
5437.5
 21
20973.8802130210715404
 31
0.0
  0
TEXT
  5
3BEA0
  8
SCALE
 10
15512.5
 20
20973.8802130210715404
 30
0.0
 40
200.0
  1

 72
     4
 11
15512.5
 21
20973.8802130210715404
 31
0.0
  0
TEXT
  5
3C058
  8
SCALE
 10
25587.5
 20
20973.8802130210715404
 30
0.0
 40
200.0
  1

 72
     4
 11
25587.5
 21
20973.8802130210715404
 31
0.0
  0
TEXT
  5
3C212
  8
SCALE
 10
35662.5
 20
20973.8802130210715404
 30
0.0
 40
200.0
  1

 72
     4
 11
35662.5
 21
20973.8802130210715404
 31
0.0
  0
TEXT
  5
3C3C6
  8
SCALE
 10
5437.5
 20
9098.8802130210679024
 30
0.0
 40
200.0
  1

 72
     4
 11
5437.5
 21
9098.8802130210679024
 31
0.0
  0
TEXT
  5
3C58A
  8
SCALE
 10
15512.5
 20
7822.2788021797314286
 30
0.0
 40
90.0
  1

 72
     4
 11
15512.5
 21
7822.2788021797314286
 31
0.0
  0
TEXT
  5
3C77D
  8
SCALE
 10
25587.5
 20
7822.2788021798478439
 30
0.0
 40
90.0
  1

 72
     4
 11
25587.5
 21
7822.2788021798478439
 31
0.0
  0
LINE
  5
3D01C
  8
CENTER
 10
6770.5299999999988358
 20
19598.0192305276286788
 30
0.0
 11
4450.5
 21
19598.0192305276286788
 31
0.0
  0
LINE
  5
3D01D
  8
1
  6
CONTINUOUS
 62
     7
 10
5890.5
 20
19522.5192305276286788
 30
0.0
 11
4444.5
 21
19522.5192305276286788
 31
0.0
  0
LINE
  5
3D01E
  8
1
  6
CONTINUOUS
 62
     7
 10
5890.5
 20
19673.5192305276286788
 30
0.0
 11
4444.5
 21
19673.5192305276286788
 31
0.0
  0
ARC
  5
3D01F
  8
1
  6
CONTINUOUS
 62
     7
 10
4289.5
 20
19598.0192305276286788
 30
0.0
 40
76.5
 50
228.1680000000066002
 51
290.2969999999997981
  0
ARC
  5
3D020
  8
1
  6
CONTINUOUS
 62
     7
 10
4289.5
 20
19598.0192305276286788
 30
0.0
 40
76.5
 50
69.7030000000001451
 51
131.8324999999692011
  0
LINE
  5
3D021
  8
CENTER
 10
4420.4999999999990905
 20
19598.0192305276286788
 30
0.0
 11
4115.0600000000004002
 21
19598.0192305276286788
 31
0.0
  0
LINE
  5
3D022
  8
1
  6
CONTINUOUS
 62
     7
 10
4165.5
 20
19493.0192305276286788
 30
0.0
 11
4165.5
 21
19598.0192305276286788
 31
0.0
  0
LINE
  5
3D023
  8
1
  6
CONTINUOUS
 62
     7
 10
4147.4999999999990905
 20
19493.0192305276286788
 30
0.0
 11
4147.4999999999990905
 21
19598.0192305276286788
 31
0.0
  0
LINE
  5
3D024
  8
1
  6
CONTINUOUS
 62
     7
 10
4147.4999999999990905
 20
19493.0192305276286788
 30
0.0
 11
4165.5
 21
19493.0192305276286788
 31
0.0
  0
LINE
  5
3D025
  8
1
  6
CONTINUOUS
 62
     7
 10
4165.5
 20
19703.0192305276286788
 30
0.0
 11
4165.5
 21
19598.0192305276286788
 31
0.0
  0
LINE
  5
3D026
  8
1
  6
CONTINUOUS
 62
     7
 10
4147.4999999999990905
 20
19703.0192305276286788
 30
0.0
 11
4147.4999999999990905
 21
19598.0192305276286788
 31
0.0
  0
LINE
  5
3D027
  8
1
  6
CONTINUOUS
 62
     7
 10
4147.4999999999990905
 20
19703.0192305276286788
 30
0.0
 11
4165.5
 21
19703.0192305276286788
 31
0.0
  0
LINE
  5
3D028
  8
1
  6
CONTINUOUS
 62
     7
 10
4238.4799999999995634
 20
19541.0192305276286788
 30
0.0
 11
4238.4799999999995634
 21
19598.0192305276286788
 31
0.0
  0
LINE
  5
3D029
  8
1
  6
CONTINUOUS
 62
     7
 10
4238.4799999999995634
 20
19655.0192305276286788
 30
0.0
 11
4238.4799999999995634
 21
19598.0192305276286788
 31
0.0
  0
LINE
  5
3D02A
  8
1
  6
CONTINUOUS
 62
     7
 10
4238.4799999999995634
 20
19541.0192305276286788
 30
0.0
 11
4165.5
 21
19541.0192305276286788
 31
0.0
  0
LINE
  5
3D02B
  8
1
  6
CONTINUOUS
 62
     7
 10
4238.4799999999995634
 20
19655.0192305276286788
 30
0.0
 11
4165.5
 21
19655.0192305276286788
 31
0.0
  0
LINE
  5
3D02D
  8
1
  6
CONTINUOUS
 62
     7
 10
4426.4999999999990905
 20
19536.0192305276286788
 30
0.0
 11
4426.4999999999990905
 21
19600.419230527630134
 31
0.0
  0
LINE
  5
3D02E
  8
1
  6
CONTINUOUS
 62
     7
 10
4444.5
 20
19522.5192305276286788
 30
0.0
 11
4444.5
 21
19595.6192305276199477
 31
0.0
  0
LINE
  5
3D02F
  8
1
  6
CONTINUOUS
 62
     7
 10
4363.0
 20
19536.0192305276286788
 30
0.0
 11
4363.0
 21
19598.0192305276286788
 31
0.0
  0
LINE
  5
3D030
  8
1
  6
CONTINUOUS
 62
     7
 10
4324.4999999999990905
 20
19598.0192305276286788
 30
0.0
 11
4324.4999999999990905
 21
19526.2692305276286788
 31
0.0
  0
LINE
  5
3D031
  8
1
  6
CONTINUOUS
 62
     7
 10
4426.4999999999990905
 20
19536.0192305276286788
 30
0.0
 11
4363.0
 21
19536.0192305276286788
 31
0.0
  0
LINE
  5
3D033
  8
1
  6
CONTINUOUS
 62
     7
 10
4324.4999999999990905
 20
19526.2692305276286788
 30
0.0
 11
4316.0399999999999636
 21
19526.2692305276286788
 31
0.0
  0
LINE
  5
3D034
  8
1
  6
CONTINUOUS
 62
     7
 10
4363.0
 20
19541.0192305276286788
 30
0.0
 11
4324.4999999999990905
 21
19541.0192305276286788
 31
0.0
  0
LINE
  5
3D035
  8
1
  6
CONTINUOUS
 62
     7
 10
4426.4999999999990905
 20
19660.0192305276286788
 30
0.0
 11
4363.0
 21
19660.0192305276286788
 31
0.0
  0
LINE
  5
3D036
  8
CENTER
 10
4450.5
 20
19598.0192305276286788
 30
0.0
 11
4420.4999999999990905
 21
19598.0192305276286788
 31
0.0
  0
LINE
  5
3D037
  8
1
  6
CONTINUOUS
 62
     7
 10
4426.4999999999990905
 20
19660.0192305276286788
 30
0.0
 11
4426.4999999999990905
 21
19600.419230527630134
 31
0.0
  0
LINE
  5
3D038
  8
1
  6
CONTINUOUS
 62
     7
 10
4444.5
 20
19673.5192305276286788
 30
0.0
 11
4444.5
 21
19595.6192305276199477
 31
0.0
  0
LINE
  5
3D039
  8
1
  6
CONTINUOUS
 62
     7
 10
4444.5
 20
19665.6192305276308616
 30
0.0
 11
4432.1499999999996362
 21
19657.5192305276286788
 31
0.0
  0
LINE
  5
3D03A
  8
1
  6
CONTINUOUS
 62
     7
 10
4426.4999999999990905
 20
19657.5192305276286788
 30
0.0
 11
4432.1499999999996362
 21
19657.5192305276286788
 31
0.0
  0
LINE
  5
3D03B
  8
1
  6
CONTINUOUS
 62
     7
 10
4324.4999999999990905
 20
19669.7692305276286788
 30
0.0
 11
4316.0399999999999636
 21
19669.7692305276286788
 31
0.0
  0
LINE
  5
3D03C
  8
1
  6
CONTINUOUS
 62
     7
 10
4363.0
 20
19660.0192305276286788
 30
0.0
 11
4363.0
 21
19598.0192305276286788
 31
0.0
  0
LINE
  5
3D03D
  8
1
  6
CONTINUOUS
 62
     7
 10
4363.0
 20
19655.0192305276286788
 30
0.0
 11
4324.4999999999990905
 21
19655.0192305276286788
 31
0.0
  0
LINE
  5
3D03E
  8
1
  6
CONTINUOUS
 62
     7
 10
4324.4999999999990905
 20
19598.0192305276286788
 30
0.0
 11
4324.4999999999990905
 21
19669.7692305276286788
 31
0.0
  0
LINE
  5
3D03F
  8
1
  6
CONTINUOUS
 62
     7
 10
6550.4999999999990905
 20
19541.0192305276286788
 30
0.0
 11
5890.5
 21
19541.0192305276286788
 31
0.0
  0
LINE
  5
3D040
  8
1
  6
CONTINUOUS
 62
     7
 10
6550.4999999999990905
 20
19655.0192305276286788
 30
0.0
 11
5890.5
 21
19655.0192305276286788
 31
0.0
  0
LINE
  5
3D041
  8
1
  6
CONTINUOUS
 62
     7
 10
5890.5
 20
19598.0192305276286788
 30
0.0
 11
5890.5
 21
19522.5192305276286788
 31
0.0
  0
LINE
  5
3D042
  8
1
  6
CONTINUOUS
 62
     7
 10
5890.5
 20
19598.0192305276286788
 30
0.0
 11
5890.5
 21
19673.5192305276286788
 31
0.0
  0
LINE
  5
3D044
  8
1
  6
CONTINUOUS
 62
     7
 10
6636.5200000000004366
 20
19541.0192305276286788
 30
0.0
 11
6636.5200000000004366
 21
19598.0192305276286788
 31
0.0
  0
LINE
  5
3D045
  8
1
  6
CONTINUOUS
 62
     7
 10
6550.4999999999990905
 20
19598.0192305276286788
 30
0.0
 11
6550.4999999999990905
 21
19526.2692305276286788
 31
0.0
  0
ARC
  5
3D046
  8
1
  6
CONTINUOUS
 62
     7
 10
6585.5
 20
19598.0192305276286788
 30
0.0
 40
76.5
 50
249.7030000000000882
 51
311.8319999999933998
  0
LINE
  5
3D047
  8
1
  6
CONTINUOUS
 62
     7
 10
6550.4999999999990905
 20
19526.2692305276286788
 30
0.0
 11
6558.9600000000000364
 21
19526.2692305276286788
 31
0.0
  0
ARC
  5
3D048
  8
1
  6
CONTINUOUS
 62
     7
 10
6585.5
 20
19598.0192305276286788
 30
0.0
 40
76.5
 50
48.1680000000065718
 51
110.2967999999911939
  0
LINE
  5
3D049
  8
1
  6
CONTINUOUS
 62
     7
 10
6636.5200000000004366
 20
19655.0192305276286788
 30
0.0
 11
6636.5200000000004366
 21
19598.0192305276286788
 31
0.0
  0
LINE
  5
3D04A
  8
1
  6
CONTINUOUS
 62
     7
 10
6550.4999999999990905
 20
19598.0192305276286788
 30
0.0
 11
6550.4999999999990905
 21
19669.7692305276286788
 31
0.0
  0
LINE
  5
3D04B
  8
1
  6
CONTINUOUS
 62
     7
 10
6550.4999999999990905
 20
19669.7692305276286788
 30
0.0
 11
6558.9600000000000364
 21
19669.7692305276286788
 31
0.0
  0
LINE
  5
3D04C
  8
1
  6
CONTINUOUS
 62
     7
 10
6709.5
 20
19493.0192305276286788
 30
0.0
 11
6709.5
 21
19598.0192305276286788
 31
0.0
  0
LINE
  5
3D04D
  8
1
  6
CONTINUOUS
 62
     7
 10
6727.5
 20
19493.0192305276286788
 30
0.0
 11
6727.5
 21
19598.0192305276286788
 31
0.0
  0
LINE
  5
3D04E
  8
1
  6
CONTINUOUS
 62
     7
 10
6727.5
 20
19493.0192305276286788
 30
0.0
 11
6709.5
 21
19493.0192305276286788
 31
0.0
  0
LINE
  5
3D04F
  8
1
  6
CONTINUOUS
 62
     7
 10
6709.5
 20
19703.0192305276286788
 30
0.0
 11
6709.5
 21
19598.0192305276286788
 31
0.0
  0
LINE
  5
3D050
  8
1
  6
CONTINUOUS
 62
     7
 10
6727.5
 20
19703.0192305276286788
 30
0.0
 11
6727.5
 21
19598.0192305276286788
 31
0.0
  0
LINE
  5
3D051
  8
1
  6
CONTINUOUS
 62
     7
 10
6727.5
 20
19703.0192305276286788
 30
0.0
 11
6709.5
 21
19703.0192305276286788
 31
0.0
  0
LINE
  5
3D052
  8
1
  6
CONTINUOUS
 62
     7
 10
6636.5200000000004366
 20
19541.0192305276286788
 30
0.0
 11
6709.5
 21
19541.0192305276286788
 31
0.0
  0
LINE
  5
3D053
  8
1
  6
CONTINUOUS
 62
     7
 10
6636.5200000000004366
 20
19655.0192305276286788
 30
0.0
 11
6709.5
 21
19655.0192305276286788
 31
0.0
  0
LINE
  5
3D08E
  8
1
  6
CONTINUOUS
 62
     7
 10
4426.4999999999990905
 20
19538.5192305276286788
 30
0.0
 11
4432.1499999999996362
 21
19538.5192305276286788
 31
0.0
  0
LINE
  5
3D08F
  8
1
  6
CONTINUOUS
 62
     7
 10
4444.5
 20
19530.419230527630134
 30
0.0
 11
4432.1499999999996362
 21
19538.5192305276286788
 31
0.0
  0
LINE
  5
3D498
  8
UL1
 10
3547.5
 20
20353.0192305276286788
 30
0.0
 11
7327.5
 21
20353.0192305276286788
 31
0.0
  0
LINE
  5
3D499
  8
UL1
 10
7327.5
 20
18843.0192305276286788
 30
0.0
 11
3547.5
 21
18843.0192305276286788
 31
0.0
  0
LINE
  5
3D49A
  8
UL1
 10
4147.4999999999990905
 20
19443.0192305276286788
 30
0.0
 11
4147.4999999999990905
 21
19753.0192305276286788
 31
0.0
  0
LINE
  5
3D49B
  8
UL1
 10
6727.5
 20
18843.0192305276286788
 30
0.0
 11
6727.5
 21
20353.0192305276286788
 31
0.0
  0
LINE
  5
3D49C
  8
UL1
 10
3547.5
 20
20353.0192305276286788
 30
0.0
 11
3547.5
 21
18843.0192305276286788
 31
0.0
  0
LINE
  5
3D49D
  8
UL1
 10
7327.5
 20
20353.0192305276286788
 30
0.0
 11
7327.5
 21
18843.0192305276286788
 31
0.0
  0
LINE
  5
3D4A4
  8
UL1
 10
4147.4999999999990905
 20
19753.0192305276286788
 30
0.0
 11
6550.4999999999990905
 21
20353.0192305276286788
 31
0.0
  0
LINE
  5
3D4A5
  8
UL1
 10
4147.4999999999990905
 20
19443.0192305276286788
 30
0.0
 11
6550.4999999999990905
 21
18843.0192305276286788
 31
0.0
  0
TEXT
  5
3D559
  8
SCALE
 10
5110.8333333333312112
 20
18254.6225795925383864
 30
0.0
 40
200.0
  1
平面図
 72
     4
 11
5437.4999999999972715
 21
18347.955912925870507
 31
0.0
  0
LINE
  5
3D5FA
  8
1
  6
CONTINUOUS
 62
     7
 10
15969.5
 20
19509.0192305276286788
 30
0.0
 11
14523.5
 21
19509.0192305276286788
 31
0.0
  0
LINE
  5
3D5FB
  8
1
  6
CONTINUOUS
 62
     7
 10
15969.5
 20
19687.0192305276286788
 30
0.0
 11
14523.5
 21
19687.0192305276286788
 31
0.0
  0
LINE
  5
3D5FC
  8
CENTER
 10
16855.2200000000011642
 20
19598.0192305276286788
 30
0.0
 11
14530.5
 21
19598.0192305276286788
 31
0.0
  0
LINE
  5
3D5FD
  8
CENTER
 10
14500.5
 20
19598.0192305276286788
 30
0.0
 11
14175.6599999999998545
 21
19598.0192305276286788
 31
0.0
  0
LINE
  5
3D5FE
  8
CENTER
 10
14530.5
 20
19598.0192305276286788
 30
0.0
 11
14500.5
 21
19598.0192305276286788
 31
0.0
  0
LINE
  5
3D5FF
  8
1
  6
CONTINUOUS
 62
     7
 10
14507.5
 20
19600.6992305276289699
 30
0.0
 11
14507.5
 21
19522.5192305276286788
 31
0.0
  0
LINE
  5
3D600
  8
1
  6
CONTINUOUS
 62
     7
 10
14523.5
 20
19595.3392305276283878
 30
0.0
 11
14523.5
 21
19509.0192305276286788
 31
0.0
  0
LINE
  5
3D602
  8
1
  6
CONTINUOUS
 62
     7
 10
14523.5
 20
19687.0192305276286788
 30
0.0
 11
14523.5
 21
19595.3392305276283878
 31
0.0
  0
LINE
  5
3D603
  8
1
  6
CONTINUOUS
 62
     7
 10
14507.5
 20
19673.5192305276286788
 30
0.0
 11
14507.5
 21
19600.6992305276289699
 31
0.0
  0
LINE
  5
3D604
  8
1
  6
CONTINUOUS
 62
     7
 10
14523.5
 20
19677.3992305276296975
 30
0.0
 11
14511.5900000000001455
 21
19669.5192305276286788
 31
0.0
  0
LINE
  5
3D605
  8
1
  6
CONTINUOUS
 62
     7
 10
14507.5
 20
19669.5192305276286788
 30
0.0
 11
14511.5900000000001455
 21
19669.5192305276286788
 31
0.0
  0
ARC
  5
3D606
  8
1
  6
CONTINUOUS
 62
     7
 10
14355.5
 20
19598.0192305276286788
 30
0.0
 40
92.2499999999999858
 50
229.358999999974202
 51
289.4229999999787992
  0
ARC
  5
3D607
  8
1
  6
CONTINUOUS
 62
     7
 10
14355.5
 20
19598.0192305276286788
 30
0.0
 40
92.2499999999999858
 50
70.5770000000211724
 51
130.6407999999975971
  0
LINE
  5
3D608
  8
1
  6
CONTINUOUS
 62
     7
 10
14217.5
 20
19723.0192305276286788
 30
0.0
 11
14217.5
 21
19598.0192305276286788
 31
0.0
  0
LINE
  5
3D609
  8
1
  6
CONTINUOUS
 62
     7
 10
14197.5
 20
19723.0192305276286788
 30
0.0
 11
14197.5
 21
19598.0192305276286788
 31
0.0
  0
LINE
  5
3D60A
  8
1
  6
CONTINUOUS
 62
     7
 10
14217.5
 20
19473.0192305276286788
 30
0.0
 11
14217.5
 21
19598.0192305276286788
 31
0.0
  0
LINE
  5
3D60B
  8
1
  6
CONTINUOUS
 62
     7
 10
14197.5
 20
19473.0192305276286788
 30
0.0
 11
14197.5
 21
19598.0192305276286788
 31
0.0
  0
LINE
  5
3D60C
  8
1
  6
CONTINUOUS
 62
     7
 10
14197.5
 20
19473.0192305276286788
 30
0.0
 11
14217.5
 21
19473.0192305276286788
 31
0.0
  0
LINE
  5
3D60D
  8
1
  6
CONTINUOUS
 62
     7
 10
14197.5
 20
19723.0192305276286788
 30
0.0
 11
14217.5
 21
19723.0192305276286788
 31
0.0
  0
LINE
  5
3D60E
  8
1
  6
CONTINUOUS
 62
     7
 10
14295.4200000000000728
 20
19528.0192305276286788
 30
0.0
 11
14295.4200000000000728
 21
19598.0192305276286788
 31
0.0
  0
LINE
  5
3D60F
  8
1
  6
CONTINUOUS
 62
     7
 10
14295.4200000000000728
 20
19668.0192305276286788
 30
0.0
 11
14295.4200000000000728
 21
19598.0192305276286788
 31
0.0
  0
LINE
  5
3D610
  8
1
  6
CONTINUOUS
 62
     7
 10
14295.4200000000000728
 20
19668.0192305276286788
 30
0.0
 11
14217.5
 21
19668.0192305276286788
 31
0.0
  0
LINE
  5
3D611
  8
1
  6
CONTINUOUS
 62
     7
 10
14295.4200000000000728
 20
19528.0192305276286788
 30
0.0
 11
14217.5
 21
19528.0192305276286788
 31
0.0
  0
LINE
  5
3D612
  8
1
  6
CONTINUOUS
 62
     7
 10
14395.5
 20
19598.0192305276286788
 30
0.0
 11
14395.5
 21
19511.0192305276214029
 31
0.0
  0
LINE
  5
3D613
  8
1
  6
CONTINUOUS
 62
     7
 10
14435.5
 20
19522.5192305276286788
 30
0.0
 11
14435.5
 21
19598.0192305276286788
 31
0.0
  0
LINE
  5
3D614
  8
1
  6
CONTINUOUS
 62
     7
 10
14435.5
 20
19528.0192305276286788
 30
0.0
 11
14395.5
 21
19528.0192305276286788
 31
0.0
  0
LINE
  5
3D615
  8
1
  6
CONTINUOUS
 62
     7
 10
14395.5
 20
19511.0192305276214029
 30
0.0
 11
14386.180000000000291
 21
19511.0192305276214029
 31
0.0
  0
LINE
  5
3D616
  8
1
  6
CONTINUOUS
 62
     7
 10
14435.5
 20
19673.5192305276286788
 30
0.0
 11
14435.5
 21
19598.0192305276286788
 31
0.0
  0
LINE
  5
3D617
  8
1
  6
CONTINUOUS
 62
     7
 10
14435.5
 20
19668.0192305276286788
 30
0.0
 11
14395.5
 21
19668.0192305276286788
 31
0.0
  0
LINE
  5
3D618
  8
1
  6
CONTINUOUS
 62
     7
 10
14395.5
 20
19598.0192305276286788
 30
0.0
 11
14395.5
 21
19685.0192305276286788
 31
0.0
  0
LINE
  5
3D619
  8
1
  6
CONTINUOUS
 62
     7
 10
14395.5
 20
19685.0192305276286788
 30
0.0
 11
14386.180000000000291
 21
19685.0192305276286788
 31
0.0
  0
LINE
  5
3D61A
  8
1
  6
CONTINUOUS
 62
     7
 10
14507.5
 20
19673.5192305276286788
 30
0.0
 11
14435.5
 21
19673.5192305276286788
 31
0.0
  0
LINE
  5
3D61B
  8
1
  6
CONTINUOUS
 62
     7
 10
14507.5
 20
19522.5192305276286788
 30
0.0
 11
14435.5
 21
19522.5192305276286788
 31
0.0
  0
LINE
  5
3D61C
  8
1
  6
CONTINUOUS
 62
     7
 10
16629.5
 20
19511.0192305276214029
 30
0.0
 11
16638.819999999999709
 21
19511.0192305276214029
 31
0.0
  0
LINE
  5
3D61D
  8
1
  6
CONTINUOUS
 62
     7
 10
16629.5
 20
19685.0192305276286788
 30
0.0
 11
16638.819999999999709
 21
19685.0192305276286788
 31
0.0
  0
LINE
  5
3D61E
  8
1
  6
CONTINUOUS
 62
     7
 10
16629.5
 20
19528.0192305276286788
 30
0.0
 11
15969.5
 21
19528.0192305276286788
 31
0.0
  0
LINE
  5
3D61F
  8
1
  6
CONTINUOUS
 62
     7
 10
16629.5
 20
19668.0192305276286788
 30
0.0
 11
15969.5
 21
19668.0192305276286788
 31
0.0
  0
LINE
  5
3D620
  8
1
  6
CONTINUOUS
 62
     7
 10
15969.5
 20
19598.0192305276286788
 30
0.0
 11
15969.5
 21
19509.0192305276286788
 31
0.0
  0
LINE
  5
3D621
  8
1
  6
CONTINUOUS
 62
     7
 10
15969.5
 20
19598.0192305276286788
 30
0.0
 11
15969.5
 21
19687.0192305276286788
 31
0.0
  0
LINE
  5
3D622
  8
1
  6
CONTINUOUS
 62
     7
 10
16629.5
 20
19598.0192305276286788
 30
0.0
 11
16629.5
 21
19511.0192305276214029
 31
0.0
  0
LINE
  5
3D623
  8
1
  6
CONTINUOUS
 62
     7
 10
16629.5
 20
19598.0192305276286788
 30
0.0
 11
16629.5
 21
19685.0192305276286788
 31
0.0
  0
LINE
  5
3D624
  8
1
  6
CONTINUOUS
 62
     7
 10
16729.5800000000017462
 20
19668.0192305276286788
 30
0.0
 11
16807.5
 21
19668.0192305276286788
 31
0.0
  0
LINE
  5
3D625
  8
1
  6
CONTINUOUS
 62
     7
 10
16729.5800000000017462
 20
19528.0192305276286788
 30
0.0
 11
16807.5
 21
19528.0192305276286788
 31
0.0
  0
LINE
  5
3D626
  8
1
  6
CONTINUOUS
 62
     7
 10
16729.5800000000017462
 20
19528.0192305276286788
 30
0.0
 11
16729.5800000000017462
 21
19598.0192305276286788
 31
0.0
  0
LINE
  5
3D627
  8
1
  6
CONTINUOUS
 62
     7
 10
16729.5800000000017462
 20
19668.0192305276286788
 30
0.0
 11
16729.5800000000017462
 21
19598.0192305276286788
 31
0.0
  0
ARC
  5
3D628
  8
1
  6
CONTINUOUS
 62
     7
 10
16669.5
 20
19598.0192305276286788
 30
0.0
 40
92.2499999999999858
 50
49.358999999974202
 51
109.4229999999787992
  0
ARC
  5
3D629
  8
1
  6
CONTINUOUS
 62
     7
 10
16669.5
 20
19598.0192305276286788
 30
0.0
 40
92.2499999999999858
 50
250.5770000000212008
 51
310.6410000000258265
  0
LINE
  5
3D62A
  8
1
  6
CONTINUOUS
 62
     7
 10
16807.5
 20
19723.0192305276286788
 30
0.0
 11
16807.5
 21
19598.0192305276286788
 31
0.0
  0
LINE
  5
3D62B
  8
1
  6
CONTINUOUS
 62
     7
 10
16827.5
 20
19723.0192305276286788
 30
0.0
 11
16827.5
 21
19598.0192305276286788
 31
0.0
  0
LINE
  5
3D62C
  8
1
  6
CONTINUOUS
 62
     7
 10
16807.5
 20
19473.0192305276286788
 30
0.0
 11
16807.5
 21
19598.0192305276286788
 31
0.0
  0
LINE
  5
3D62D
  8
1
  6
CONTINUOUS
 62
     7
 10
16827.5
 20
19473.0192305276286788
 30
0.0
 11
16827.5
 21
19598.0192305276286788
 31
0.0
  0
LINE
  5
3D62E
  8
1
  6
CONTINUOUS
 62
     7
 10
16827.5
 20
19473.0192305276286788
 30
0.0
 11
16807.5
 21
19473.0192305276286788
 31
0.0
  0
LINE
  5
3D62F
  8
1
  6
CONTINUOUS
 62
     7
 10
16827.5
 20
19723.0192305276286788
 30
0.0
 11
16807.5
 21
19723.0192305276286788
 31
0.0
  0
LINE
  5
3D630
  8
1
  6
CONTINUOUS
 62
     7
 10
14523.4999999999599822
 20
19518.6392305276094703
 30
0.0
 11
14511.5899999999692227
 21
19526.5192305276214029
 31
0.0
  0
LINE
  5
3D631
  8
1
  6
CONTINUOUS
 62
     7
 10
14507.4999999999708962
 20
19526.5192305276214029
 30
0.0
 11
14511.5899999999692227
 21
19526.5192305276214029
 31
0.0
  0
LINE
  5
3D636
  8
UL1
 10
13597.5
 20
20373.0192305276286788
 30
0.0
 11
17427.5
 21
20373.0192305276286788
 31
0.0
  0
LINE
  5
3D637
  8
UL1
 10
17427.5
 20
18823.0192305276286788
 30
0.0
 11
13597.5
 21
18823.0192305276286788
 31
0.0
  0
LINE
  5
3D638
  8
UL1
 10
14197.5
 20
19773.0192305276286788
 30
0.0
 11
14197.5
 21
19423.0192305276286788
 31
0.0
  0
LINE
  5
3D63A
  8
UL1
 10
16827.5
 20
18823.0192305276286788
 30
0.0
 11
16827.5
 21
20373.0192305276286788
 31
0.0
  0
LINE
  5
3D63B
  8
UL1
 10
13597.5
 20
20373.0192305276286788
 30
0.0
 11
13597.5
 21
18823.0192305276286788
 31
0.0
  0
LINE
  5
3D63C
  8
UL1
 10
17427.5
 20
20373.0192305276286788
 30
0.0
 11
17427.5
 21
18823.0192305276286788
 31
0.0
  0
LINE
  5
3D63D
  8
UL1
 10
14197.5
 20
19773.0192305276286788
 30
0.0
 11
16629.5
 21
20373.0192305276286788
 31
0.0
  0
LINE
  5
3D63E
  8
UL1
 10
14197.5
 20
19423.0192305276286788
 30
0.0
 11
16629.5
 21
18823.0192305276286788
 31
0.0
  0
TEXT
  5
3D6E0
  8
SCALE
 10
15185.8333333333303017
 20
18254.6225795925383864
 30
0.0
 40
200.0
  1
平面図
 72
     4
 11
15512.5
 21
18347.955912925870507
 31
0.0
  0
LINE
  5
3D71A
  8
CENTER
 10
27005.5299999999988358
 20
19598.0192305276286788
 30
0.0
 11
24622.5
 21
19598.0192305276286788
 31
0.0
  0
LINE
  5
3D71B
  8
1
  6
CONTINUOUS
 62
     7
 10
26062.5
 20
19515.5192305276286788
 30
0.0
 11
26722.5
 21
19515.5192305276286788
 31
0.0
  0
LINE
  5
3D71C
  8
1
  6
CONTINUOUS
 62
     7
 10
26062.5
 20
19680.5192305276286788
 30
0.0
 11
26722.5
 21
19680.5192305276286788
 31
0.0
  0
LINE
  5
3D71D
  8
CENTER
 10
24572.5
 20
19598.0192305276286788
 30
0.0
 11
24177.7299999999995634
 21
19598.0192305276286788
 31
0.0
  0
LINE
  5
3D71E
  8
1
  6
CONTINUOUS
 62
     7
 10
24492.5
 20
19680.5192305276286788
 30
0.0
 11
24452.5
 21
19680.5192305276286788
 31
0.0
  0
LINE
  5
3D71F
  8
1
  6
CONTINUOUS
 62
     7
 10
24492.5
 20
19515.5192305276286788
 30
0.0
 11
24452.5
 21
19515.5192305276286788
 31
0.0
  0
ARC
  5
3D720
  8
1
  6
CONTINUOUS
 62
     7
 10
24412.5
 20
19598.0192305276286788
 30
0.0
 40
106.5
 50
230.7729999999772019
 51
288.4939999999747897
  0
ARC
  5
3D721
  8
1
  6
CONTINUOUS
 62
     7
 10
24412.5
 20
19598.0192305276286788
 30
0.0
 40
106.5
 50
71.5060000000251819
 51
129.226899999992213
  0
LINE
  5
3D722
  8
1
  6
CONTINUOUS
 62
     7
 10
24234.5
 20
19738.0192305276286788
 30
0.0
 11
24234.5
 21
19598.0192305276286788
 31
0.0
  0
LINE
  5
3D723
  8
1
  6
CONTINUOUS
 62
     7
 10
24212.5
 20
19738.0192305276286788
 30
0.0
 11
24212.5
 21
19598.0192305276286788
 31
0.0
  0
LINE
  5
3D724
  8
1
  6
CONTINUOUS
 62
     7
 10
24234.5
 20
19458.0192305276286788
 30
0.0
 11
24234.5
 21
19598.0192305276286788
 31
0.0
  0
LINE
  5
3D725
  8
1
  6
CONTINUOUS
 62
     7
 10
24212.5
 20
19458.0192305276286788
 30
0.0
 11
24212.5
 21
19598.0192305276286788
 31
0.0
  0
LINE
  5
3D726
  8
1
  6
CONTINUOUS
 62
     7
 10
24212.5
 20
19458.0192305276286788
 30
0.0
 11
24234.5
 21
19458.0192305276286788
 31
0.0
  0
LINE
  5
3D727
  8
1
  6
CONTINUOUS
 62
     7
 10
24212.5
 20
19738.0192305276286788
 30
0.0
 11
24234.5
 21
19738.0192305276286788
 31
0.0
  0
LINE
  5
3D728
  8
1
  6
CONTINUOUS
 62
     7
 10
24345.1500000000014552
 20
19680.5192305276286788
 30
0.0
 11
24345.1500000000014552
 21
19598.0192305276286788
 31
0.0
  0
LINE
  5
3D729
  8
1
  6
CONTINUOUS
 62
     7
 10
24345.1500000000014552
 20
19515.5192305276286788
 30
0.0
 11
24345.1500000000014552
 21
19598.0192305276286788
 31
0.0
  0
LINE
  5
3D72A
  8
1
  6
CONTINUOUS
 62
     7
 10
24345.1500000000014552
 20
19515.5192305276286788
 30
0.0
 11
24234.5
 21
19515.5192305276286788
 31
0.0
  0
LINE
  5
3D72B
  8
1
  6
CONTINUOUS
 62
     7
 10
24345.1500000000014552
 20
19680.5192305276286788
 30
0.0
 11
24234.5
 21
19680.5192305276286788
 31
0.0
  0
LINE
  5
3D72D
  8
1
  6
CONTINUOUS
 62
     7
 10
24452.5
 20
19598.0192305276286788
 30
0.0
 11
24452.5
 21
19699.0192305276286788
 31
0.0
  0
LINE
  5
3D72E
  8
1
  6
CONTINUOUS
 62
     7
 10
24452.5
 20
19598.0192305276286788
 30
0.0
 11
24452.5
 21
19497.0192305276286788
 31
0.0
  0
LINE
  5
3D72F
  8
1
  6
CONTINUOUS
 62
     7
 10
24446.2799999999988358
 20
19497.0192305276286788
 30
0.0
 11
24452.5
 21
19497.0192305276286788
 31
0.0
  0
LINE
  5
3D730
  8
1
  6
CONTINUOUS
 62
     7
 10
24446.2799999999988358
 20
19699.0192305276286788
 30
0.0
 11
24452.5
 21
19699.0192305276286788
 31
0.0
  0
LINE
  5
3D731
  8
1
  6
CONTINUOUS
 62
     7
 10
26062.5
 20
19483.5192305276286788
 30
0.0
 11
24615.5
 21
19483.5192305276286788
 31
0.0
  0
LINE
  5
3D732
  8
1
  6
CONTINUOUS
 62
     7
 10
26062.5
 20
19712.5192305276286788
 30
0.0
 11
24615.5
 21
19712.5192305276286788
 31
0.0
  0
LINE
  5
3D733
  8
1
  6
CONTINUOUS
 62
     7
 10
24579.5
 20
19687.0192305276286788
 30
0.0
 11
24579.5
 21
19601.3792305276292609
 31
0.0
  0
LINE
  5
3D734
  8
1
  6
CONTINUOUS
 62
     7
 10
24492.5
 20
19687.0192305276286788
 30
0.0
 11
24492.5
 21
19598.0192305276286788
 31
0.0
  0
LINE
  5
3D735
  8
1
  6
CONTINUOUS
 62
     7
 10
24615.5
 20
19712.5192305276286788
 30
0.0
 11
24615.5
 21
19594.6592305276317347
 31
0.0
  0
LINE
  5
3D736
  8
1
  6
CONTINUOUS
 62
     7
 10
24579.5
 20
19509.0192305276286788
 30
0.0
 11
24492.5
 21
19509.0192305276286788
 31
0.0
  0
LINE
  5
3D737
  8
CENTER
 10
24622.5
 20
19598.0192305276286788
 30
0.0
 11
24572.5
 21
19598.0192305276286788
 31
0.0
  0
LINE
  5
3D738
  8
1
  6
CONTINUOUS
 62
     7
 10
24579.5
 20
19509.0192305276286788
 30
0.0
 11
24579.5
 21
19601.3792305276292609
 31
0.0
  0
LINE
  5
3D739
  8
1
  6
CONTINUOUS
 62
     7
 10
24615.5
 20
19483.5192305276286788
 30
0.0
 11
24615.5
 21
19594.6592305276317347
 31
0.0
  0
LINE
  5
3D73B
  8
1
  6
CONTINUOUS
 62
     7
 10
24492.5
 20
19509.0192305276286788
 30
0.0
 11
24492.5
 21
19598.0192305276286788
 31
0.0
  0
LINE
  5
3D73C
  8
1
  6
CONTINUOUS
 62
     7
 10
24579.5
 20
19687.0192305276286788
 30
0.0
 11
24492.5
 21
19687.0192305276286788
 31
0.0
  0
LINE
  5
3D73D
  8
1
  6
CONTINUOUS
 62
     7
 10
24615.5
 20
19701.239230527629843
 30
0.0
 11
24593.25
 21
19682.5192305276286788
 31
0.0
  0
LINE
  5
3D73E
  8
1
  6
CONTINUOUS
 62
     7
 10
24593.25
 20
19682.5192305276286788
 30
0.0
 11
24579.5
 21
19682.5192305276286788
 31
0.0
  0
LINE
  5
3D73F
  8
1
  6
CONTINUOUS
 62
     7
 10
26062.5
 20
19712.5192305276286788
 30
0.0
 11
26062.5
 21
19598.0192305276286788
 31
0.0
  0
LINE
  5
3D740
  8
1
  6
CONTINUOUS
 62
     7
 10
26062.5
 20
19483.5192305276286788
 30
0.0
 11
26062.5
 21
19598.0192305276286788
 31
0.0
  0
LINE
  5
3D741
  8
1
  6
CONTINUOUS
 62
     7
 10
26940.5
 20
19738.0192305276286788
 30
0.0
 11
26940.5
 21
19598.0192305276286788
 31
0.0
  0
LINE
  5
3D742
  8
1
  6
CONTINUOUS
 62
     7
 10
26962.5
 20
19738.0192305276286788
 30
0.0
 11
26962.5
 21
19598.0192305276286788
 31
0.0
  0
LINE
  5
3D743
  8
1
  6
CONTINUOUS
 62
     7
 10
26829.8499999999985448
 20
19515.5192305276286788
 30
0.0
 11
26940.5
 21
19515.5192305276286788
 31
0.0
  0
LINE
  5
3D744
  8
1
  6
CONTINUOUS
 62
     7
 10
26829.8499999999985448
 20
19680.5192305276286788
 30
0.0
 11
26940.5
 21
19680.5192305276286788
 31
0.0
  0
ARC
  5
3D745
  8
1
  6
CONTINUOUS
 62
     7
 10
26762.5
 20
19598.0192305276286788
 30
0.0
 40
106.5
 50
50.7729999999772588
 51
108.4939999999748039
  0
ARC
  5
3D746
  8
1
  6
CONTINUOUS
 62
     7
 10
26762.5
 20
19598.0192305276286788
 30
0.0
 40
106.5
 50
251.5060000000252103
 51
309.2270000000228265
  0
LINE
  5
3D747
  8
1
  6
CONTINUOUS
 62
     7
 10
26722.5
 20
19598.0192305276286788
 30
0.0
 11
26722.5
 21
19699.0192305276286788
 31
0.0
  0
LINE
  5
3D748
  8
1
  6
CONTINUOUS
 62
     7
 10
26722.5
 20
19598.0192305276286788
 30
0.0
 11
26722.5
 21
19497.0192305276286788
 31
0.0
  0
LINE
  5
3D749
  8
1
  6
CONTINUOUS
 62
     7
 10
26728.7200000000011642
 20
19497.0192305276286788
 30
0.0
 11
26722.5
 21
19497.0192305276286788
 31
0.0
  0
LINE
  5
3D74A
  8
1
  6
CONTINUOUS
 62
     7
 10
26728.7200000000011642
 20
19699.0192305276286788
 30
0.0
 11
26722.5
 21
19699.0192305276286788
 31
0.0
  0
LINE
  5
3D74C
  8
1
  6
CONTINUOUS
 62
     7
 10
26829.8499999999985448
 20
19680.5192305276286788
 30
0.0
 11
26829.8499999999985448
 21
19598.0192305276286788
 31
0.0
  0
LINE
  5
3D74D
  8
1
  6
CONTINUOUS
 62
     7
 10
26829.8499999999985448
 20
19515.5192305276286788
 30
0.0
 11
26829.8499999999985448
 21
19598.0192305276286788
 31
0.0
  0
LINE
  5
3D74E
  8
1
  6
CONTINUOUS
 62
     7
 10
26940.5
 20
19458.0192305276286788
 30
0.0
 11
26940.5
 21
19598.0192305276286788
 31
0.0
  0
LINE
  5
3D74F
  8
1
  6
CONTINUOUS
 62
     7
 10
26962.5
 20
19458.0192305276286788
 30
0.0
 11
26962.5
 21
19598.0192305276286788
 31
0.0
  0
LINE
  5
3D750
  8
1
  6
CONTINUOUS
 62
     7
 10
26962.5
 20
19458.0192305276286788
 30
0.0
 11
26940.5
 21
19458.0192305276286788
 31
0.0
  0
LINE
  5
3D751
  8
1
  6
CONTINUOUS
 62
     7
 10
26962.5
 20
19738.0192305276286788
 30
0.0
 11
26940.5
 21
19738.0192305276286788
 31
0.0
  0
LINE
  5
3D754
  8
1
  6
CONTINUOUS
 62
     7
 10
24615.5
 20
19494.7992305276311527
 30
0.0
 11
24593.25
 21
19513.5192305276286788
 31
0.0
  0
LINE
  5
3D755
  8
1
  6
CONTINUOUS
 62
     7
 10
24593.25
 20
19513.5192305276286788
 30
0.0
 11
24579.5
 21
19513.5192305276286788
 31
0.0
  0
LINE
  5
3D75C
  8
UL1
 10
23612.5
 20
20388.0192305276286788
 30
0.0
 11
27562.5
 21
20388.0192305276286788
 31
0.0
  0
LINE
  5
3D75D
  8
UL1
 10
23612.5
 20
18808.0192305276286788
 30
0.0
 11
27562.5
 21
18808.0192305276286788
 31
0.0
  0
LINE
  5
3D762
  8
UL1
 10
26962.5
 20
18808.0192305276286788
 30
0.0
 11
26962.5
 21
20388.0192305276286788
 31
0.0
  0
LINE
  5
3D763
  8
UL1
 10
24212.5
 20
19788.0192305276286788
 30
0.0
 11
26722.5
 21
20388.0192305276286788
 31
0.0
  0
LINE
  5
3D764
  8
UL1
 10
24212.5
 20
19408.0192305276286788
 30
0.0
 11
26722.5
 21
18808.0192305276286788
 31
0.0
  0
LINE
  5
3D765
  8
UL1
 10
23612.5
 20
20388.0192305276286788
 30
0.0
 11
23612.5
 21
18808.0192305276286788
 31
0.0
  0
LINE
  5
3D766
  8
UL1
 10
27562.5
 20
18808.0192305276286788
 30
0.0
 11
27562.5
 21
20388.0192305276286788
 31
0.0
  0
LINE
  5
3D767
  8
UL1
 10
24212.5
 20
19788.0192305276286788
 30
0.0
 11
24212.5
 21
19408.0192305276286788
 31
0.0
  0
TEXT
  5
3D807
  8
SCALE
 10
25260.8333333333284827
 20
18254.6225795925383864
 30
0.0
 40
200.0
  1
平面図
 72
     4
 11
25587.5
 21
18347.955912925870507
 31
0.0
  0
LINE
  5
3DA5A
  8
1
  6
CONTINUOUS
 62
     7
 10
34224.5
 20
19490.0192305276286788
 30
0.0
 11
34362.0
 21
19490.0192305276286788
 31
0.0
  0
LINE
  5
3DA5B
  8
CENTER
 10
34662.5
 20
19598.0192305276286788
 30
0.0
 11
34179.5400000000008731
 21
19598.0192305276286788
 31
0.0
  0
LINE
  5
3DA5C
  8
1
  6
CONTINUOUS
 62
     7
 10
34224.5
 20
19706.0192305276286788
 30
0.0
 11
34362.0
 21
19706.0192305276286788
 31
0.0
  0
LINE
  5
3DA5D
  8
1
  6
CONTINUOUS
 62
     7
 10
34202.5
 20
19598.0192305276286788
 30
0.0
 11
34202.5
 21
19763.0192305276286788
 31
0.0
  0
LINE
  5
3DA5E
  8
1
  6
CONTINUOUS
 62
     7
 10
34224.5
 20
19598.0192305276286788
 30
0.0
 11
34224.5
 21
19763.0192305276286788
 31
0.0
  0
LINE
  5
3DA5F
  8
1
  6
CONTINUOUS
 62
     7
 10
34202.5
 20
19433.0192305276286788
 30
0.0
 11
34224.5
 21
19433.0192305276286788
 31
0.0
  0
LINE
  5
3DA60
  8
1
  6
CONTINUOUS
 62
     7
 10
34202.5
 20
19598.0192305276286788
 30
0.0
 11
34202.5
 21
19433.0192305276286788
 31
0.0
  0
LINE
  5
3DA61
  8
1
  6
CONTINUOUS
 62
     7
 10
34224.5
 20
19598.0192305276286788
 30
0.0
 11
34224.5
 21
19433.0192305276286788
 31
0.0
  0
LINE
  5
3DA62
  8
1
  6
CONTINUOUS
 62
     7
 10
34202.5
 20
19763.0192305276286788
 30
0.0
 11
34224.5
 21
19763.0192305276286788
 31
0.0
  0
LINE
  5
3DA63
  8
CENTER
 10
37165.5299999999988358
 20
19598.0192305276286788
 30
0.0
 11
34722.5
 21
19598.0192305276286788
 31
0.0
  0
LINE
  5
3DA64
  8
1
  6
CONTINUOUS
 62
     7
 10
36822.5
 20
19706.0192305276286788
 30
0.0
 11
36162.5
 21
19706.0192305276286788
 31
0.0
  0
LINE
  5
3DA65
  8
1
  6
CONTINUOUS
 62
     7
 10
36822.5
 20
19490.0192305276286788
 30
0.0
 11
36162.5
 21
19490.0192305276286788
 31
0.0
  0
LINE
  5
3DA66
  8
1
  6
CONTINUOUS
 62
     7
 10
36162.5
 20
19739.3192305276206753
 30
0.0
 11
34715.5
 21
19739.3192305276206753
 31
0.0
  0
LINE
  5
3DA67
  8
1
  6
CONTINUOUS
 62
     7
 10
36162.5
 20
19456.7192305276184925
 30
0.0
 11
34715.5
 21
19456.7192305276184925
 31
0.0
  0
LINE
  5
3DA68
  8
1
  6
CONTINUOUS
 62
     7
 10
34715.5
 20
19739.3192305276206753
 30
0.0
 11
34715.5
 21
19595.1602305276210245
 31
0.0
  0
LINE
  5
3DA69
  8
1
  6
CONTINUOUS
 62
     7
 10
34674.069999999999709
 20
19707.0192305276286788
 30
0.0
 11
34658.2200000000011642
 21
19707.0192305276286788
 31
0.0
  0
LINE
  5
3DA6A
  8
1
  6
CONTINUOUS
 62
     7
 10
34362.0
 20
19706.0192305276286788
 30
0.0
 11
34362.0
 21
19598.0192305276286788
 31
0.0
  0
LINE
  5
3DA6B
  8
1
  6
CONTINUOUS
 62
     7
 10
34491.6000000000130967
 20
19728.5192305276286788
 30
0.0
 11
34502.5
 21
19728.5192305276286788
 31
0.0
  0
LINE
  5
3DA6C
  8
1
  6
CONTINUOUS
 62
     7
 10
34552.5
 20
19706.0192305276286788
 30
0.0
 11
34502.5
 21
19706.0192305276286788
 31
0.0
  0
LINE
  5
3DA6D
  8
1
  6
CONTINUOUS
 62
     7
 10
34502.5
 20
19728.5192305276286788
 30
0.0
 11
34502.5
 21
19598.0192305276286788
 31
0.0
  0
LINE
  5
3DA6E
  8
1
  6
CONTINUOUS
 62
     7
 10
34552.5
 20
19713.3692305276308616
 30
0.0
 11
34552.5
 21
19598.0192305276286788
 31
0.0
  0
LINE
  5
3DA6F
  8
1
  6
CONTINUOUS
 62
     7
 10
34658.2200000000011642
 20
19707.0192305276286788
 30
0.0
 11
34633.319999999999709
 21
19713.3692305276308616
 31
0.0
  0
LINE
  5
3DA70
  8
1
  6
CONTINUOUS
 62
     7
 10
34633.319999999999709
 20
19713.3692305276308616
 30
0.0
 11
34633.319999999999709
 21
19598.0192305276286788
 31
0.0
  0
LINE
  5
3DA71
  8
1
  6
CONTINUOUS
 62
     7
 10
34658.2200000000011642
 20
19707.0192305276286788
 30
0.0
 11
34658.2200000000011642
 21
19598.0192305276286788
 31
0.0
  0
LINE
  5
3DA72
  8
1
  6
CONTINUOUS
 62
     7
 10
34633.319999999999709
 20
19713.3692305276308616
 30
0.0
 11
34552.5
 21
19713.3692305276308616
 31
0.0
  0
ARC
  5
3DA73
  8
1
  6
CONTINUOUS
 62
     7
 10
34447.5
 20
19598.0192305276286788
 30
0.0
 40
137.75
 50
71.3279999999763419
 51
128.3690000000115106
  0
LINE
  5
3DA74
  8
CENTER
 10
34722.5
 20
19598.0192305276286788
 30
0.0
 11
34662.5
 21
19598.0192305276286788
 31
0.0
  0
LINE
  5
3DA75
  8
1
  6
CONTINUOUS
 62
     7
 10
34715.5
 20
19727.6282305276290572
 30
0.0
 11
34674.069999999999709
 21
19707.0192305276286788
 31
0.0
  0
LINE
  5
3DA77
  8
1
  6
CONTINUOUS
 62
     7
 10
34491.6000000000130967
 20
19467.5192305276286788
 30
0.0
 11
34502.5
 21
19467.5192305276286788
 31
0.0
  0
LINE
  5
3DA78
  8
1
  6
CONTINUOUS
 62
     7
 10
34552.5
 20
19490.0192305276286788
 30
0.0
 11
34502.5
 21
19490.0192305276286788
 31
0.0
  0
LINE
  5
3DA79
  8
1
  6
CONTINUOUS
 62
     7
 10
34658.2200000000011642
 20
19489.0192305276286788
 30
0.0
 11
34633.319999999999709
 21
19482.669230527630134
 31
0.0
  0
LINE
  5
3DA7A
  8
1
  6
CONTINUOUS
 62
     7
 10
34633.319999999999709
 20
19482.669230527630134
 30
0.0
 11
34552.5
 21
19482.669230527630134
 31
0.0
  0
ARC
  5
3DA7B
  8
1
  6
CONTINUOUS
 62
     7
 10
34447.5
 20
19598.0192305276286788
 30
0.0
 40
137.75
 50
231.6309999999884894
 51
288.6720000000236723
  0
LINE
  5
3DA7C
  8
1
  6
CONTINUOUS
 62
     7
 10
34715.5
 20
19456.7192305276184925
 30
0.0
 11
34715.5
 21
19595.1602305276210245
 31
0.0
  0
LINE
  5
3DA7D
  8
1
  6
CONTINUOUS
 62
     7
 10
34362.0
 20
19490.0192305276286788
 30
0.0
 11
34362.0
 21
19598.0192305276286788
 31
0.0
  0
LINE
  5
3DA7E
  8
1
  6
CONTINUOUS
 62
     7
 10
34502.5
 20
19467.5192305276286788
 30
0.0
 11
34502.5
 21
19598.0192305276286788
 31
0.0
  0
LINE
  5
3DA7F
  8
1
  6
CONTINUOUS
 62
     7
 10
34552.5
 20
19482.669230527630134
 30
0.0
 11
34552.5
 21
19598.0192305276286788
 31
0.0
  0
LINE
  5
3DA80
  8
1
  6
CONTINUOUS
 62
     7
 10
34633.319999999999709
 20
19482.669230527630134
 30
0.0
 11
34633.319999999999709
 21
19598.0192305276286788
 31
0.0
  0
LINE
  5
3DA81
  8
1
  6
CONTINUOUS
 62
     7
 10
34658.2200000000011642
 20
19489.0192305276286788
 30
0.0
 11
34658.2200000000011642
 21
19598.0192305276286788
 31
0.0
  0
LINE
  5
3DA82
  8
1
  6
CONTINUOUS
 62
     7
 10
36162.5
 20
19739.3192305276206753
 30
0.0
 11
36162.5
 21
19598.0192305276286788
 31
0.0
  0
LINE
  5
3DA83
  8
1
  6
CONTINUOUS
 62
     7
 10
36162.5
 20
19456.7192305276184925
 30
0.0
 11
36162.5
 21
19598.0192305276286788
 31
0.0
  0
ARC
  5
3DA84
  8
1
  6
CONTINUOUS
 62
     7
 10
36877.5
 20
19598.0192305276286788
 30
0.0
 40
137.75
 50
51.6309999999884823
 51
108.6716999999890021
  0
LINE
  5
3DA85
  8
1
  6
CONTINUOUS
 62
     7
 10
37100.5
 20
19598.0192305276286788
 30
0.0
 11
37100.5
 21
19763.0192305276286788
 31
0.0
  0
LINE
  5
3DA86
  8
1
  6
CONTINUOUS
 62
     7
 10
37122.5
 20
19598.0192305276286788
 30
0.0
 11
37122.5
 21
19763.0192305276286788
 31
0.0
  0
LINE
  5
3DA87
  8
1
  6
CONTINUOUS
 62
     7
 10
36833.4000000000014552
 20
19728.5192305276286788
 30
0.0
 11
36822.5
 21
19728.5192305276286788
 31
0.0
  0
LINE
  5
3DA88
  8
1
  6
CONTINUOUS
 62
     7
 10
36822.5
 20
19728.5192305276286788
 30
0.0
 11
36822.5
 21
19598.0192305276286788
 31
0.0
  0
LINE
  5
3DA89
  8
1
  6
CONTINUOUS
 62
     7
 10
36963.0100000000020373
 20
19706.0192305276286788
 30
0.0
 11
36963.0100000000020373
 21
19598.0192305276286788
 31
0.0
  0
LINE
  5
3DA8A
  8
1
  6
CONTINUOUS
 62
     7
 10
36963.0100000000020373
 20
19490.0192305276286788
 30
0.0
 11
36963.0100000000020373
 21
19598.0192305276286788
 31
0.0
  0
LINE
  5
3DA8B
  8
1
  6
CONTINUOUS
 62
     7
 10
37100.5
 20
19490.0192305276286788
 30
0.0
 11
36963.0100000000020373
 21
19490.0192305276286788
 31
0.0
  0
LINE
  5
3DA8C
  8
1
  6
CONTINUOUS
 62
     7
 10
37100.5
 20
19706.0192305276286788
 30
0.0
 11
36963.0100000000020373
 21
19706.0192305276286788
 31
0.0
  0
LINE
  5
3DA8D
  8
1
  6
CONTINUOUS
 62
     7
 10
37122.5
 20
19433.0192305276286788
 30
0.0
 11
37100.5
 21
19433.0192305276286788
 31
0.0
  0
LINE
  5
3DA8E
  8
1
  6
CONTINUOUS
 62
     7
 10
36833.4000000000014552
 20
19467.5192305276286788
 30
0.0
 11
36822.5
 21
19467.5192305276286788
 31
0.0
  0
ARC
  5
3DA8F
  8
1
  6
CONTINUOUS
 62
     7
 10
36877.5
 20
19598.0192305276286788
 30
0.0
 40
137.75
 50
251.3279999999764129
 51
308.3690000000115106
  0
LINE
  5
3DA90
  8
1
  6
CONTINUOUS
 62
     7
 10
36822.5
 20
19467.5192305276286788
 30
0.0
 11
36822.5
 21
19598.0192305276286788
 31
0.0
  0
LINE
  5
3DA91
  8
1
  6
CONTINUOUS
 62
     7
 10
37100.5
 20
19598.0192305276286788
 30
0.0
 11
37100.5
 21
19433.0192305276286788
 31
0.0
  0
LINE
  5
3DA92
  8
1
  6
CONTINUOUS
 62
     7
 10
37122.5
 20
19598.0192305276286788
 30
0.0
 11
37122.5
 21
19433.0192305276286788
 31
0.0
  0
LINE
  5
3DA93
  8
1
  6
CONTINUOUS
 62
     7
 10
37122.5
 20
19763.0192305276286788
 30
0.0
 11
37100.5
 21
19763.0192305276286788
 31
0.0
  0
LINE
  5
3DA94
  8
1
  6
CONTINUOUS
 62
     7
 10
34674.069999999999709
 20
19489.0192305276286788
 30
0.0
 11
34658.2200000000011642
 21
19489.0192305276286788
 31
0.0
  0
LINE
  5
3DA95
  8
1
  6
CONTINUOUS
 62
     7
 10
34715.5
 20
19468.4102305276283005
 30
0.0
 11
34674.069999999999709
 21
19489.0192305276286788
 31
0.0
  0
LINE
  5
3DA9D
  8
UL1
 10
33602.5
 20
20463.0192305276286788
 30
0.0
 11
37722.5
 21
20463.0192305276286788
 31
0.0
  0
LINE
  5
3DA9E
  8
UL1
 10
33602.5
 20
18733.0192305276286788
 30
0.0
 11
37722.5
 21
18733.0192305276286788
 31
0.0
  0
LINE
  5
3DA9F
  8
UL1
 10
34202.5
 20
19813.0192305276286788
 30
0.0
 11
34202.5
 21
19383.0192305276286788
 31
0.0
  0
LINE
  5
3DAA0
  8
UL1
 10
37122.5
 20
18733.0192305276286788
 30
0.0
 11
37122.5
 21
20463.0192305276286788
 31
0.0
  0
LINE
  5
3DAA2
  8
UL1
 10
33602.5
 20
20463.0192305276286788
 30
0.0
 11
33602.5
 21
18733.0192305276286788
 31
0.0
  0
LINE
  5
3DAA4
  8
UL1
 10
34202.5
 20
19813.0192305276286788
 30
0.0
 11
36822.5
 21
20463.0192305276286788
 31
0.0
  0
LINE
  5
3DAA5
  8
UL1
 10
34202.5
 20
19383.0192305276286788
 30
0.0
 11
36822.5
 21
18733.0192305276286788
 31
0.0
  0
LINE
  5
3DAA7
  8
UL1
 10
37122.5
 20
20463.0192305276286788
 30
0.0
 11
37122.5
 21
18733.0192305276286788
 31
0.0
  0
LINE
  5
3DAA8
  8
UL1
 10
37722.5
 20
20463.0192305276286788
 30
0.0
 11
37722.5
 21
18733.0192305276286788
 31
0.0
  0
TEXT
  5
3DB53
  8
SCALE
 10
35335.8333333333430346
 20
18254.6225795925383864
 30
0.0
 40
200.0
  1
平面図
 72
     4
 11
35662.5
 21
18347.955912925870507
 31
0.0
  0
LINE
  5
3DEB4
  8
1
  6
CONTINUOUS
 62
     7
 10
4165.5
 20
15178.5410367590902752
 30
0.0
 11
4165.5
 21
15283.5410367590902752
 31
0.0
  0
LINE
  5
3DEB5
  8
1
  6
CONTINUOUS
 62
     7
 10
4147.4999999999990905
 20
15178.5410367590902752
 30
0.0
 11
4147.4999999999990905
 21
15283.5410367590902752
 31
0.0
  0
LINE
  5
3DEB6
  8
1
  6
CONTINUOUS
 62
     7
 10
4147.4999999999990905
 20
15178.5410367590902752
 30
0.0
 11
4165.5
 21
15178.5410367590902752
 31
0.0
  0
LINE
  5
3DEB7
  8
CENTER
 10
6770.5299999999988358
 20
15295.5410367590902752
 30
0.0
 11
4450.5
 21
15295.5410367590902752
 31
0.0
  0
LINE
  5
3DEB8
  8
1
  6
CONTINUOUS
 62
     7
 10
5890.5
 20
15220.0410367590902752
 30
0.0
 11
4444.5
 21
15220.0410367590902752
 31
0.0
  0
LINE
  5
3DEB9
  8
1
  6
CONTINUOUS
 62
     7
 10
5890.5
 20
15371.0410367590902752
 30
0.0
 11
4444.5
 21
15371.0410367590902752
 31
0.0
  0
LINE
  5
3DEBA
  8
CENTER
 10
4420.4999999999990905
 20
15283.5410367590902752
 30
0.0
 11
4115.0600000000004002
 21
15283.5410367590902752
 31
0.0
  0
LINE
  5
3DEBB
  8
1
  6
CONTINUOUS
 62
     7
 10
4238.4799999999995634
 20
15226.5410367590902752
 30
0.0
 11
4165.5
 21
15226.5410367590902752
 31
0.0
  0
LINE
  5
3DEBC
  8
1
  6
CONTINUOUS
 62
     7
 10
4238.4799999999995634
 20
15340.5410367590902752
 30
0.0
 11
4165.5
 21
15340.5410367590902752
 31
0.0
  0
LINE
  5
3DEBD
  8
1
  6
CONTINUOUS
 62
     7
 10
4165.5
 20
15388.5410367590902752
 30
0.0
 11
4165.5
 21
15283.5410367590902752
 31
0.0
  0
LINE
  5
3DEBE
  8
1
  6
CONTINUOUS
 62
     7
 10
4147.4999999999990905
 20
15388.5410367590902752
 30
0.0
 11
4147.4999999999990905
 21
15283.5410367590902752
 31
0.0
  0
LINE
  5
3DEBF
  8
1
  6
CONTINUOUS
 62
     7
 10
4147.4999999999990905
 20
15388.5410367590902752
 30
0.0
 11
4165.5
 21
15388.5410367590902752
 31
0.0
  0
LINE
  5
3DEC0
  8
1
  6
CONTINUOUS
 62
     7
 10
4324.4999999999990905
 20
15283.5410367590902752
 30
0.0
 11
4324.4999999999990905
 21
15211.7910367590902752
 31
0.0
  0
LINE
  5
3DEC1
  8
1
  6
CONTINUOUS
 62
     7
 10
4426.4999999999990905
 20
15221.5410367590902752
 30
0.0
 11
4363.0
 21
15221.5410367590902752
 31
0.0
  0
LINE
  5
3DEC2
  8
1
  6
CONTINUOUS
 62
     7
 10
4426.4999999999990905
 20
15224.0410367590902752
 30
0.0
 11
4444.5
 21
15224.0410367590902752
 31
0.0
  0
LINE
  5
3DEC3
  8
1
  6
CONTINUOUS
 62
     7
 10
4324.4999999999990905
 20
15211.7910367590902752
 30
0.0
 11
4316.0399999999999636
 21
15211.7910367590902752
 31
0.0
  0
LINE
  5
3DEC4
  8
1
  6
CONTINUOUS
 62
     7
 10
4363.0
 20
15226.5410367590902752
 30
0.0
 11
4324.4999999999990905
 21
15226.5410367590902752
 31
0.0
  0
LINE
  5
3DEC5
  8
1
  6
CONTINUOUS
 62
     7
 10
4426.4999999999990905
 20
15345.5410367590902752
 30
0.0
 11
4363.0
 21
15345.5410367590902752
 31
0.0
  0
LINE
  5
3DEC6
  8
CENTER
 10
4450.5
 20
15295.5410367590902752
 30
0.0
 11
4420.4999999999990905
 21
15283.5410367590902752
 31
0.0
  0
LINE
  5
3DEC7
  8
1
  6
CONTINUOUS
 62
     7
 10
4426.4999999999990905
 20
15345.5410367590902752
 30
0.0
 11
4426.4999999999990905
 21
15285.9410367590899114
 31
0.0
  0
LINE
  5
3DEC8
  8
1
  6
CONTINUOUS
 62
     7
 10
4444.5
 20
15371.0410367590902752
 30
0.0
 11
4444.5
 21
15293.141036759090639
 31
0.0
  0
LINE
  5
3DEC9
  8
1
  6
CONTINUOUS
 62
     7
 10
4444.5
 20
15363.141036759090639
 30
0.0
 11
4432.1499999999996362
 21
15343.0410367590902752
 31
0.0
  0
LINE
  5
3DECA
  8
1
  6
CONTINUOUS
 62
     7
 10
4426.4999999999990905
 20
15343.0410367590902752
 30
0.0
 11
4432.1499999999996362
 21
15343.0410367590902752
 31
0.0
  0
LINE
  5
3DECB
  8
1
  6
CONTINUOUS
 62
     7
 10
4324.4999999999990905
 20
15355.2910367590902752
 30
0.0
 11
4316.0399999999999636
 21
15355.2910367590902752
 31
0.0
  0
LINE
  5
3DECC
  8
1
  6
CONTINUOUS
 62
     7
 10
4363.0
 20
15345.5410367590902752
 30
0.0
 11
4363.0
 21
15283.5410367590902752
 31
0.0
  0
LINE
  5
3DECD
  8
1
  6
CONTINUOUS
 62
     7
 10
4363.0
 20
15340.5410367590902752
 30
0.0
 11
4324.4999999999990905
 21
15340.5410367590902752
 31
0.0
  0
LINE
  5
3DECE
  8
1
  6
CONTINUOUS
 62
     7
 10
4324.4999999999990905
 20
15283.5410367590902752
 30
0.0
 11
4324.4999999999990905
 21
15355.2910367590902752
 31
0.0
  0
ARC
  5
3DECF
  8
1
  6
CONTINUOUS
 62
     7
 10
4289.5
 20
15283.5410367590902752
 30
0.0
 40
76.5
 50
228.1680000000064865
 51
290.2969999999393167
  0
ARC
  5
3DED0
  8
1
  6
CONTINUOUS
 62
     7
 10
4289.5
 20
15283.5410367590902752
 30
0.0
 40
76.5
 50
69.7030000000607259
 51
131.8324999999497891
  0
LINE
  5
3DED1
  8
1
  6
CONTINUOUS
 62
     7
 10
4238.4799999999995634
 20
15226.5410367590902752
 30
0.0
 11
4238.4799999999995634
 21
15283.5410367590902752
 31
0.0
  0
LINE
  5
3DED2
  8
1
  6
CONTINUOUS
 62
     7
 10
4238.4799999999995634
 20
15340.5410367590902752
 30
0.0
 11
4238.4799999999995634
 21
15283.5410367590902752
 31
0.0
  0
LINE
  5
3DED3
  8
1
  6
CONTINUOUS
 62
     7
 10
4426.4999999999990905
 20
15221.5410367590902752
 30
0.0
 11
4426.4999999999990905
 21
15285.9410367590899114
 31
0.0
  0
LINE
  5
3DED4
  8
1
  6
CONTINUOUS
 62
     7
 10
4444.5
 20
15220.0410367590902752
 30
0.0
 11
4444.5
 21
15293.141036759090639
 31
0.0
  0
LINE
  5
3DED5
  8
1
  6
CONTINUOUS
 62
     7
 10
4363.0
 20
15221.5410367590902752
 30
0.0
 11
4363.0
 21
15283.5410367590902752
 31
0.0
  0
LINE
  5
3DED6
  8
1
  6
CONTINUOUS
 62
     7
 10
6550.4999999999990905
 20
15238.5410367590902752
 30
0.0
 11
5890.5
 21
15238.5410367590902752
 31
0.0
  0
LINE
  5
3DED7
  8
1
  6
CONTINUOUS
 62
     7
 10
6550.4999999999990905
 20
15352.5410367590902752
 30
0.0
 11
5890.5
 21
15352.5410367590902752
 31
0.0
  0
LINE
  5
3DED8
  8
1
  6
CONTINUOUS
 62
     7
 10
5890.5
 20
15295.5410367590902752
 30
0.0
 11
5890.5
 21
15220.0410367590902752
 31
0.0
  0
LINE
  5
3DED9
  8
1
  6
CONTINUOUS
 62
     7
 10
5890.5
 20
15295.5410367590902752
 30
0.0
 11
5890.5
 21
15371.0410367590902752
 31
0.0
  0
LINE
  5
3DEDA
  8
1
  6
CONTINUOUS
 62
     7
 10
6636.5200000000004366
 20
15238.5410367590902752
 30
0.0
 11
6709.5
 21
15238.5410367590902752
 31
0.0
  0
LINE
  5
3DEDB
  8
1
  6
CONTINUOUS
 62
     7
 10
6636.5200000000004366
 20
15352.5410367590902752
 30
0.0
 11
6709.5
 21
15352.5410367590902752
 31
0.0
  0
LINE
  5
3DEDC
  8
1
  6
CONTINUOUS
 62
     7
 10
6636.5200000000004366
 20
15238.5410367590902752
 30
0.0
 11
6636.5200000000004366
 21
15295.5410367590902752
 31
0.0
  0
LINE
  5
3DEDD
  8
1
  6
CONTINUOUS
 62
     7
 10
6550.4999999999990905
 20
15295.5410367590902752
 30
0.0
 11
6550.4999999999990905
 21
15223.7910367590902752
 31
0.0
  0
ARC
  5
3DEDE
  8
1
  6
CONTINUOUS
 62
     7
 10
6585.5
 20
15295.5410367590902752
 30
0.0
 40
76.5
 50
249.7030000000607117
 51
311.8319999999933998
  0
LINE
  5
3DEDF
  8
1
  6
CONTINUOUS
 62
     7
 10
6550.4999999999990905
 20
15223.7910367590902752
 30
0.0
 11
6558.9600000000000364
 21
15223.7910367590902752
 31
0.0
  0
ARC
  5
3DEE0
  8
1
  6
CONTINUOUS
 62
     7
 10
6585.5
 20
15295.5410367590902752
 30
0.0
 40
76.5
 50
48.1680000000065718
 51
110.2968000000273037
  0
LINE
  5
3DEE1
  8
1
  6
CONTINUOUS
 62
     7
 10
6636.5200000000004366
 20
15352.5410367590902752
 30
0.0
 11
6636.5200000000004366
 21
15295.5410367590902752
 31
0.0
  0
LINE
  5
3DEE2
  8
1
  6
CONTINUOUS
 62
     7
 10
6550.4999999999990905
 20
15295.5410367590902752
 30
0.0
 11
6550.4999999999990905
 21
15367.2910367590902752
 31
0.0
  0
LINE
  5
3DEE3
  8
1
  6
CONTINUOUS
 62
     7
 10
6550.4999999999990905
 20
15367.2910367590902752
 30
0.0
 11
6558.9600000000000364
 21
15367.2910367590902752
 31
0.0
  0
LINE
  5
3DEE4
  8
1
  6
CONTINUOUS
 62
     7
 10
6709.5
 20
15190.5410367590902752
 30
0.0
 11
6709.5
 21
15295.5410367590902752
 31
0.0
  0
LINE
  5
3DEE5
  8
1
  6
CONTINUOUS
 62
     7
 10
6727.5
 20
15190.5410367590902752
 30
0.0
 11
6727.5
 21
15295.5410367590902752
 31
0.0
  0
LINE
  5
3DEE6
  8
1
  6
CONTINUOUS
 62
     7
 10
6727.5
 20
15190.5410367590902752
 30
0.0
 11
6709.5
 21
15190.5410367590902752
 31
0.0
  0
LINE
  5
3DEE7
  8
1
  6
CONTINUOUS
 62
     7
 10
6709.5
 20
15400.5410367590902752
 30
0.0
 11
6709.5
 21
15295.5410367590902752
 31
0.0
  0
LINE
  5
3DEE8
  8
1
  6
CONTINUOUS
 62
     7
 10
6727.5
 20
15400.5410367590902752
 30
0.0
 11
6727.5
 21
15295.5410367590902752
 31
0.0
  0
LINE
  5
3DEE9
  8
1
  6
CONTINUOUS
 62
     7
 10
6727.5
 20
15400.5410367590902752
 30
0.0
 11
6709.5
 21
15400.5410367590902752
 31
0.0
  0
LINE
  5
3DEEA
  8
UL1
 10
3547.5
 20
15488.5410367590902752
 30
0.0
 11
7327.5
 21
15488.5410367590902752
 31
0.0
  0
LINE
  5
3DEEB
  8
UL1
 10
3547.5
 20
15078.5410367590902752
 30
0.0
 11
7327.5
 21
15078.5410367590902752
 31
0.0
  0
LINE
  5
3DEEC
  8
UL1
 10
3547.5
 20
15488.5410367590902752
 30
0.0
 11
3547.5
 21
15078.5410367590902752
 31
0.0
  0
LINE
  5
3DEED
  8
UL1
 10
7327.5
 20
15078.5410367590902752
 30
0.0
 11
7327.5
 21
15488.5410367590902752
 31
0.0
  0
TEXT
  5
3DEF0
  8
SCALE
 10
5110.8333333333312112
 20
13983.9703838745008397
 30
0.0
 40
200.0
  1
断面図
 72
     4
 11
5437.4999999999972715
 21
14083.9703838745008397
 31
0.0
  0
LINE
  5
3DEF2
  8
1
  6
CONTINUOUS
 62
     7
 10
16729.5800000000017462
 20
15365.5410367590902752
 30
0.0
 11
16807.5
 21
15365.5410367590902752
 31
0.0
  0
LINE
  5
3DEF3
  8
1
  6
CONTINUOUS
 62
     7
 10
16729.5800000000017462
 20
15225.5410367590902752
 30
0.0
 11
16807.5
 21
15225.5410367590902752
 31
0.0
  0
LINE
  5
3DEF4
  8
CENTER
 10
16855.2200000000011642
 20
15295.5410367590902752
 30
0.0
 11
14530.5
 21
15295.5410367590902752
 31
0.0
  0
LINE
  5
3DEF5
  8
1
  6
CONTINUOUS
 62
     7
 10
15969.5
 20
15206.5410367590902752
 30
0.0
 11
14523.5
 21
15206.5410367590902752
 31
0.0
  0
LINE
  5
3DEF6
  8
1
  6
CONTINUOUS
 62
     7
 10
15969.5
 20
15384.5410367590902752
 30
0.0
 11
14523.5
 21
15384.5410367590902752
 31
0.0
  0
ARC
  5
3DEF7
  8
1
  6
CONTINUOUS
 62
     7
 10
14355.5
 20
15284.0410367590902752
 30
0.0
 40
92.2499999999999858
 50
229.3590000000816076
 51
289.4229999999787992
  0
ARC
  5
3DEF8
  8
1
  6
CONTINUOUS
 62
     7
 10
14355.5
 20
15284.0410367590902752
 30
0.0
 40
92.2499999999999858
 50
70.5770000000211581
 51
130.6407999998901062
  0
LINE
  5
3DEF9
  8
CENTER
 10
14500.5
 20
15284.0410367590902752
 30
0.0
 11
14175.6599999999998545
 21
15284.0410367590902752
 31
0.0
  0
LINE
  5
3DEFA
  8
1
  6
CONTINUOUS
 62
     7
 10
14217.5
 20
15409.0410367590902752
 30
0.0
 11
14217.5
 21
15284.0410367590902752
 31
0.0
  0
LINE
  5
3DEFB
  8
1
  6
CONTINUOUS
 62
     7
 10
14197.5
 20
15409.0410367590902752
 30
0.0
 11
14197.5
 21
15284.0410367590902752
 31
0.0
  0
LINE
  5
3DEFC
  8
1
  6
CONTINUOUS
 62
     7
 10
14217.5
 20
15159.0410367590902752
 30
0.0
 11
14217.5
 21
15284.0410367590902752
 31
0.0
  0
LINE
  5
3DEFD
  8
1
  6
CONTINUOUS
 62
     7
 10
14197.5
 20
15159.0410367590902752
 30
0.0
 11
14197.5
 21
15284.0410367590902752
 31
0.0
  0
LINE
  5
3DEFE
  8
1
  6
CONTINUOUS
 62
     7
 10
14197.5
 20
15159.0410367590902752
 30
0.0
 11
14217.5
 21
15159.0410367590902752
 31
0.0
  0
LINE
  5
3DEFF
  8
1
  6
CONTINUOUS
 62
     7
 10
14197.5
 20
15409.0410367590902752
 30
0.0
 11
14217.5
 21
15409.0410367590902752
 31
0.0
  0
LINE
  5
3DF00
  8
1
  6
CONTINUOUS
 62
     7
 10
14295.4200000000000728
 20
15214.0410367590902752
 30
0.0
 11
14295.4200000000000728
 21
15284.0410367590902752
 31
0.0
  0
LINE
  5
3DF01
  8
1
  6
CONTINUOUS
 62
     7
 10
14295.4200000000000728
 20
15354.0410367590902752
 30
0.0
 11
14295.4200000000000728
 21
15284.0410367590902752
 31
0.0
  0
LINE
  5
3DF02
  8
1
  6
CONTINUOUS
 62
     7
 10
14295.4200000000000728
 20
15354.0410367590902752
 30
0.0
 11
14217.5
 21
15354.0410367590902752
 31
0.0
  0
LINE
  5
3DF03
  8
1
  6
CONTINUOUS
 62
     7
 10
14295.4200000000000728
 20
15214.0410367590902752
 30
0.0
 11
14217.5
 21
15214.0410367590902752
 31
0.0
  0
LINE
  5
3DF04
  8
1
  6
CONTINUOUS
 62
     7
 10
14507.5
 20
15359.5410367590902752
 30
0.0
 11
14435.5
 21
15359.5410367590902752
 31
0.0
  0
LINE
  5
3DF05
  8
1
  6
CONTINUOUS
 62
     7
 10
14507.5
 20
15208.5410367590902752
 30
0.0
 11
14435.5
 21
15208.5410367590902752
 31
0.0
  0
LINE
  5
3DF06
  8
1
  6
CONTINUOUS
 62
     7
 10
14507.5
 20
15286.7210367590905662
 30
0.0
 11
14507.5
 21
15208.5410367590902752
 31
0.0
  0
LINE
  5
3DF07
  8
1
  6
CONTINUOUS
 62
     7
 10
14523.5
 20
15292.8610367590899841
 30
0.0
 11
14523.5
 21
15206.5410367590902752
 31
0.0
  0
LINE
  5
3DF08
  8
1
  6
CONTINUOUS
 62
     7
 10
14507.5
 20
15212.5410367590902752
 30
0.0
 11
14523.5
 21
15212.5410367590902752
 31
0.0
  0
LINE
  5
3DF09
  8
CENTER
 10
14530.5
 20
15295.5410367590902752
 30
0.0
 11
14500.5
 21
15284.0410367590902752
 31
0.0
  0
LINE
  5
3DF0A
  8
1
  6
CONTINUOUS
 62
     7
 10
14523.5
 20
15384.5410367590902752
 30
0.0
 11
14523.5
 21
15292.8610367590899841
 31
0.0
  0
LINE
  5
3DF0B
  8
1
  6
CONTINUOUS
 62
     7
 10
14507.5
 20
15359.5410367590902752
 30
0.0
 11
14507.5
 21
15286.7210367590905662
 31
0.0
  0
LINE
  5
3DF0C
  8
1
  6
CONTINUOUS
 62
     7
 10
14523.5
 20
15374.9210367590894748
 30
0.0
 11
14511.5900000000001455
 21
15355.5410367590902752
 31
0.0
  0
LINE
  5
3DF0D
  8
1
  6
CONTINUOUS
 62
     7
 10
14507.5
 20
15355.5410367590902752
 30
0.0
 11
14511.5900000000001455
 21
15355.5410367590902752
 31
0.0
  0
LINE
  5
3DF0E
  8
1
  6
CONTINUOUS
 62
     7
 10
14395.5
 20
15284.0410367590902752
 30
0.0
 11
14395.5
 21
15197.0410367590902752
 31
0.0
  0
LINE
  5
3DF0F
  8
1
  6
CONTINUOUS
 62
     7
 10
14435.5
 20
15208.5410367590902752
 30
0.0
 11
14435.5
 21
15284.0410367590902752
 31
0.0
  0
LINE
  5
3DF10
  8
1
  6
CONTINUOUS
 62
     7
 10
14435.5
 20
15214.0410367590902752
 30
0.0
 11
14395.5
 21
15214.0410367590902752
 31
0.0
  0
LINE
  5
3DF11
  8
1
  6
CONTINUOUS
 62
     7
 10
14395.5
 20
15197.0410367590902752
 30
0.0
 11
14386.180000000000291
 21
15197.0410367590902752
 31
0.0
  0
LINE
  5
3DF12
  8
1
  6
CONTINUOUS
 62
     7
 10
14435.5
 20
15359.5410367590902752
 30
0.0
 11
14435.5
 21
15284.0410367590902752
 31
0.0
  0
LINE
  5
3DF13
  8
1
  6
CONTINUOUS
 62
     7
 10
14435.5
 20
15354.0410367590902752
 30
0.0
 11
14395.5
 21
15354.0410367590902752
 31
0.0
  0
LINE
  5
3DF14
  8
1
  6
CONTINUOUS
 62
     7
 10
14395.5
 20
15284.0410367590902752
 30
0.0
 11
14395.5
 21
15371.0410367590902752
 31
0.0
  0
LINE
  5
3DF15
  8
1
  6
CONTINUOUS
 62
     7
 10
14395.5
 20
15371.0410367590902752
 30
0.0
 11
14386.180000000000291
 21
15371.0410367590902752
 31
0.0
  0
LINE
  5
3DF16
  8
1
  6
CONTINUOUS
 62
     7
 10
16629.5
 20
15225.5410367590902752
 30
0.0
 11
15969.5
 21
15225.5410367590902752
 31
0.0
  0
LINE
  5
3DF17
  8
1
  6
CONTINUOUS
 62
     7
 10
16629.5
 20
15365.5410367590902752
 30
0.0
 11
15969.5
 21
15365.5410367590902752
 31
0.0
  0
LINE
  5
3DF18
  8
1
  6
CONTINUOUS
 62
     7
 10
15969.5
 20
15295.5410367590902752
 30
0.0
 11
15969.5
 21
15206.5410367590902752
 31
0.0
  0
LINE
  5
3DF19
  8
1
  6
CONTINUOUS
 62
     7
 10
15969.5
 20
15295.5410367590902752
 30
0.0
 11
15969.5
 21
15384.5410367590902752
 31
0.0
  0
LINE
  5
3DF1A
  8
1
  6
CONTINUOUS
 62
     7
 10
16629.5
 20
15295.5410367590902752
 30
0.0
 11
16629.5
 21
15208.5410367590902752
 31
0.0
  0
LINE
  5
3DF1B
  8
1
  6
CONTINUOUS
 62
     7
 10
16629.5
 20
15208.5410367590902752
 30
0.0
 11
16638.819999999999709
 21
15208.5410367590902752
 31
0.0
  0
LINE
  5
3DF1C
  8
1
  6
CONTINUOUS
 62
     7
 10
16629.5
 20
15295.5410367590902752
 30
0.0
 11
16629.5
 21
15382.5410367590902752
 31
0.0
  0
LINE
  5
3DF1D
  8
1
  6
CONTINUOUS
 62
     7
 10
16629.5
 20
15382.5410367590902752
 30
0.0
 11
16638.819999999999709
 21
15382.5410367590902752
 31
0.0
  0
LINE
  5
3DF1E
  8
1
  6
CONTINUOUS
 62
     7
 10
16729.5800000000017462
 20
15225.5410367590902752
 30
0.0
 11
16729.5800000000017462
 21
15295.5410367590902752
 31
0.0
  0
LINE
  5
3DF1F
  8
1
  6
CONTINUOUS
 62
     7
 10
16729.5800000000017462
 20
15365.5410367590902752
 30
0.0
 11
16729.5800000000017462
 21
15295.5410367590902752
 31
0.0
  0
ARC
  5
3DF20
  8
1
  6
CONTINUOUS
 62
     7
 10
16669.5
 20
15295.5410367590902752
 30
0.0
 40
92.2499999999999858
 50
49.3590000000816005
 51
109.4229999999787992
  0
ARC
  5
3DF21
  8
1
  6
CONTINUOUS
 62
     7
 10
16669.5
 20
15295.5410367590902752
 30
0.0
 40
92.2499999999999858
 50
250.5770000000210871
 51
310.6409999999183924
  0
LINE
  5
3DF22
  8
1
  6
CONTINUOUS
 62
     7
 10
16807.5
 20
15420.5410367590902752
 30
0.0
 11
16807.5
 21
15295.5410367590902752
 31
0.0
  0
LINE
  5
3DF23
  8
1
  6
CONTINUOUS
 62
     7
 10
16827.5
 20
15420.5410367590902752
 30
0.0
 11
16827.5
 21
15295.5410367590902752
 31
0.0
  0
LINE
  5
3DF24
  8
1
  6
CONTINUOUS
 62
     7
 10
16807.5
 20
15170.5410367590902752
 30
0.0
 11
16807.5
 21
15295.5410367590902752
 31
0.0
  0
LINE
  5
3DF25
  8
1
  6
CONTINUOUS
 62
     7
 10
16827.5
 20
15170.5410367590902752
 30
0.0
 11
16827.5
 21
15295.5410367590902752
 31
0.0
  0
LINE
  5
3DF26
  8
1
  6
CONTINUOUS
 62
     7
 10
16827.5
 20
15170.5410367590902752
 30
0.0
 11
16807.5
 21
15170.5410367590902752
 31
0.0
  0
LINE
  5
3DF27
  8
1
  6
CONTINUOUS
 62
     7
 10
16827.5
 20
15420.5410367590902752
 30
0.0
 11
16807.5
 21
15420.5410367590902752
 31
0.0
  0
LINE
  5
3DF28
  8
UL1
 10
13597.5
 20
15509.0410367590902752
 30
0.0
 11
17427.5
 21
15509.0410367590902752
 31
0.0
  0
LINE
  5
3DF29
  8
UL1
 10
17427.5
 20
15059.0410367590902752
 30
0.0
 11
13597.5
 21
15059.0410367590902752
 31
0.0
  0
LINE
  5
3DF2A
  8
UL1
 10
13597.5
 20
15509.0410367590902752
 30
0.0
 11
13597.5
 21
15059.0410367590902752
 31
0.0
  0
LINE
  5
3DF2B
  8
UL1
 10
17427.5
 20
15509.0410367590902752
 30
0.0
 11
17427.5
 21
15059.0410367590902752
 31
0.0
  0
TEXT
  5
3DF2D
  8
SCALE
 10
15185.8333333333303017
 20
13983.9703838745008397
 30
0.0
 40
200.0
  1
断面図
 72
     4
 11
15512.5
 21
14083.9703838745008397
 31
0.0
  0
LINE
  5
3DF2E
  8
1
  6
CONTINUOUS
 62
     7
 10
26062.5
 20
15181.0410367590902752
 30
0.0
 11
24615.5
 21
15181.0410367590902752
 31
0.0
  0
LINE
  5
3DF2F
  8
1
  6
CONTINUOUS
 62
     7
 10
26062.5
 20
15410.0410367590902752
 30
0.0
 11
24615.5
 21
15410.0410367590902752
 31
0.0
  0
LINE
  5
3DF30
  8
CENTER
 10
27005.5299999999988358
 20
15295.5410367590902752
 30
0.0
 11
24622.5
 21
15295.5410367590902752
 31
0.0
  0
ARC
  5
3DF31
  8
1
  6
CONTINUOUS
 62
     7
 10
24412.5
 20
15271.5410367590902752
 30
0.0
 40
106.5
 50
230.7729999999772019
 51
288.4940000000327132
  0
ARC
  5
3DF32
  8
1
  6
CONTINUOUS
 62
     7
 10
24412.5
 20
15271.5410367590902752
 30
0.0
 40
106.5
 50
71.5059999999674005
 51
129.2268999998858874
  0
LINE
  5
3DF33
  8
CENTER
 10
24572.5
 20
15271.5410367590902752
 30
0.0
 11
24177.7299999999995634
 21
15271.5410367590902752
 31
0.0
  0
LINE
  5
3DF34
  8
1
  6
CONTINUOUS
 62
     7
 10
24234.5
 20
15411.5410367590902752
 30
0.0
 11
24234.5
 21
15271.5410367590902752
 31
0.0
  0
LINE
  5
3DF35
  8
1
  6
CONTINUOUS
 62
     7
 10
24212.5
 20
15411.5410367590902752
 30
0.0
 11
24212.5
 21
15271.5410367590902752
 31
0.0
  0
LINE
  5
3DF36
  8
1
  6
CONTINUOUS
 62
     7
 10
24234.5
 20
15131.5410367590902752
 30
0.0
 11
24234.5
 21
15271.5410367590902752
 31
0.0
  0
LINE
  5
3DF37
  8
1
  6
CONTINUOUS
 62
     7
 10
24212.5
 20
15131.5410367590902752
 30
0.0
 11
24212.5
 21
15271.5410367590902752
 31
0.0
  0
LINE
  5
3DF38
  8
1
  6
CONTINUOUS
 62
     7
 10
24212.5
 20
15131.5410367590902752
 30
0.0
 11
24234.5
 21
15131.5410367590902752
 31
0.0
  0
LINE
  5
3DF39
  8
1
  6
CONTINUOUS
 62
     7
 10
24212.5
 20
15411.5410367590902752
 30
0.0
 11
24234.5
 21
15411.5410367590902752
 31
0.0
  0
LINE
  5
3DF3A
  8
1
  6
CONTINUOUS
 62
     7
 10
24345.1500000000014552
 20
15354.0410367590902752
 30
0.0
 11
24345.1500000000014552
 21
15271.5410367590902752
 31
0.0
  0
LINE
  5
3DF3B
  8
1
  6
CONTINUOUS
 62
     7
 10
24345.1500000000014552
 20
15189.0410367590902752
 30
0.0
 11
24345.1500000000014552
 21
15271.5410367590902752
 31
0.0
  0
LINE
  5
3DF3C
  8
1
  6
CONTINUOUS
 62
     7
 10
24345.1500000000014552
 20
15189.0410367590902752
 30
0.0
 11
24234.5
 21
15189.0410367590902752
 31
0.0
  0
LINE
  5
3DF3D
  8
1
  6
CONTINUOUS
 62
     7
 10
24345.1500000000014552
 20
15354.0410367590902752
 30
0.0
 11
24234.5
 21
15354.0410367590902752
 31
0.0
  0
LINE
  5
3DF3E
  8
1
  6
CONTINUOUS
 62
     7
 10
24492.5
 20
15354.0410367590902752
 30
0.0
 11
24452.5
 21
15354.0410367590902752
 31
0.0
  0
LINE
  5
3DF3F
  8
1
  6
CONTINUOUS
 62
     7
 10
24492.5
 20
15189.0410367590902752
 30
0.0
 11
24452.5
 21
15189.0410367590902752
 31
0.0
  0
LINE
  5
3DF40
  8
1
  6
CONTINUOUS
 62
     7
 10
24579.5
 20
15360.5410367590902752
 30
0.0
 11
24579.5
 21
15274.9010367590908572
 31
0.0
  0
LINE
  5
3DF41
  8
1
  6
CONTINUOUS
 62
     7
 10
24492.5
 20
15360.5410367590902752
 30
0.0
 11
24492.5
 21
15271.5410367590902752
 31
0.0
  0
LINE
  5
3DF42
  8
1
  6
CONTINUOUS
 62
     7
 10
24615.5
 20
15410.0410367590902752
 30
0.0
 11
24615.5
 21
15292.1810367590896931
 31
0.0
  0
LINE
  5
3DF43
  8
1
  6
CONTINUOUS
 62
     7
 10
24579.5
 20
15182.5410367590902752
 30
0.0
 11
24492.5
 21
15182.5410367590902752
 31
0.0
  0
LINE
  5
3DF44
  8
CENTER
 10
24622.5
 20
15295.5410367590902752
 30
0.0
 11
24572.5
 21
15271.5410367590902752
 31
0.0
  0
LINE
  5
3DF45
  8
1
  6
CONTINUOUS
 62
     7
 10
24579.5
 20
15182.5410367590902752
 30
0.0
 11
24579.5
 21
15274.9010367590908572
 31
0.0
  0
LINE
  5
3DF46
  8
1
  6
CONTINUOUS
 62
     7
 10
24615.5
 20
15181.0410367590902752
 30
0.0
 11
24615.5
 21
15292.1810367590896931
 31
0.0
  0
LINE
  5
3DF47
  8
1
  6
CONTINUOUS
 62
     7
 10
24615.5
 20
15187.0410367590902752
 30
0.0
 11
24579.5
 21
15187.0410367590902752
 31
0.0
  0
LINE
  5
3DF48
  8
1
  6
CONTINUOUS
 62
     7
 10
24492.5
 20
15182.5410367590902752
 30
0.0
 11
24492.5
 21
15271.5410367590902752
 31
0.0
  0
LINE
  5
3DF49
  8
1
  6
CONTINUOUS
 62
     7
 10
24579.5
 20
15360.5410367590902752
 30
0.0
 11
24492.5
 21
15360.5410367590902752
 31
0.0
  0
LINE
  5
3DF4A
  8
1
  6
CONTINUOUS
 62
     7
 10
24615.5
 20
15398.7610367590896203
 30
0.0
 11
24593.25
 21
15356.0410367590902752
 31
0.0
  0
LINE
  5
3DF4B
  8
1
  6
CONTINUOUS
 62
     7
 10
24593.25
 20
15356.0410367590902752
 30
0.0
 11
24579.5
 21
15356.0410367590902752
 31
0.0
  0
LINE
  5
3DF4C
  8
1
  6
CONTINUOUS
 62
     7
 10
24452.5
 20
15271.5410367590902752
 30
0.0
 11
24452.5
 21
15372.5410367590902752
 31
0.0
  0
LINE
  5
3DF4D
  8
1
  6
CONTINUOUS
 62
     7
 10
24452.5
 20
15271.5410367590902752
 30
0.0
 11
24452.5
 21
15170.5410367590902752
 31
0.0
  0
LINE
  5
3DF4E
  8
1
  6
CONTINUOUS
 62
     7
 10
24446.2799999999988358
 20
15170.5410367590902752
 30
0.0
 11
24452.5
 21
15170.5410367590902752
 31
0.0
  0
LINE
  5
3DF4F
  8
1
  6
CONTINUOUS
 62
     7
 10
24446.2799999999988358
 20
15372.5410367590902752
 30
0.0
 11
24452.5
 21
15372.5410367590902752
 31
0.0
  0
ARC
  5
3DF50
  8
1
  6
CONTINUOUS
 62
     7
 10
26762.5
 20
15295.5410367590902752
 30
0.0
 40
106.5
 50
50.7729999999772588
 51
108.4940000000325995
  0
ARC
  5
3DF51
  8
1
  6
CONTINUOUS
 62
     7
 10
26762.5
 20
15295.5410367590902752
 30
0.0
 40
106.5
 50
251.5059999999674005
 51
309.2270000000228265
  0
LINE
  5
3DF52
  8
1
  6
CONTINUOUS
 62
     7
 10
26062.5
 20
15213.0410367590902752
 30
0.0
 11
26722.5
 21
15213.0410367590902752
 31
0.0
  0
LINE
  5
3DF53
  8
1
  6
CONTINUOUS
 62
     7
 10
26062.5
 20
15378.0410367590902752
 30
0.0
 11
26722.5
 21
15378.0410367590902752
 31
0.0
  0
LINE
  5
3DF54
  8
1
  6
CONTINUOUS
 62
     7
 10
26062.5
 20
15410.0410367590902752
 30
0.0
 11
26062.5
 21
15295.5410367590902752
 31
0.0
  0
LINE
  5
3DF55
  8
1
  6
CONTINUOUS
 62
     7
 10
26062.5
 20
15181.0410367590902752
 30
0.0
 11
26062.5
 21
15295.5410367590902752
 31
0.0
  0
LINE
  5
3DF56
  8
1
  6
CONTINUOUS
 62
     7
 10
26722.5
 20
15295.5410367590902752
 30
0.0
 11
26722.5
 21
15396.5410367590902752
 31
0.0
  0
LINE
  5
3DF57
  8
1
  6
CONTINUOUS
 62
     7
 10
26722.5
 20
15295.5410367590902752
 30
0.0
 11
26722.5
 21
15194.5410367590902752
 31
0.0
  0
LINE
  5
3DF58
  8
1
  6
CONTINUOUS
 62
     7
 10
26728.7200000000011642
 20
15194.5410367590902752
 30
0.0
 11
26722.5
 21
15194.5410367590902752
 31
0.0
  0
LINE
  5
3DF59
  8
1
  6
CONTINUOUS
 62
     7
 10
26728.7200000000011642
 20
15396.5410367590902752
 30
0.0
 11
26722.5
 21
15396.5410367590902752
 31
0.0
  0
LINE
  5
3DF5A
  8
1
  6
CONTINUOUS
 62
     7
 10
26940.5
 20
15435.5410367590902752
 30
0.0
 11
26940.5
 21
15295.5410367590902752
 31
0.0
  0
LINE
  5
3DF5B
  8
1
  6
CONTINUOUS
 62
     7
 10
26962.5
 20
15435.5410367590902752
 30
0.0
 11
26962.5
 21
15295.5410367590902752
 31
0.0
  0
LINE
  5
3DF5C
  8
1
  6
CONTINUOUS
 62
     7
 10
26829.8499999999985448
 20
15378.0410367590902752
 30
0.0
 11
26829.8499999999985448
 21
15295.5410367590902752
 31
0.0
  0
LINE
  5
3DF5D
  8
1
  6
CONTINUOUS
 62
     7
 10
26829.8499999999985448
 20
15213.0410367590902752
 30
0.0
 11
26940.5
 21
15213.0410367590902752
 31
0.0
  0
LINE
  5
3DF5E
  8
1
  6
CONTINUOUS
 62
     7
 10
26940.5
 20
15155.5410367590902752
 30
0.0
 11
26940.5
 21
15295.5410367590902752
 31
0.0
  0
LINE
  5
3DF5F
  8
1
  6
CONTINUOUS
 62
     7
 10
26962.5
 20
15155.5410367590902752
 30
0.0
 11
26962.5
 21
15295.5410367590902752
 31
0.0
  0
LINE
  5
3DF60
  8
1
  6
CONTINUOUS
 62
     7
 10
26962.5
 20
15155.5410367590902752
 30
0.0
 11
26940.5
 21
15155.5410367590902752
 31
0.0
  0
LINE
  5
3DF61
  8
1
  6
CONTINUOUS
 62
     7
 10
26829.8499999999985448
 20
15213.0410367590902752
 30
0.0
 11
26829.8499999999985448
 21
15295.5410367590902752
 31
0.0
  0
LINE
  5
3DF62
  8
1
  6
CONTINUOUS
 62
     7
 10
26829.8499999999985448
 20
15378.0410367590902752
 30
0.0
 11
26940.5
 21
15378.0410367590902752
 31
0.0
  0
LINE
  5
3DF63
  8
1
  6
CONTINUOUS
 62
     7
 10
26962.5
 20
15435.5410367590902752
 30
0.0
 11
26940.5
 21
15435.5410367590902752
 31
0.0
  0
LINE
  5
3DF64
  8
UL1
 10
23612.5
 20
15511.5410367590902752
 30
0.0
 11
27562.5
 21
15511.5410367590902752
 31
0.0
  0
LINE
  5
3DF65
  8
UL1
 10
23612.5
 20
15031.5410367590902752
 30
0.0
 11
27562.5
 21
15031.5410367590902752
 31
0.0
  0
LINE
  5
3DF66
  8
UL1
 10
23612.5
 20
15511.5410367590902752
 30
0.0
 11
23612.5
 21
15031.5410367590902752
 31
0.0
  0
LINE
  5
3DF67
  8
UL1
 10
27562.5
 20
15031.5410367590902752
 30
0.0
 11
27562.5
 21
15511.5410367590902752
 31
0.0
  0
TEXT
  5
3DF69
  8
SCALE
 10
25260.8333333333284827
 20
13983.9703838745008397
 30
0.0
 40
200.0
  1
断面図
 72
     4
 11
25587.5
 21
14083.9703838745008397
 31
0.0
  0
LINE
  5
3DF6A
  8
1
  6
CONTINUOUS
 62
     7
 10
36162.5
 20
15154.2410367590891838
 30
0.0
 11
34715.5
 21
15154.2410367590891838
 31
0.0
  0
LINE
  5
3DF6B
  8
1
  6
CONTINUOUS
 62
     7
 10
36162.5
 20
15436.8410367590895476
 30
0.0
 11
34715.5
 21
15436.8410367590895476
 31
0.0
  0
LINE
  5
3DF6C
  8
CENTER
 10
37165.5299999999988358
 20
15295.5410367590902752
 30
0.0
 11
34722.5
 21
15295.5410367590902752
 31
0.0
  0
LINE
  5
3DF6D
  8
CENTER
 10
34662.5
 20
15271.0410367590902752
 30
0.0
 11
34179.5400000000008731
 21
15271.0410367590902752
 31
0.0
  0
LINE
  5
3DF6E
  8
1
  6
CONTINUOUS
 62
     7
 10
34224.5
 20
15163.0410367590902752
 30
0.0
 11
34362.0
 21
15163.0410367590902752
 31
0.0
  0
LINE
  5
3DF6F
  8
1
  6
CONTINUOUS
 62
     7
 10
34224.5
 20
15379.0410367590902752
 30
0.0
 11
34362.0
 21
15379.0410367590902752
 31
0.0
  0
LINE
  5
3DF70
  8
1
  6
CONTINUOUS
 62
     7
 10
34224.5
 20
15271.0410367590902752
 30
0.0
 11
34224.5
 21
15106.0410367590902752
 31
0.0
  0
LINE
  5
3DF71
  8
1
  6
CONTINUOUS
 62
     7
 10
34202.5
 20
15271.0410367590902752
 30
0.0
 11
34202.5
 21
15106.0410367590902752
 31
0.0
  0
LINE
  5
3DF72
  8
1
  6
CONTINUOUS
 62
     7
 10
34202.5
 20
15106.0410367590902752
 30
0.0
 11
34224.5
 21
15106.0410367590902752
 31
0.0
  0
LINE
  5
3DF73
  8
1
  6
CONTINUOUS
 62
     7
 10
34224.5
 20
15271.0410367590902752
 30
0.0
 11
34224.5
 21
15436.0410367590902752
 31
0.0
  0
LINE
  5
3DF74
  8
1
  6
CONTINUOUS
 62
     7
 10
34202.5
 20
15271.0410367590902752
 30
0.0
 11
34202.5
 21
15436.0410367590902752
 31
0.0
  0
LINE
  5
3DF75
  8
1
  6
CONTINUOUS
 62
     7
 10
34202.5
 20
15436.0410367590902752
 30
0.0
 11
34224.5
 21
15436.0410367590902752
 31
0.0
  0
ARC
  5
3DF76
  8
1
  6
CONTINUOUS
 62
     7
 10
34447.5
 20
15271.0410367590902752
 30
0.0
 40
137.75
 50
71.3280000000343932
 51
128.3690000000115106
  0
ARC
  5
3DF77
  8
1
  6
CONTINUOUS
 62
     7
 10
34447.5
 20
15271.0410367590902752
 30
0.0
 40
137.75
 50
231.6309999999884894
 51
288.6719999999655784
  0
LINE
  5
3DF78
  8
1
  6
CONTINUOUS
 62
     7
 10
34658.2200000000011642
 20
15162.0410367590902752
 30
0.0
 11
34658.2200000000011642
 21
15271.0410367590902752
 31
0.0
  0
LINE
  5
3DF79
  8
1
  6
CONTINUOUS
 62
     7
 10
34633.319999999999709
 20
15155.6910367590899114
 30
0.0
 11
34633.319999999999709
 21
15271.0410367590902752
 31
0.0
  0
LINE
  5
3DF7A
  8
1
  6
CONTINUOUS
 62
     7
 10
34552.5
 20
15155.6910367590899114
 30
0.0
 11
34552.5
 21
15271.0410367590902752
 31
0.0
  0
LINE
  5
3DF7B
  8
1
  6
CONTINUOUS
 62
     7
 10
34502.5
 20
15140.5410367590902752
 30
0.0
 11
34502.5
 21
15271.0410367590902752
 31
0.0
  0
LINE
  5
3DF7C
  8
1
  6
CONTINUOUS
 62
     7
 10
34633.319999999999709
 20
15155.6910367590899114
 30
0.0
 11
34552.5
 21
15155.6910367590899114
 31
0.0
  0
LINE
  5
3DF7D
  8
1
  6
CONTINUOUS
 62
     7
 10
34658.2200000000011642
 20
15162.0410367590902752
 30
0.0
 11
34633.319999999999709
 21
15155.6910367590899114
 31
0.0
  0
LINE
  5
3DF7E
  8
1
  6
CONTINUOUS
 62
     7
 10
34552.5
 20
15163.0410367590902752
 30
0.0
 11
34502.5
 21
15163.0410367590902752
 31
0.0
  0
LINE
  5
3DF7F
  8
1
  6
CONTINUOUS
 62
     7
 10
34491.6000000000130967
 20
15140.5410367590902752
 30
0.0
 11
34502.5
 21
15140.5410367590902752
 31
0.0
  0
LINE
  5
3DF80
  8
1
  6
CONTINUOUS
 62
     7
 10
34633.319999999999709
 20
15386.391036759090639
 30
0.0
 11
34552.5
 21
15386.391036759090639
 31
0.0
  0
LINE
  5
3DF81
  8
1
  6
CONTINUOUS
 62
     7
 10
34658.2200000000011642
 20
15380.0410367590902752
 30
0.0
 11
34658.2200000000011642
 21
15271.0410367590902752
 31
0.0
  0
LINE
  5
3DF82
  8
1
  6
CONTINUOUS
 62
     7
 10
34633.319999999999709
 20
15386.391036759090639
 30
0.0
 11
34633.319999999999709
 21
15271.0410367590902752
 31
0.0
  0
LINE
  5
3DF83
  8
1
  6
CONTINUOUS
 62
     7
 10
34658.2200000000011642
 20
15380.0410367590902752
 30
0.0
 11
34633.319999999999709
 21
15386.391036759090639
 31
0.0
  0
LINE
  5
3DF84
  8
1
  6
CONTINUOUS
 62
     7
 10
34674.069999999999709
 20
15380.0410367590902752
 30
0.0
 11
34658.2200000000011642
 21
15380.0410367590902752
 31
0.0
  0
LINE
  5
3DF85
  8
1
  6
CONTINUOUS
 62
     7
 10
34552.5
 20
15386.391036759090639
 30
0.0
 11
34552.5
 21
15271.0410367590902752
 31
0.0
  0
LINE
  5
3DF86
  8
1
  6
CONTINUOUS
 62
     7
 10
34502.5
 20
15401.5410367590902752
 30
0.0
 11
34502.5
 21
15271.0410367590902752
 31
0.0
  0
LINE
  5
3DF87
  8
1
  6
CONTINUOUS
 62
     7
 10
34552.5
 20
15379.0410367590902752
 30
0.0
 11
34502.5
 21
15379.0410367590902752
 31
0.0
  0
LINE
  5
3DF88
  8
1
  6
CONTINUOUS
 62
     7
 10
34491.6000000000130967
 20
15401.5410367590902752
 30
0.0
 11
34502.5
 21
15401.5410367590902752
 31
0.0
  0
LINE
  5
3DF89
  8
1
  6
CONTINUOUS
 62
     7
 10
34362.0
 20
15163.0410367590902752
 30
0.0
 11
34362.0
 21
15271.0410367590902752
 31
0.0
  0
LINE
  5
3DF8A
  8
1
  6
CONTINUOUS
 62
     7
 10
34362.0
 20
15379.0410367590902752
 30
0.0
 11
34362.0
 21
15271.0410367590902752
 31
0.0
  0
LINE
  5
3DF8B
  8
1
  6
CONTINUOUS
 62
     7
 10
34715.5
 20
15154.2410367590891838
 30
0.0
 11
34715.5
 21
15292.6820367590898968
 31
0.0
  0
LINE
  5
3DF8C
  8
1
  6
CONTINUOUS
 62
     7
 10
34715.5
 20
15436.8410367590895476
 30
0.0
 11
34715.5
 21
15292.6820367590898968
 31
0.0
  0
LINE
  5
3DF8D
  8
1
  6
CONTINUOUS
 62
     7
 10
34715.5
 20
15162.0410367590902752
 30
0.0
 11
34658.2200000000011642
 21
15162.0410367590902752
 31
0.0
  0
LINE
  5
3DF8E
  8
CENTER
 10
34722.5
 20
15295.5410367590902752
 30
0.0
 11
34662.5
 21
15271.0410367590902752
 31
0.0
  0
LINE
  5
3DF8F
  8
1
  6
CONTINUOUS
 62
     7
 10
34715.5
 20
15425.1500367590906535
 30
0.0
 11
34674.069999999999709
 21
15380.0410367590902752
 31
0.0
  0
LINE
  5
3DF90
  8
1
  6
CONTINUOUS
 62
     7
 10
36822.5
 20
15187.5410367590902752
 30
0.0
 11
36162.5
 21
15187.5410367590902752
 31
0.0
  0
LINE
  5
3DF91
  8
1
  6
CONTINUOUS
 62
     7
 10
36822.5
 20
15403.5410367590902752
 30
0.0
 11
36162.5
 21
15403.5410367590902752
 31
0.0
  0
LINE
  5
3DF92
  8
1
  6
CONTINUOUS
 62
     7
 10
36162.5
 20
15154.2410367590891838
 30
0.0
 11
36162.5
 21
15295.5410367590902752
 31
0.0
  0
LINE
  5
3DF93
  8
1
  6
CONTINUOUS
 62
     7
 10
36162.5
 20
15436.8410367590895476
 30
0.0
 11
36162.5
 21
15295.5410367590902752
 31
0.0
  0
LINE
  5
3DF94
  8
1
  6
CONTINUOUS
 62
     7
 10
37100.5
 20
15403.5410367590902752
 30
0.0
 11
36963.0100000000020373
 21
15403.5410367590902752
 31
0.0
  0
LINE
  5
3DF95
  8
1
  6
CONTINUOUS
 62
     7
 10
37100.5
 20
15187.5410367590902752
 30
0.0
 11
36963.0100000000020373
 21
15187.5410367590902752
 31
0.0
  0
LINE
  5
3DF96
  8
1
  6
CONTINUOUS
 62
     7
 10
37100.5
 20
15295.5410367590902752
 30
0.0
 11
37100.5
 21
15130.5410367590902752
 31
0.0
  0
LINE
  5
3DF97
  8
1
  6
CONTINUOUS
 62
     7
 10
37122.5
 20
15295.5410367590902752
 30
0.0
 11
37122.5
 21
15130.5410367590902752
 31
0.0
  0
LINE
  5
3DF98
  8
1
  6
CONTINUOUS
 62
     7
 10
37122.5
 20
15130.5410367590902752
 30
0.0
 11
37100.5
 21
15130.5410367590902752
 31
0.0
  0
LINE
  5
3DF99
  8
1
  6
CONTINUOUS
 62
     7
 10
37100.5
 20
15295.5410367590902752
 30
0.0
 11
37100.5
 21
15460.5410367590902752
 31
0.0
  0
LINE
  5
3DF9A
  8
1
  6
CONTINUOUS
 62
     7
 10
37122.5
 20
15295.5410367590902752
 30
0.0
 11
37122.5
 21
15460.5410367590902752
 31
0.0
  0
LINE
  5
3DF9B
  8
1
  6
CONTINUOUS
 62
     7
 10
37122.5
 20
15460.5410367590902752
 30
0.0
 11
37100.5
 21
15460.5410367590902752
 31
0.0
  0
LINE
  5
3DF9C
  8
1
  6
CONTINUOUS
 62
     7
 10
36963.0100000000020373
 20
15187.5410367590902752
 30
0.0
 11
36963.0100000000020373
 21
15295.5410367590902752
 31
0.0
  0
LINE
  5
3DF9D
  8
1
  6
CONTINUOUS
 62
     7
 10
36822.5
 20
15165.0410367590902752
 30
0.0
 11
36822.5
 21
15295.5410367590902752
 31
0.0
  0
ARC
  5
3DF9E
  8
1
  6
CONTINUOUS
 62
     7
 10
36877.5
 20
15295.5410367590902752
 30
0.0
 40
137.75
 50
251.3280000000343932
 51
308.3690000000115106
  0
LINE
  5
3DF9F
  8
1
  6
CONTINUOUS
 62
     7
 10
36833.4000000000014552
 20
15165.0410367590902752
 30
0.0
 11
36822.5
 21
15165.0410367590902752
 31
0.0
  0
ARC
  5
3DFA0
  8
1
  6
CONTINUOUS
 62
     7
 10
36877.5
 20
15295.5410367590902752
 30
0.0
 40
137.75
 50
51.6309999999884823
 51
108.6717000000470961
  0
LINE
  5
3DFA1
  8
1
  6
CONTINUOUS
 62
     7
 10
36963.0100000000020373
 20
15403.5410367590902752
 30
0.0
 11
36963.0100000000020373
 21
15295.5410367590902752
 31
0.0
  0
LINE
  5
3DFA2
  8
1
  6
CONTINUOUS
 62
     7
 10
36822.5
 20
15426.0410367590902752
 30
0.0
 11
36822.5
 21
15295.5410367590902752
 31
0.0
  0
LINE
  5
3DFA3
  8
1
  6
CONTINUOUS
 62
     7
 10
36833.4000000000014552
 20
15426.0410367590902752
 30
0.0
 11
36822.5
 21
15426.0410367590902752
 31
0.0
  0
LINE
  5
3DFA4
  8
UL1
 10
33602.5
 20
15536.0410367590902752
 30
0.0
 11
33602.5
 21
15006.0410367590902752
 31
0.0
  0
LINE
  5
3DFA5
  8
UL1
 10
37722.5
 20
15536.0410367590902752
 30
0.0
 11
37722.5
 21
15006.0410367590902752
 31
0.0
  0
LINE
  5
3DFA6
  8
UL1
 10
33602.5
 20
15536.0410367590902752
 30
0.0
 11
37722.5
 21
15536.0410367590902752
 31
0.0
  0
LINE
  5
3DFA7
  8
UL1
 10
37722.5
 20
15006.0410367590902752
 30
0.0
 11
33602.5
 21
15006.0410367590902752
 31
0.0
  0
TEXT
  5
3DFA8
  8
SCALE
 10
35335.8333333333430346
 20
13983.9703838745008397
 30
0.0
 40
200.0
  1
断面図
 72
     4
 11
35662.5
 21
14083.9703838745008397
 31
0.0
  0
LINE
  5
3E3C7
  8
SCALE
 10
7327.5
 20
20453.0192305276286788
 30
0.0
 11
7327.5
 21
21152.6453493379412976
 31
0.0
  0
LINE
  5
3E3C8
  8
SCALE
 10
6727.5
 20
20453.0192305276286788
 30
0.0
 11
6727.5
 21
21152.6453493379412976
 31
0.0
  0
LINE
  5
3E3C9
  8
SCALE
 10
7227.5
 20
21062.6453493379412976
 30
0.0
 11
6827.5
 21
21062.6453493379412976
 31
0.0
  0
LINE
  5
3E3CD
  8
SCALE
 10
6727.5
 20
20453.0192305276286788
 30
0.0
 11
6727.5
 21
21152.6453493379412976
 31
0.0
  0
LINE
  5
3E3CE
  8
SCALE
 10
4147.4999999999990905
 20
19853.0192305276286788
 30
0.0
 11
4147.4999999999990905
 21
21152.6453493379412976
 31
0.0
  0
LINE
  5
3E3CF
  8
SCALE
 10
6627.5000000000009095
 20
21062.6453493379412976
 30
0.0
 11
4247.5
 21
21062.6453493379412976
 31
0.0
  0
LINE
  5
3E3D3
  8
SCALE
 10
4147.4999999999990905
 20
19853.0192305276286788
 30
0.0
 11
4147.4999999999990905
 21
21152.6453493379412976
 31
0.0
  0
LINE
  5
3E3D4
  8
SCALE
 10
3547.5
 20
20453.0192305276286788
 30
0.0
 11
3547.5
 21
21152.6453493379412976
 31
0.0
  0
LINE
  5
3E3D5
  8
SCALE
 10
4047.5
 20
21062.6453493379412976
 30
0.0
 11
3647.5
 21
21062.6453493379412976
 31
0.0
  0
LINE
  5
3E3D9
  8
SCALE
 10
3447.500000000001819
 20
20353.0192305276395928
 30
0.0
 11
2876.3544123454348664
 21
20353.0192305276395928
 31
0.0
  0
LINE
  5
3E3DA
  8
SCALE
 10
4015.0600000000022192
 20
19598.0192305276286788
 30
0.0
 11
2876.3544123454348664
 21
19598.0192305276286788
 31
0.0
  0
LINE
  5
3E3DB
  8
SCALE
 10
2966.3544123454348664
 20
20253.0192305276395928
 30
0.0
 11
2966.3544123454348664
 21
19698.0192305276286788
 31
0.0
  0
LINE
  5
3E3DF
  8
SCALE
 10
4015.0600000000022192
 20
19598.0192305276286788
 30
0.0
 11
2876.3544123454339569
 21
19598.0192305276286788
 31
0.0
  0
LINE
  5
3E3E0
  8
SCALE
 10
3447.500000000001819
 20
18843.0192305276286788
 30
0.0
 11
2876.3544123454348664
 21
18843.0192305276286788
 31
0.0
  0
LINE
  5
3E3E1
  8
SCALE
 10
2966.3544123454339569
 20
19498.0192305276286788
 30
0.0
 11
2966.3544123454348664
 21
18943.0192305276286788
 31
0.0
  0
LINE
  5
3E3E5
  8
SCALE
 10
6550.4999999999990905
 20
20453.0192305276286788
 30
0.0
 11
6550.4999999999990905
 21
20863.0520435559010366
 31
0.0
  0
LINE
  5
3E3E6
  8
SCALE
 10
6727.5
 20
20453.0192305276286788
 30
0.0
 11
6727.5
 21
20863.0520435559010366
 31
0.0
  0
LINE
  5
3E3E7
  8
SCALE
 10
6450.4999999999990905
 20
20773.0520435559010366
 30
0.0
 11
6350.5
 21
20773.0520435559010366
 31
0.0
  0
LINE
  5
3E3E8
  8
SCALE
 10
6827.5
 20
20773.0520435559010366
 30
0.0
 11
6927.5000000000009095
 21
20773.0520435559010366
 31
0.0
  0
LINE
  5
3E3E9
  8
SCALE
 10
6550.4999999999990905
 20
20773.0520435559010366
 30
0.0
 11
6727.5
 21
20773.0520435559010366
 31
0.0
  0
LINE
  5
3E3ED
  8
SCALE
 10
4047.500000000001819
 20
19753.0192305276286788
 30
0.0
 11
3166.4218909603378052
 21
19753.0192305276286788
 31
0.0
  0
LINE
  5
3E3EE
  8
SCALE
 10
4047.500000000001819
 20
19443.0192305276286788
 30
0.0
 11
3166.4218909603378052
 21
19443.0192305276286788
 31
0.0
  0
LINE
  5
3E3EF
  8
SCALE
 10
3256.4218909603378052
 20
19653.0192305276395928
 30
0.0
 11
3256.4218909603378052
 21
19543.0192305276286788
 31
0.0
  0
LINE
  5
3E3F3
  8
SCALE
 10
17427.5
 20
20473.0192305276286788
 30
0.0
 11
17427.5
 21
21248.4774845128995366
 31
0.0
  0
LINE
  5
3E3F4
  8
SCALE
 10
16827.5
 20
20473.0192305276286788
 30
0.0
 11
16827.5
 21
21248.4774845128995366
 31
0.0
  0
LINE
  5
3E3F5
  8
SCALE
 10
17327.5
 20
21158.4774845128995366
 30
0.0
 11
16927.5
 21
21158.4774845128995366
 31
0.0
  0
LINE
  5
3E3F9
  8
SCALE
 10
16827.5
 20
20473.0192305276286788
 30
0.0
 11
16827.5
 21
21248.4774845128995366
 31
0.0
  0
LINE
  5
3E3FA
  8
SCALE
 10
14197.5
 20
19873.0192305276286788
 30
0.0
 11
14197.5
 21
21248.4774845128995366
 31
0.0
  0
LINE
  5
3E3FB
  8
SCALE
 10
16727.5
 20
21158.4774845128995366
 30
0.0
 11
14297.5
 21
21158.4774845128995366
 31
0.0
  0
LINE
  5
3E3FF
  8
SCALE
 10
14197.5
 20
19873.0192305276286788
 30
0.0
 11
14197.5
 21
21248.4774845128995366
 31
0.0
  0
LINE
  5
3E400
  8
SCALE
 10
13597.5
 20
20473.0192305276286788
 30
0.0
 11
13597.5
 21
21248.4774845128995366
 31
0.0
  0
LINE
  5
3E401
  8
SCALE
 10
14097.5
 20
21158.4774845128995366
 30
0.0
 11
13697.5
 21
21158.4774845128995366
 31
0.0
  0
LINE
  5
3E405
  8
SCALE
 10
16827.5
 20
20473.0192305276286788
 30
0.0
 11
16827.5
 21
20941.7694780409401574
 31
0.0
  0
LINE
  5
3E406
  8
SCALE
 10
16629.5
 20
20473.0192305276286788
 30
0.0
 11
16629.5
 21
20941.7694780409401574
 31
0.0
  0
LINE
  5
3E407
  8
SCALE
 10
16927.5
 20
20851.7694780409401574
 30
0.0
 11
17027.5
 21
20851.7694780409401574
 31
0.0
  0
LINE
  5
3E408
  8
SCALE
 10
16529.5
 20
20851.7694780409401574
 30
0.0
 11
16429.5
 21
20851.7694780409401574
 31
0.0
  0
LINE
  5
3E409
  8
SCALE
 10
16827.5
 20
20851.7694780409401574
 30
0.0
 11
16629.5
 21
20851.7694780409401574
 31
0.0
  0
LINE
  5
3E40D
  8
SCALE
 10
13497.5000000000090949
 20
20373.0192305276395928
 30
0.0
 11
12784.4162999622803909
 21
20373.0192305276395928
 31
0.0
  0
LINE
  5
3E40E
  8
SCALE
 10
14075.6599999999998545
 20
19598.0192305276286788
 30
0.0
 11
12784.4162999622803909
 21
19598.0192305276286788
 31
0.0
  0
LINE
  5
3E40F
  8
SCALE
 10
12874.4162999622803909
 20
20273.0192305276395928
 30
0.0
 11
12874.4162999622803909
 21
19698.0192305276286788
 31
0.0
  0
LINE
  5
3E413
  8
SCALE
 10
14075.6599999999998545
 20
19598.0192305276286788
 30
0.0
 11
12784.4162999622803909
 21
19598.0192305276286788
 31
0.0
  0
LINE
  5
3E414
  8
SCALE
 10
13497.5000000000090949
 20
18823.0192305276395928
 30
0.0
 11
12784.4162999622803909
 21
18823.0192305276395928
 31
0.0
  0
LINE
  5
3E415
  8
SCALE
 10
12874.4162999622803909
 20
19498.0192305276286788
 30
0.0
 11
12874.4162999622803909
 21
18923.0192305276286788
 31
0.0
  0
LINE
  5
3E419
  8
SCALE
 10
14097.5
 20
19773.0192305276286788
 30
0.0
 11
13104.8956440991805721
 21
19773.0192305276286788
 31
0.0
  0
LINE
  5
3E41A
  8
SCALE
 10
14097.5
 20
19423.0192305276286788
 30
0.0
 11
13104.8956440991805721
 21
19423.0192305276286788
 31
0.0
  0
LINE
  5
3E41B
  8
SCALE
 10
13194.8956440991805721
 20
19673.0192305276286788
 30
0.0
 11
13194.8956440991805721
 21
19523.0192305276286788
 31
0.0
  0
LINE
  5
3E41F
  8
SCALE
 10
27562.5
 20
20488.0192305276286788
 30
0.0
 11
27562.5
 21
21290.7245014385407558
 31
0.0
  0
LINE
  5
3E420
  8
SCALE
 10
26962.5
 20
20488.0192305276286788
 30
0.0
 11
26962.5
 21
21290.7245014385407558
 31
0.0
  0
LINE
  5
3E421
  8
SCALE
 10
27462.5
 20
21200.7245014385407558
 30
0.0
 11
27062.5
 21
21200.7245014385407558
 31
0.0
  0
LINE
  5
3E425
  8
SCALE
 10
26962.5
 20
20488.0192305276286788
 30
0.0
 11
26962.5
 21
21290.7245014385407558
 31
0.0
  0
LINE
  5
3E426
  8
SCALE
 10
24212.5
 20
19888.0192305276286788
 30
0.0
 11
24212.5
 21
21290.7245014385407558
 31
0.0
  0
LINE
  5
3E427
  8
SCALE
 10
26862.5
 20
21200.7245014385407558
 30
0.0
 11
24312.5
 21
21200.7245014385407558
 31
0.0
  0
LINE
  5
3E42B
  8
SCALE
 10
24212.5
 20
19888.0192305276286788
 30
0.0
 11
24212.5
 21
21290.7245014385407558
 31
0.0
  0
LINE
  5
3E42C
  8
SCALE
 10
23612.5
 20
20488.0192305276286788
 30
0.0
 11
23612.5
 21
21290.7245014385407558
 31
0.0
  0
LINE
  5
3E42D
  8
SCALE
 10
24112.5
 20
21200.7245014385407558
 30
0.0
 11
23712.5
 21
21200.7245014385407558
 31
0.0
  0
LINE
  5
3E431
  8
SCALE
 10
26722.5
 20
19698.0192305276286788
 30
0.0
 11
26722.5
 21
20981.2568339847093739
 31
0.0
  0
LINE
  5
3E432
  8
SCALE
 10
26962.5
 20
19698.0192305276286788
 30
0.0
 11
26962.5
 21
20981.2568339847093739
 31
0.0
  0
LINE
  5
3E433
  8
SCALE
 10
26822.5
 20
20891.2568339847093739
 30
0.0
 11
26862.5
 21
20891.2568339847093739
 31
0.0
  0
LINE
  5
3E437
  8
SCALE
 10
23512.5000000000109139
 20
20388.0192305276395928
 30
0.0
 11
22708.3239714215706044
 21
20388.0192305276395928
 31
0.0
  0
LINE
  5
3E438
  8
SCALE
 10
24077.7300000000104774
 20
19598.0192305276286788
 30
0.0
 11
22708.3239714215706044
 21
19598.0192305276286788
 31
0.0
  0
LINE
  5
3E439
  8
SCALE
 10
22798.3239714215706044
 20
20288.0192305276395928
 30
0.0
 11
22798.3239714215706044
 21
19698.0192305276286788
 31
0.0
  0
LINE
  5
3E43D
  8
SCALE
 10
24077.7300000000104774
 20
19598.0192305276286788
 30
0.0
 11
22708.3239714215706044
 21
19598.0192305276286788
 31
0.0
  0
LINE
  5
3E43E
  8
SCALE
 10
23512.5000000000109139
 20
18808.0192305276286788
 30
0.0
 11
22708.3239714215706044
 21
18808.0192305276286788
 31
0.0
  0
LINE
  5
3E43F
  8
SCALE
 10
22798.3239714215706044
 20
19498.0192305276286788
 30
0.0
 11
22798.3239714215706044
 21
18908.0192305276286788
 31
0.0
  0
LINE
  5
3E443
  8
SCALE
 10
24112.5000000000109139
 20
19788.0192305276286788
 30
0.0
 11
23045.5210418772985577
 21
19788.0192305276286788
 31
0.0
  0
LINE
  5
3E444
  8
SCALE
 10
24112.5000000000109139
 20
19408.0192305276286788
 30
0.0
 11
23045.5210418772985577
 21
19408.0192305276286788
 31
0.0
  0
LINE
  5
3E445
  8
SCALE
 10
23135.5210418772985577
 20
19688.0192305276286788
 30
0.0
 11
23135.5210418772985577
 21
19508.0192305276395928
 31
0.0
  0
LINE
  5
3E449
  8
SCALE
 10
37722.5
 20
20563.0192305276286788
 30
0.0
 11
37722.5
 21
21473.3929109456912556
 31
0.0
  0
LINE
  5
3E44A
  8
SCALE
 10
37122.5
 20
20563.0192305276286788
 30
0.0
 11
37122.5
 21
21473.3929109456912556
 31
0.0
  0
LINE
  5
3E44B
  8
SCALE
 10
37622.5
 20
21383.3929109456912556
 30
0.0
 11
37222.5
 21
21383.3929109456912556
 31
0.0
  0
LINE
  5
3E44F
  8
SCALE
 10
37122.5
 20
20563.0192305276286788
 30
0.0
 11
37122.5
 21
21473.3929109456912556
 31
0.0
  0
LINE
  5
3E450
  8
SCALE
 10
34202.5
 20
19913.0192305276286788
 30
0.0
 11
34202.5
 21
21473.3929109456912556
 31
0.0
  0
LINE
  5
3E451
  8
SCALE
 10
37022.5
 20
21383.3929109456912556
 30
0.0
 11
34302.5
 21
21383.3929109456912556
 31
0.0
  0
LINE
  5
3E455
  8
SCALE
 10
34202.5
 20
19913.0192305276286788
 30
0.0
 11
34202.5
 21
21473.3929109456912556
 31
0.0
  0
LINE
  5
3E456
  8
SCALE
 10
33602.5
 20
20563.0192305276286788
 30
0.0
 11
33602.5
 21
21473.3929109456912556
 31
0.0
  0
LINE
  5
3E457
  8
SCALE
 10
34102.5
 20
21383.3929109456912556
 30
0.0
 11
33702.5
 21
21383.3929109456912556
 31
0.0
  0
LINE
  5
3E45B
  8
SCALE
 10
33502.5000000000218279
 20
20463.0192305276395928
 30
0.0
 11
32412.0746556600897748
 21
20463.0192305276395928
 31
0.0
  0
LINE
  5
3E45C
  8
SCALE
 10
33502.5000000000218279
 20
19598.0192305276286788
 30
0.0
 11
32412.0746556600897748
 21
19598.0192305276286788
 31
0.0
  0
LINE
  5
3E45D
  8
SCALE
 10
32502.0746556600897748
 20
20363.0192305276286788
 30
0.0
 11
32502.0746556600897748
 21
19698.0192305276286788
 31
0.0
  0
LINE
  5
3E461
  8
SCALE
 10
33502.5000000000218279
 20
19598.0192305276286788
 30
0.0
 11
32412.0746556600897748
 21
19598.0192305276286788
 31
0.0
  0
LINE
  5
3E462
  8
SCALE
 10
33502.5000000000218279
 20
18733.0192305276286788
 30
0.0
 11
32412.0746556600897748
 21
18733.0192305276286788
 31
0.0
  0
LINE
  5
3E463
  8
SCALE
 10
32502.0746556600897748
 20
19498.0192305276286788
 30
0.0
 11
32502.0746556600897748
 21
18833.0192305276286788
 31
0.0
  0
LINE
  5
3E467
  8
SCALE
 10
37122.5
 20
20563.0192305276286788
 30
0.0
 11
37122.5
 21
21062.0682212532410631
 31
0.0
  0
LINE
  5
3E468
  8
SCALE
 10
36822.5
 20
20563.0192305276286788
 30
0.0
 11
36822.5
 21
21062.0682212532410631
 31
0.0
  0
LINE
  5
3E469
  8
SCALE
 10
37022.5
 20
20972.0682212532410631
 30
0.0
 11
36922.5
 21
20972.0682212532410631
 31
0.0
  0
LINE
  5
3E46D
  8
SCALE
 10
34102.5000000000218279
 20
19813.0192305276395928
 30
0.0
 11
33055.1105566453697975
 21
19813.0192305276395928
 31
0.0
  0
LINE
  5
3E46E
  8
SCALE
 10
34102.5000000000218279
 20
19383.0192305276286788
 30
0.0
 11
33055.1105566453697975
 21
19383.0192305276286788
 31
0.0
  0
LINE
  5
3E46F
  8
SCALE
 10
33145.1105566453625215
 20
19713.0192305276286788
 30
0.0
 11
33145.1105566453625215
 21
19483.0192305276286788
 31
0.0
  0
LINE
  5
3E473
  8
SCALE
 10
4247.227547864459666
 20
15488.5410367590993701
 30
0.0
 11
4510.5848754179596654
 21
15488.5410367590993701
 31
0.0
  0
LINE
  5
3E474
  8
SCALE
 10
4265.500000000001819
 20
15388.5410367590993701
 30
0.0
 11
4510.5848754179596654
 21
15388.5410367590993701
 31
0.0
  0
LINE
  5
3E475
  8
SCALE
 10
4420.5848754179605749
 20
15388.5410367590993701
 30
0.0
 11
4420.5848754179605749
 21
15488.5410367590993701
 31
0.0
  0
LINE
  5
3E476
  8
SCALE
 10
4420.5848754179605749
 20
15488.5410367590993701
 30
0.0
 11
4420.5848754179605749
 21
15763.5410367590993701
 31
0.0
  0
LINE
  5
3E47A
  8
SCALE
 10
4247.5000000000009095
 20
15178.5410367590993701
 30
0.0
 11
4510.5848754179678508
 21
15178.5410367590993701
 31
0.0
  0
LINE
  5
3E47B
  8
SCALE
 10
4247.5000000000009095
 20
15078.5410367590993701
 30
0.0
 11
4510.5848754179678508
 21
15078.5410367590993701
 31
0.0
  0
LINE
  5
3E47C
  8
SCALE
 10
4420.5848754179678508
 20
15178.5410367590993701
 30
0.0
 11
4420.5848754179678508
 21
15078.5410367590993701
 31
0.0
  0
LINE
  5
3E47D
  8
SCALE
 10
4420.5848754179678508
 20
15078.5410367590993701
 30
0.0
 11
4420.5848754179678508
 21
14828.5410367590993701
 31
0.0
  0
LINE
  5
3E481
  8
SCALE
 10
4015.0600000000022192
 20
15283.5410367590993701
 30
0.0
 11
3828.09669316947884
 21
15283.5410367590993701
 31
0.0
  0
LINE
  5
3E482
  8
SCALE
 10
4344.500000000001819
 20
15295.5410367590993701
 30
0.0
 11
3828.09669316947884
 21
15295.5410367590993701
 31
0.0
  0
LINE
  5
3E483
  8
SCALE
 10
3918.09669316947884
 20
15183.5410367590993701
 30
0.0
 11
3918.09669316947884
 21
15083.5410367590993701
 31
0.0
  0
LINE
  5
3E484
  8
SCALE
 10
3918.09669316947884
 20
15395.5410367590993701
 30
0.0
 11
3918.09669316947884
 21
15495.5410367590993701
 31
0.0
  0
LINE
  5
3E486
  8
SCALE
 10
3918.09669316947884
 20
15283.5410367590993701
 30
0.0
 11
3918.09669316947884
 21
15295.5410367590993701
 31
0.0
  0
LINE
  5
3E489
  8
SCALE
 10
14075.6599999999998545
 20
15284.0410367590993701
 30
0.0
 11
13929.7898037645500153
 21
15284.0410367590993701
 31
0.0
  0
LINE
  5
3E48A
  8
SCALE
 10
14430.5000000000090949
 20
15295.5410367590993701
 30
0.0
 11
13929.7898037645500153
 21
15295.5410367590993701
 31
0.0
  0
LINE
  5
3E48B
  8
SCALE
 10
14019.7898037645500153
 20
15184.0410367590993701
 30
0.0
 11
14019.7898037645500153
 21
15084.0410367590993701
 31
0.0
  0
LINE
  5
3E48C
  8
SCALE
 10
14019.7898037645500153
 20
15395.5410367590993701
 30
0.0
 11
14019.7898037645500153
 21
15495.5410367590993701
 31
0.0
  0
LINE
  5
3E48E
  8
SCALE
 10
14019.7898037645500153
 20
15284.0410367590993701
 30
0.0
 11
14019.7898037645500153
 21
15295.5410367590993701
 31
0.0
  0
LINE
  5
3E491
  8
SCALE
 10
24077.7300000000104774
 20
15271.5410367590993701
 30
0.0
 11
23820.7681206800407381
 21
15271.5410367590993701
 31
0.0
  0
LINE
  5
3E492
  8
SCALE
 10
24522.5000000000109139
 20
15295.5410367590993701
 30
0.0
 11
23820.7681206800407381
 21
15295.5410367590993701
 31
0.0
  0
LINE
  5
3E493
  8
SCALE
 10
23910.7681206800407381
 20
15171.5410367590993701
 30
0.0
 11
23910.7681206800407381
 21
15071.5410367590993701
 31
0.0
  0
LINE
  5
3E494
  8
SCALE
 10
23910.7681206800407381
 20
15395.5410367590993701
 30
0.0
 11
23910.7681206800407381
 21
15495.5410367590993701
 31
0.0
  0
LINE
  5
3E496
  8
SCALE
 10
23910.7681206800407381
 20
15271.5410367590993701
 30
0.0
 11
23910.7681206800407381
 21
15295.5410367590993701
 31
0.0
  0
LINE
  5
3E499
  8
SCALE
 10
34079.540000000022701
 20
15271.0410367590993701
 30
0.0
 11
33822.5781206801111693
 21
15271.0410367590993701
 31
0.0
  0
LINE
  5
3E49A
  8
SCALE
 10
34622.5000000000218279
 20
15295.5410367590993701
 30
0.0
 11
33822.5781206801111693
 21
15295.5410367590993701
 31
0.0
  0
LINE
  5
3E49B
  8
SCALE
 10
33912.5781206801111693
 20
15171.0410367590993701
 30
0.0
 11
33912.5781206801111693
 21
15071.0410367590993701
 31
0.0
  0
LINE
  5
3E49C
  8
SCALE
 10
33912.5781206801111693
 20
15395.5410367590993701
 30
0.0
 11
33912.5781206801111693
 21
15495.5410367590993701
 31
0.0
  0
LINE
  5
3E49E
  8
SCALE
 10
33912.5781206801111693
 20
15271.0410367590993701
 30
0.0
 11
33912.5781206801111693
 21
15295.5410367590993701
 31
0.0
  0
LINE
  5
3E4A1
  8
SCALE
 10
14299.2275478644605755
 20
15509.0410367590993701
 30
0.0
 11
14562.5848754179605749
 21
15509.0410367590993701
 31
0.0
  0
LINE
  5
3E4A2
  8
SCALE
 10
14317.5
 20
15409.0410367590993701
 30
0.0
 11
14562.5848754179605749
 21
15409.0410367590993701
 31
0.0
  0
LINE
  5
3E4A3
  8
SCALE
 10
14472.5848754179605749
 20
15409.0410367590993701
 30
0.0
 11
14472.5848754179605749
 21
15509.0410367590993701
 31
0.0
  0
LINE
  5
3E4A4
  8
SCALE
 10
14472.5848754179605749
 20
15509.0410367590993701
 30
0.0
 11
14472.5848754179605749
 21
15784.0410367590993701
 31
0.0
  0
LINE
  5
3E4A8
  8
SCALE
 10
24316.2275478644696705
 20
15511.5410367590993701
 30
0.0
 11
24579.5848754179714888
 21
15511.5410367590993701
 31
0.0
  0
LINE
  5
3E4A9
  8
SCALE
 10
24334.5000000000109139
 20
15411.5410367590993701
 30
0.0
 11
24579.5848754179714888
 21
15411.5410367590993701
 31
0.0
  0
LINE
  5
3E4AA
  8
SCALE
 10
24489.5848754179605749
 20
15411.5410367590993701
 30
0.0
 11
24489.5848754179605749
 21
15511.5410367590993701
 31
0.0
  0
LINE
  5
3E4AB
  8
SCALE
 10
24489.5848754179605749
 20
15511.5410367590993701
 30
0.0
 11
24489.5848754179605749
 21
15786.5410367590993701
 31
0.0
  0
LINE
  5
3E4AF
  8
SCALE
 10
34306.2275478644805844
 20
15536.0410367590993701
 30
0.0
 11
34569.5848754179678508
 21
15536.0410367590993701
 31
0.0
  0
LINE
  5
3E4B0
  8
SCALE
 10
34324.500000000007276
 20
15436.0410367590993701
 30
0.0
 11
34569.5848754179678508
 21
15436.0410367590993701
 31
0.0
  0
LINE
  5
3E4B1
  8
SCALE
 10
34479.5848754179678508
 20
15436.0410367590993701
 30
0.0
 11
34479.5848754179678508
 21
15536.0410367590993701
 31
0.0
  0
LINE
  5
3E4B2
  8
SCALE
 10
34479.5848754179678508
 20
15536.0410367590993701
 30
0.0
 11
34479.5848754179678508
 21
15811.041036759110284
 31
0.0
  0
LINE
  5
3E4B6
  8
SCALE
 10
34306.2275478644805844
 20
15006.0410367590993701
 30
0.0
 11
34569.5848754179678508
 21
15006.0410367590993701
 31
0.0
  0
LINE
  5
3E4B7
  8
SCALE
 10
34324.500000000007276
 20
15106.0410367590993701
 30
0.0
 11
34569.5848754179678508
 21
15106.0410367590993701
 31
0.0
  0
LINE
  5
3E4B8
  8
SCALE
 10
34479.5848754179678508
 20
15106.0410367590993701
 30
0.0
 11
34479.5848754179678508
 21
15006.0410367590993701
 31
0.0
  0
LINE
  5
3E4B9
  8
SCALE
 10
34479.5848754179678508
 20
15006.0410367590993701
 30
0.0
 11
34479.5848754179678508
 21
14731.0410367590993701
 31
0.0
  0
LINE
  5
3E4BD
  8
SCALE
 10
24316.2275478644696705
 20
15031.5410367590993701
 30
0.0
 11
24579.5848754179714888
 21
15031.5410367590993701
 31
0.0
  0
LINE
  5
3E4BE
  8
SCALE
 10
24334.5000000000109139
 20
15131.5410367590993701
 30
0.0
 11
24579.5848754179714888
 21
15131.5410367590993701
 31
0.0
  0
LINE
  5
3E4BF
  8
SCALE
 10
24489.5848754179605749
 20
15131.5410367590993701
 30
0.0
 11
24489.5848754179605749
 21
15031.5410367590993701
 31
0.0
  0
LINE
  5
3E4C0
  8
SCALE
 10
24489.5848754179605749
 20
15031.5410367590993701
 30
0.0
 11
24489.5848754179605749
 21
14756.5410367590993701
 31
0.0
  0
LINE
  5
3E4C4
  8
SCALE
 10
14299.2275478644605755
 20
15059.0410367590993701
 30
0.0
 11
14562.5848754179605749
 21
15059.0410367590993701
 31
0.0
  0
LINE
  5
3E4C5
  8
SCALE
 10
14317.5
 20
15159.0410367590993701
 30
0.0
 11
14562.5848754179605749
 21
15159.0410367590993701
 31
0.0
  0
LINE
  5
3E4C6
  8
SCALE
 10
14472.5848754179605749
 20
15159.0410367590993701
 30
0.0
 11
14472.5848754179605749
 21
15059.0410367590993701
 31
0.0
  0
LINE
  5
3E4C7
  8
SCALE
 10
14472.5848754179605749
 20
15059.0410367590993701
 30
0.0
 11
14472.5848754179605749
 21
14784.0410367590993701
 31
0.0
  0
LINE
  5
3E4CB
  8
0
 10
7327.5
 20
21062.6453493379412976
 30
0.0
 11
7227.5
 21
21035.8504300948297896
 31
0.0
  0
LINE
  5
3E4CC
  8
0
 10
7327.5
 20
21062.6453493379412976
 30
0.0
 11
7227.5
 21
21089.4402685810491676
 31
0.0
  0
LINE
  5
3E4CD
  8
0
 10
7227.5
 20
21062.6453493379412976
 30
0.0
 11
7327.5
 21
21062.6453493379412976
 31
0.0
  0
LINE
  5
3E4CE
  8
0
 10
6727.5
 20
21062.6453493379412976
 30
0.0
 11
6827.5
 21
21089.4402685810491676
 31
0.0
  0
LINE
  5
3E4CF
  8
0
 10
6727.5
 20
21062.6453493379412976
 30
0.0
 11
6827.5
 21
21035.8504300948297896
 31
0.0
  0
LINE
  5
3E4D0
  8
0
 10
6827.5
 20
21062.6453493379412976
 30
0.0
 11
6727.5
 21
21062.6453493379412976
 31
0.0
  0
TEXT
  5
3E4D1
  8
SCALE
 10
6940.0
 20
21100.1453493379412976
 30
0.0
 40
75.0
  1
600
  0
LINE
  5
3E4D2
  8
0
 10
6727.5
 20
21062.6453493379412976
 30
0.0
 11
6627.5000000000009095
 21
21035.8504300948297896
 31
0.0
  0
LINE
  5
3E4D3
  8
0
 10
6727.5
 20
21062.6453493379412976
 30
0.0
 11
6627.5000000000009095
 21
21089.4402685810491676
 31
0.0
  0
LINE
  5
3E4D4
  8
0
 10
6627.5000000000009095
 20
21062.6453493379412976
 30
0.0
 11
6727.5
 21
21062.6453493379412976
 31
0.0
  0
LINE
  5
3E4D5
  8
0
 10
4147.4999999999990905
 20
21062.6453493379412976
 30
0.0
 11
4247.5
 21
21089.4402685810491676
 31
0.0
  0
LINE
  5
3E4D6
  8
0
 10
4147.4999999999990905
 20
21062.6453493379412976
 30
0.0
 11
4247.5
 21
21035.8504300948297896
 31
0.0
  0
LINE
  5
3E4D7
  8
0
 10
4247.5
 20
21062.6453493379412976
 30
0.0
 11
4147.4999999999990905
 21
21062.6453493379412976
 31
0.0
  0
TEXT
  5
3E4D8
  8
SCALE
 10
5113.75
 20
21100.1453493379412976
 30
0.0
 40
75.0
  1
取付面間:2580
  0
LINE
  5
3E4D9
  8
0
 10
4147.4999999999990905
 20
21062.6453493379412976
 30
0.0
 11
4047.5
 21
21035.8504300948297896
 31
0.0
  0
LINE
  5
3E4DA
  8
0
 10
4147.4999999999990905
 20
21062.6453493379412976
 30
0.0
 11
4047.5
 21
21089.4402685810491676
 31
0.0
  0
LINE
  5
3E4DB
  8
0
 10
4047.5
 20
21062.6453493379412976
 30
0.0
 11
4147.4999999999990905
 21
21062.6453493379412976
 31
0.0
  0
LINE
  5
3E4DC
  8
0
 10
3547.5
 20
21062.6453493379412976
 30
0.0
 11
3647.5
 21
21089.4402685810491676
 31
0.0
  0
LINE
  5
3E4DD
  8
0
 10
3547.5
 20
21062.6453493379412976
 30
0.0
 11
3647.5
 21
21035.8504300948297896
 31
0.0
  0
LINE
  5
3E4DE
  8
0
 10
3647.5
 20
21062.6453493379412976
 30
0.0
 11
3547.5
 21
21062.6453493379412976
 31
0.0
  0
TEXT
  5
3E4DF
  8
SCALE
 10
3760.0
 20
21100.1453493379412976
 30
0.0
 40
75.0
  1
600
  0
LINE
  5
3E4E0
  8
0
 10
2966.3544123454348664
 20
20353.0192305276395928
 30
0.0
 11
2993.1493315885459197
 21
20253.0192305276395928
 31
0.0
  0
LINE
  5
3E4E1
  8
0
 10
2966.3544123454348664
 20
20353.0192305276395928
 30
0.0
 11
2939.5594931023251775
 21
20253.0192305276395928
 31
0.0
  0
LINE
  5
3E4E2
  8
0
 10
2966.3544123454348664
 20
20253.0192305276395928
 30
0.0
 11
2966.3544123454348664
 21
20353.0192305276395928
 31
0.0
  0
LINE
  5
3E4E3
  8
0
 10
2966.3544123454348664
 20
19598.0192305276286788
 30
0.0
 11
2939.5594931023251775
 21
19698.0192305276286788
 31
0.0
  0
LINE
  5
3E4E4
  8
0
 10
2966.3544123454348664
 20
19598.0192305276286788
 30
0.0
 11
2993.1493315885459197
 21
19698.0192305276286788
 31
0.0
  0
LINE
  5
3E4E5
  8
0
 10
2966.3544123454348664
 20
19698.0192305276286788
 30
0.0
 11
2966.3544123454348664
 21
19598.0192305276286788
 31
0.0
  0
TEXT
  5
3E4E6
  8
SCALE
 10
2928.8544123454407782
 20
19875.5192305276286788
 30
0.0
 40
75.0
  1
755
 50
90.0
  0
LINE
  5
3E4E7
  8
0
 10
2966.3544123454339569
 20
19598.0192305276286788
 30
0.0
 11
2993.1493315885450102
 21
19498.0192305276286788
 31
0.0
  0
LINE
  5
3E4E8
  8
0
 10
2966.3544123454339569
 20
19598.0192305276286788
 30
0.0
 11
2939.5594931023238132
 21
19498.0192305276286788
 31
0.0
  0
LINE
  5
3E4E9
  8
0
 10
2966.3544123454339569
 20
19498.0192305276286788
 30
0.0
 11
2966.3544123454339569
 21
19598.0192305276286788
 31
0.0
  0
LINE
  5
3E4EA
  8
0
 10
2966.3544123454348664
 20
18843.0192305276286788
 30
0.0
 11
2939.5594931023238132
 21
18943.0192305276286788
 31
0.0
  0
LINE
  5
3E4EB
  8
0
 10
2966.3544123454348664
 20
18843.0192305276286788
 30
0.0
 11
2993.1493315885450102
 21
18943.0192305276286788
 31
0.0
  0
LINE
  5
3E4EC
  8
0
 10
2966.3544123454348664
 20
18943.0192305276286788
 30
0.0
 11
2966.3544123454348664
 21
18843.0192305276286788
 31
0.0
  0
TEXT
  5
3E4ED
  8
SCALE
 10
2928.8544123454389592
 20
19120.5192305276286788
 30
0.0
 40
75.0
  1
755
 50
90.0
  0
LINE
  5
3E4EE
  8
0
 10
6550.4999999999990905
 20
20773.0520435559010366
 30
0.0
 11
6450.4999999999990905
 21
20746.2571243127895286
 31
0.0
  0
LINE
  5
3E4EF
  8
0
 10
6550.4999999999990905
 20
20773.0520435559010366
 30
0.0
 11
6450.4999999999990905
 21
20799.8469627990089066
 31
0.0
  0
LINE
  5
3E4F0
  8
0
 10
6450.4999999999990905
 20
20773.0520435559010366
 30
0.0
 11
6550.4999999999990905
 21
20773.0520435559010366
 31
0.0
  0
LINE
  5
3E4F1
  8
0
 10
6727.5
 20
20773.0520435559010366
 30
0.0
 11
6827.5
 21
20799.8469627990089066
 31
0.0
  0
LINE
  5
3E4F2
  8
0
 10
6727.5
 20
20773.0520435559010366
 30
0.0
 11
6827.5
 21
20746.2571243127895286
 31
0.0
  0
LINE
  5
3E4F3
  8
0
 10
6827.5
 20
20773.0520435559010366
 30
0.0
 11
6727.5
 21
20773.0520435559010366
 31
0.0
  0
TEXT
  5
3E4F4
  8
SCALE
 10
6551.5
 20
20810.5520435559010366
 30
0.0
 40
75.0
  1
177
  0
LINE
  5
3E4F5
  8
0
 10
3256.4218909603378052
 20
19753.0192305276286788
 30
0.0
 11
3283.2168102034488584
 21
19653.0192305276395928
 31
0.0
  0
LINE
  5
3E4F6
  8
0
 10
3256.4218909603378052
 20
19753.0192305276286788
 30
0.0
 11
3229.6269717172281162
 21
19653.0192305276395928
 31
0.0
  0
LINE
  5
3E4F7
  8
0
 10
3256.4218909603378052
 20
19653.0192305276395928
 30
0.0
 11
3256.4218909603378052
 21
19753.0192305276286788
 31
0.0
  0
LINE
  5
3E4F8
  8
0
 10
3256.4218909603378052
 20
19443.0192305276286788
 30
0.0
 11
3229.6269717172281162
 21
19543.0192305276286788
 31
0.0
  0
LINE
  5
3E4F9
  8
0
 10
3256.4218909603378052
 20
19443.0192305276286788
 30
0.0
 11
3283.2168102034488584
 21
19543.0192305276286788
 31
0.0
  0
LINE
  5
3E4FA
  8
0
 10
3256.4218909603378052
 20
19543.0192305276286788
 30
0.0
 11
3256.4218909603378052
 21
19443.0192305276286788
 31
0.0
  0
TEXT
  5
3E4FB
  8
SCALE
 10
3218.9218909603428074
 20
19516.7692305276286788
 30
0.0
 40
75.0
  1
310
 50
90.0
  0
LINE
  5
3E4FC
  8
0
 10
17427.5
 20
21158.4774845128995366
 30
0.0
 11
17327.5
 21
21131.6825652697916667
 31
0.0
  0
LINE
  5
3E4FD
  8
0
 10
17427.5
 20
21158.4774845128995366
 30
0.0
 11
17327.5
 21
21185.2724037560110446
 31
0.0
  0
LINE
  5
3E4FE
  8
0
 10
17327.5
 20
21158.4774845128995366
 30
0.0
 11
17427.5
 21
21158.4774845128995366
 31
0.0
  0
LINE
  5
3E4FF
  8
0
 10
16827.5
 20
21158.4774845128995366
 30
0.0
 11
16927.5
 21
21185.2724037560110446
 31
0.0
  0
LINE
  5
3E500
  8
0
 10
16827.5
 20
21158.4774845128995366
 30
0.0
 11
16927.5
 21
21131.6825652697916667
 31
0.0
  0
LINE
  5
3E501
  8
0
 10
16927.5
 20
21158.4774845128995366
 30
0.0
 11
16827.5
 21
21158.4774845128995366
 31
0.0
  0
TEXT
  5
3E502
  8
SCALE
 10
17040.0
 20
21195.9774845128995366
 30
0.0
 40
75.0
  1
600
  0
LINE
  5
3E503
  8
0
 10
16827.5
 20
21158.4774845128995366
 30
0.0
 11
16727.5
 21
21131.6825652697916667
 31
0.0
  0
LINE
  5
3E504
  8
0
 10
16827.5
 20
21158.4774845128995366
 30
0.0
 11
16727.5
 21
21185.2724037560110446
 31
0.0
  0
LINE
  5
3E505
  8
0
 10
16727.5
 20
21158.4774845128995366
 30
0.0
 11
16827.5
 21
21158.4774845128995366
 31
0.0
  0
LINE
  5
3E506
  8
0
 10
14197.5
 20
21158.4774845128995366
 30
0.0
 11
14297.5
 21
21185.2724037560110446
 31
0.0
  0
LINE
  5
3E507
  8
0
 10
14197.5
 20
21158.4774845128995366
 30
0.0
 11
14297.5
 21
21131.6825652697916667
 31
0.0
  0
LINE
  5
3E508
  8
0
 10
14297.5
 20
21158.4774845128995366
 30
0.0
 11
14197.5
 21
21158.4774845128995366
 31
0.0
  0
TEXT
  5
3E509
  8
SCALE
 10
15188.75
 20
21195.9774845128995366
 30
0.0
 40
75.0
  1
取付面間:2630
  0
LINE
  5
3E50A
  8
0
 10
14197.5
 20
21158.4774845128995366
 30
0.0
 11
14097.5
 21
21131.6825652697916667
 31
0.0
  0
LINE
  5
3E50B
  8
0
 10
14197.5
 20
21158.4774845128995366
 30
0.0
 11
14097.5
 21
21185.2724037560110446
 31
0.0
  0
LINE
  5
3E50C
  8
0
 10
14097.5
 20
21158.4774845128995366
 30
0.0
 11
14197.5
 21
21158.4774845128995366
 31
0.0
  0
LINE
  5
3E50D
  8
0
 10
13597.5
 20
21158.4774845128995366
 30
0.0
 11
13697.5
 21
21185.2724037560110446
 31
0.0
  0
LINE
  5
3E50E
  8
0
 10
13597.5
 20
21158.4774845128995366
 30
0.0
 11
13697.5
 21
21131.6825652697916667
 31
0.0
  0
LINE
  5
3E50F
  8
0
 10
13697.5
 20
21158.4774845128995366
 30
0.0
 11
13597.5
 21
21158.4774845128995366
 31
0.0
  0
TEXT
  5
3E510
  8
SCALE
 10
13810.0
 20
21195.9774845128995366
 30
0.0
 40
75.0
  1
600
  0
LINE
  5
3E511
  8
0
 10
16827.5
 20
20851.7694780409401574
 30
0.0
 11
16927.5
 21
20878.5643972840516653
 31
0.0
  0
LINE
  5
3E512
  8
0
 10
16827.5
 20
20851.7694780409401574
 30
0.0
 11
16927.5
 21
20824.9745587978213734
 31
0.0
  0
LINE
  5
3E513
  8
0
 10
16927.5
 20
20851.7694780409401574
 30
0.0
 11
16827.5
 21
20851.7694780409401574
 31
0.0
  0
LINE
  5
3E514
  8
0
 10
16629.5
 20
20851.7694780409401574
 30
0.0
 11
16529.5
 21
20824.9745587978213734
 31
0.0
  0
LINE
  5
3E515
  8
0
 10
16629.5
 20
20851.7694780409401574
 30
0.0
 11
16529.5
 21
20878.5643972840516653
 31
0.0
  0
LINE
  5
3E516
  8
0
 10
16529.5
 20
20851.7694780409401574
 30
0.0
 11
16629.5
 21
20851.7694780409401574
 31
0.0
  0
TEXT
  5
3E517
  8
SCALE
 10
16641.0
 20
20889.2694780409401574
 30
0.0
 40
75.0
  1
198
  0
LINE
  5
3E518
  8
0
 10
12874.4162999622803909
 20
20373.0192305276395928
 30
0.0
 11
12901.2112192053900799
 21
20273.0192305276395928
 31
0.0
  0
LINE
  5
3E519
  8
0
 10
12874.4162999622803909
 20
20373.0192305276395928
 30
0.0
 11
12847.6213807191707019
 21
20273.0192305276395928
 31
0.0
  0
LINE
  5
3E51A
  8
0
 10
12874.4162999622803909
 20
20273.0192305276395928
 30
0.0
 11
12874.4162999622803909
 21
20373.0192305276395928
 31
0.0
  0
LINE
  5
3E51B
  8
0
 10
12874.4162999622803909
 20
19598.0192305276286788
 30
0.0
 11
12847.6213807191707019
 21
19698.0192305276286788
 31
0.0
  0
LINE
  5
3E51C
  8
0
 10
12874.4162999622803909
 20
19598.0192305276286788
 30
0.0
 11
12901.2112192053900799
 21
19698.0192305276286788
 31
0.0
  0
LINE
  5
3E51D
  8
0
 10
12874.4162999622803909
 20
19698.0192305276286788
 30
0.0
 11
12874.4162999622803909
 21
19598.0192305276286788
 31
0.0
  0
TEXT
  5
3E51E
  8
SCALE
 10
12836.9162999622894858
 20
19885.5192305276286788
 30
0.0
 40
75.0
  1
775
 50
90.0
  0
LINE
  5
3E51F
  8
0
 10
12874.4162999622803909
 20
19598.0192305276286788
 30
0.0
 11
12901.2112192053900799
 21
19498.0192305276286788
 31
0.0
  0
LINE
  5
3E520
  8
0
 10
12874.4162999622803909
 20
19598.0192305276286788
 30
0.0
 11
12847.6213807191707019
 21
19498.0192305276286788
 31
0.0
  0
LINE
  5
3E521
  8
0
 10
12874.4162999622803909
 20
19498.0192305276286788
 30
0.0
 11
12874.4162999622803909
 21
19598.0192305276286788
 31
0.0
  0
LINE
  5
3E522
  8
0
 10
12874.4162999622803909
 20
18823.0192305276395928
 30
0.0
 11
12847.6213807191707019
 21
18923.0192305276286788
 31
0.0
  0
LINE
  5
3E523
  8
0
 10
12874.4162999622803909
 20
18823.0192305276395928
 30
0.0
 11
12901.2112192053900799
 21
18923.0192305276286788
 31
0.0
  0
LINE
  5
3E524
  8
0
 10
12874.4162999622803909
 20
18923.0192305276286788
 30
0.0
 11
12874.4162999622803909
 21
18823.0192305276395928
 31
0.0
  0
TEXT
  5
3E525
  8
SCALE
 10
12836.9162999622894858
 20
19110.5192305276286788
 30
0.0
 40
75.0
  1
775
 50
90.0
  0
LINE
  5
3E526
  8
0
 10
13194.8956440991805721
 20
19773.0192305276286788
 30
0.0
 11
13221.6905633422902611
 21
19673.0192305276286788
 31
0.0
  0
LINE
  5
3E527
  8
0
 10
13194.8956440991805721
 20
19773.0192305276286788
 30
0.0
 11
13168.1007248560708831
 21
19673.0192305276286788
 31
0.0
  0
LINE
  5
3E528
  8
0
 10
13194.8956440991805721
 20
19673.0192305276286788
 30
0.0
 11
13194.8956440991805721
 21
19773.0192305276286788
 31
0.0
  0
LINE
  5
3E529
  8
0
 10
13194.8956440991805721
 20
19423.0192305276286788
 30
0.0
 11
13168.1007248560708831
 21
19523.0192305276286788
 31
0.0
  0
LINE
  5
3E52A
  8
0
 10
13194.8956440991805721
 20
19423.0192305276286788
 30
0.0
 11
13221.6905633422902611
 21
19523.0192305276286788
 31
0.0
  0
LINE
  5
3E52B
  8
0
 10
13194.8956440991805721
 20
19523.0192305276286788
 30
0.0
 11
13194.8956440991805721
 21
19423.0192305276286788
 31
0.0
  0
TEXT
  5
3E52C
  8
SCALE
 10
13157.3956440991805721
 20
19504.2692305276286788
 30
0.0
 40
75.0
  1
350
 50
90.0
  0
LINE
  5
3E52D
  8
0
 10
27562.5
 20
21200.7245014385407558
 30
0.0
 11
27462.5
 21
21173.9295821954292478
 31
0.0
  0
LINE
  5
3E52E
  8
0
 10
27562.5
 20
21200.7245014385407558
 30
0.0
 11
27462.5
 21
21227.5194206816486258
 31
0.0
  0
LINE
  5
3E52F
  8
0
 10
27462.5
 20
21200.7245014385407558
 30
0.0
 11
27562.5
 21
21200.7245014385407558
 31
0.0
  0
LINE
  5
3E530
  8
0
 10
26962.5
 20
21200.7245014385407558
 30
0.0
 11
27062.5
 21
21227.5194206816486258
 31
0.0
  0
LINE
  5
3E531
  8
0
 10
26962.5
 20
21200.7245014385407558
 30
0.0
 11
27062.5
 21
21173.9295821954292478
 31
0.0
  0
LINE
  5
3E532
  8
0
 10
27062.5
 20
21200.7245014385407558
 30
0.0
 11
26962.5
 21
21200.7245014385407558
 31
0.0
  0
TEXT
  5
3E533
  8
SCALE
 10
27175.0
 20
21238.2245014385407558
 30
0.0
 40
75.0
  1
600
  0
LINE
  5
3E534
  8
0
 10
26962.5
 20
21200.7245014385407558
 30
0.0
 11
26862.5
 21
21173.9295821954292478
 31
0.0
  0
LINE
  5
3E535
  8
0
 10
26962.5
 20
21200.7245014385407558
 30
0.0
 11
26862.5
 21
21227.5194206816486258
 31
0.0
  0
LINE
  5
3E536
  8
0
 10
26862.5
 20
21200.7245014385407558
 30
0.0
 11
26962.5
 21
21200.7245014385407558
 31
0.0
  0
LINE
  5
3E537
  8
0
 10
24212.5
 20
21200.7245014385407558
 30
0.0
 11
24312.5
 21
21227.5194206816486258
 31
0.0
  0
LINE
  5
3E538
  8
0
 10
24212.5
 20
21200.7245014385407558
 30
0.0
 11
24312.5
 21
21173.9295821954292478
 31
0.0
  0
LINE
  5
3E539
  8
0
 10
24312.5
 20
21200.7245014385407558
 30
0.0
 11
24212.5
 21
21200.7245014385407558
 31
0.0
  0
TEXT
  5
3E53A
  8
SCALE
 10
25263.75
 20
21238.2245014385407558
 30
0.0
 40
75.0
  1
取付面間:2750
  0
LINE
  5
3E53B
  8
0
 10
24212.5
 20
21200.7245014385407558
 30
0.0
 11
24112.5
 21
21173.9295821954292478
 31
0.0
  0
LINE
  5
3E53C
  8
0
 10
24212.5
 20
21200.7245014385407558
 30
0.0
 11
24112.5
 21
21227.5194206816486258
 31
0.0
  0
LINE
  5
3E53D
  8
0
 10
24112.5
 20
21200.7245014385407558
 30
0.0
 11
24212.5
 21
21200.7245014385407558
 31
0.0
  0
LINE
  5
3E53E
  8
0
 10
23612.5
 20
21200.7245014385407558
 30
0.0
 11
23712.5
 21
21227.5194206816486258
 31
0.0
  0
LINE
  5
3E53F
  8
0
 10
23612.5
 20
21200.7245014385407558
 30
0.0
 11
23712.5
 21
21173.9295821954292478
 31
0.0
  0
LINE
  5
3E540
  8
0
 10
23712.5
 20
21200.7245014385407558
 30
0.0
 11
23612.5
 21
21200.7245014385407558
 31
0.0
  0
TEXT
  5
3E541
  8
SCALE
 10
23825.0
 20
21238.2245014385407558
 30
0.0
 40
75.0
  1
600
  0
LINE
  5
3E542
  8
0
 10
26722.5
 20
20891.2568339847093739
 30
0.0
 11
26822.5
 21
20918.0517532278208819
 31
0.0
  0
LINE
  5
3E543
  8
0
 10
26722.5
 20
20891.2568339847093739
 30
0.0
 11
26822.5
 21
20864.4619147416015039
 31
0.0
  0
LINE
  5
3E544
  8
0
 10
26822.5
 20
20891.2568339847093739
 30
0.0
 11
26722.5
 21
20891.2568339847093739
 31
0.0
  0
LINE
  5
3E545
  8
0
 10
26962.5
 20
20891.2568339847093739
 30
0.0
 11
26862.5
 21
20864.4619147416015039
 31
0.0
  0
LINE
  5
3E546
  8
0
 10
26962.5
 20
20891.2568339847093739
 30
0.0
 11
26862.5
 21
20918.0517532278208819
 31
0.0
  0
LINE
  5
3E547
  8
0
 10
26862.5
 20
20891.2568339847093739
 30
0.0
 11
26962.5
 21
20891.2568339847093739
 31
0.0
  0
TEXT
  5
3E548
  8
SCALE
 10
26748.75
 20
20928.75683398469846
 30
0.0
 40
75.0
  1
240
  0
LINE
  5
3E549
  8
0
 10
22798.3239714215706044
 20
20388.0192305276395928
 30
0.0
 11
22825.1188906646784744
 21
20288.0192305276395928
 31
0.0
  0
LINE
  5
3E54A
  8
0
 10
22798.3239714215706044
 20
20388.0192305276395928
 30
0.0
 11
22771.5290521784590965
 21
20288.0192305276395928
 31
0.0
  0
LINE
  5
3E54B
  8
0
 10
22798.3239714215706044
 20
20288.0192305276395928
 30
0.0
 11
22798.3239714215706044
 21
20388.0192305276395928
 31
0.0
  0
LINE
  5
3E54C
  8
0
 10
22798.3239714215706044
 20
19598.0192305276286788
 30
0.0
 11
22771.5290521784590965
 21
19698.0192305276286788
 31
0.0
  0
LINE
  5
3E54D
  8
0
 10
22798.3239714215706044
 20
19598.0192305276286788
 30
0.0
 11
22825.1188906646784744
 21
19698.0192305276286788
 31
0.0
  0
LINE
  5
3E54E
  8
0
 10
22798.3239714215706044
 20
19698.0192305276286788
 30
0.0
 11
22798.3239714215706044
 21
19598.0192305276286788
 31
0.0
  0
TEXT
  5
3E54F
  8
SCALE
 10
22760.8239714215706044
 20
19899.2692305276286788
 30
0.0
 40
75.0
  1
790
 50
90.0
  0
LINE
  5
3E550
  8
0
 10
22798.3239714215706044
 20
19598.0192305276286788
 30
0.0
 11
22825.1188906646784744
 21
19498.0192305276286788
 31
0.0
  0
LINE
  5
3E551
  8
0
 10
22798.3239714215706044
 20
19598.0192305276286788
 30
0.0
 11
22771.5290521784590965
 21
19498.0192305276286788
 31
0.0
  0
LINE
  5
3E552
  8
0
 10
22798.3239714215706044
 20
19498.0192305276286788
 30
0.0
 11
22798.3239714215706044
 21
19598.0192305276286788
 31
0.0
  0
LINE
  5
3E553
  8
0
 10
22798.3239714215706044
 20
18808.0192305276286788
 30
0.0
 11
22771.5290521784590965
 21
18908.0192305276286788
 31
0.0
  0
LINE
  5
3E554
  8
0
 10
22798.3239714215706044
 20
18808.0192305276286788
 30
0.0
 11
22825.1188906646784744
 21
18908.0192305276286788
 31
0.0
  0
LINE
  5
3E555
  8
0
 10
22798.3239714215706044
 20
18908.0192305276286788
 30
0.0
 11
22798.3239714215706044
 21
18808.0192305276286788
 31
0.0
  0
TEXT
  5
3E556
  8
SCALE
 10
22760.8239714215706044
 20
19109.2692305276286788
 30
0.0
 40
75.0
  1
790
 50
90.0
  0
LINE
  5
3E557
  8
0
 10
23135.5210418772985577
 20
19788.0192305276286788
 30
0.0
 11
23162.3159611204100656
 21
19688.0192305276286788
 31
0.0
  0
LINE
  5
3E558
  8
0
 10
23135.5210418772985577
 20
19788.0192305276286788
 30
0.0
 11
23108.7261226341906877
 21
19688.0192305276286788
 31
0.0
  0
LINE
  5
3E559
  8
0
 10
23135.5210418772985577
 20
19688.0192305276286788
 30
0.0
 11
23135.5210418772985577
 21
19788.0192305276286788
 31
0.0
  0
LINE
  5
3E55A
  8
0
 10
23135.5210418772985577
 20
19408.0192305276286788
 30
0.0
 11
23108.7261226341906877
 21
19508.0192305276395928
 31
0.0
  0
LINE
  5
3E55B
  8
0
 10
23135.5210418772985577
 20
19408.0192305276286788
 30
0.0
 11
23162.3159611204100656
 21
19508.0192305276395928
 31
0.0
  0
LINE
  5
3E55C
  8
0
 10
23135.5210418772985577
 20
19508.0192305276395928
 30
0.0
 11
23135.5210418772985577
 21
19408.0192305276286788
 31
0.0
  0
TEXT
  5
3E55D
  8
SCALE
 10
23098.0210418772985577
 20
19504.2692305276286788
 30
0.0
 40
75.0
  1
380
 50
90.0
  0
LINE
  5
3E55E
  8
0
 10
37722.5
 20
21383.3929109456912556
 30
0.0
 11
37622.5
 21
21356.5979917025797477
 31
0.0
  0
LINE
  5
3E55F
  8
0
 10
37722.5
 20
21383.3929109456912556
 30
0.0
 11
37622.5
 21
21410.1878301888100395
 31
0.0
  0
LINE
  5
3E560
  8
0
 10
37622.5
 20
21383.3929109456912556
 30
0.0
 11
37722.5
 21
21383.3929109456912556
 31
0.0
  0
LINE
  5
3E561
  8
0
 10
37122.5
 20
21383.3929109456912556
 30
0.0
 11
37222.5
 21
21410.1878301888100395
 31
0.0
  0
LINE
  5
3E562
  8
0
 10
37122.5
 20
21383.3929109456912556
 30
0.0
 11
37222.5
 21
21356.5979917025797477
 31
0.0
  0
LINE
  5
3E563
  8
0
 10
37222.5
 20
21383.3929109456912556
 30
0.0
 11
37122.5
 21
21383.3929109456912556
 31
0.0
  0
TEXT
  5
3E564
  8
SCALE
 10
37335.0
 20
21420.8929109456985316
 30
0.0
 40
75.0
  1
600
  0
LINE
  5
3E565
  8
0
 10
37122.5
 20
21383.3929109456912556
 30
0.0
 11
37022.5
 21
21356.5979917025797477
 31
0.0
  0
LINE
  5
3E566
  8
0
 10
37122.5
 20
21383.3929109456912556
 30
0.0
 11
37022.5
 21
21410.1878301888100395
 31
0.0
  0
LINE
  5
3E567
  8
0
 10
37022.5
 20
21383.3929109456912556
 30
0.0
 11
37122.5
 21
21383.3929109456912556
 31
0.0
  0
LINE
  5
3E568
  8
0
 10
34202.5
 20
21383.3929109456912556
 30
0.0
 11
34302.5
 21
21410.1878301888100395
 31
0.0
  0
LINE
  5
3E569
  8
0
 10
34202.5
 20
21383.3929109456912556
 30
0.0
 11
34302.5
 21
21356.5979917025797477
 31
0.0
  0
LINE
  5
3E56A
  8
0
 10
34302.5
 20
21383.3929109456912556
 30
0.0
 11
34202.5
 21
21383.3929109456912556
 31
0.0
  0
TEXT
  5
3E56B
  8
SCALE
 10
35338.75
 20
21420.8929109456985316
 30
0.0
 40
75.0
  1
取付面間:2920
  0
LINE
  5
3E56C
  8
0
 10
34202.5
 20
21383.3929109456912556
 30
0.0
 11
34102.5
 21
21356.5979917025797477
 31
0.0
  0
LINE
  5
3E56D
  8
0
 10
34202.5
 20
21383.3929109456912556
 30
0.0
 11
34102.5
 21
21410.1878301888100395
 31
0.0
  0
LINE
  5
3E56E
  8
0
 10
34102.5
 20
21383.3929109456912556
 30
0.0
 11
34202.5
 21
21383.3929109456912556
 31
0.0
  0
LINE
  5
3E56F
  8
0
 10
33602.5
 20
21383.3929109456912556
 30
0.0
 11
33702.5
 21
21410.1878301888100395
 31
0.0
  0
LINE
  5
3E570
  8
0
 10
33602.5
 20
21383.3929109456912556
 30
0.0
 11
33702.5
 21
21356.5979917025797477
 31
0.0
  0
LINE
  5
3E571
  8
0
 10
33702.5
 20
21383.3929109456912556
 30
0.0
 11
33602.5
 21
21383.3929109456912556
 31
0.0
  0
TEXT
  5
3E572
  8
SCALE
 10
33815.0
 20
21420.8929109456985316
 30
0.0
 40
75.0
  1
600
  0
LINE
  5
3E573
  8
0
 10
32502.0746556600897748
 20
20463.0192305276395928
 30
0.0
 11
32528.8695749032012827
 21
20363.0192305276286788
 31
0.0
  0
LINE
  5
3E574
  8
0
 10
32502.0746556600897748
 20
20463.0192305276395928
 30
0.0
 11
32475.2797364169782668
 21
20363.0192305276286788
 31
0.0
  0
LINE
  5
3E575
  8
0
 10
32502.0746556600897748
 20
20363.0192305276286788
 30
0.0
 11
32502.0746556600897748
 21
20463.0192305276395928
 31
0.0
  0
LINE
  5
3E576
  8
0
 10
32502.0746556600897748
 20
19598.0192305276286788
 30
0.0
 11
32475.2797364169782668
 21
19698.0192305276286788
 31
0.0
  0
LINE
  5
3E577
  8
0
 10
32502.0746556600897748
 20
19598.0192305276286788
 30
0.0
 11
32528.8695749032012827
 21
19698.0192305276286788
 31
0.0
  0
LINE
  5
3E578
  8
0
 10
32502.0746556600897748
 20
19698.0192305276286788
 30
0.0
 11
32502.0746556600897748
 21
19598.0192305276286788
 31
0.0
  0
TEXT
  5
3E579
  8
SCALE
 10
32464.5746556600897748
 20
19930.5192305276214029
 30
0.0
 40
75.0
  1
865
 50
90.0
  0
LINE
  5
3E57A
  8
0
 10
32502.0746556600897748
 20
19598.0192305276286788
 30
0.0
 11
32528.8695749032012827
 21
19498.0192305276286788
 31
0.0
  0
LINE
  5
3E57B
  8
0
 10
32502.0746556600897748
 20
19598.0192305276286788
 30
0.0
 11
32475.2797364169782668
 21
19498.0192305276286788
 31
0.0
  0
LINE
  5
3E57C
  8
0
 10
32502.0746556600897748
 20
19498.0192305276286788
 30
0.0
 11
32502.0746556600897748
 21
19598.0192305276286788
 31
0.0
  0
LINE
  5
3E57D
  8
0
 10
32502.0746556600897748
 20
18733.0192305276286788
 30
0.0
 11
32475.2797364169782668
 21
18833.0192305276286788
 31
0.0
  0
LINE
  5
3E57E
  8
0
 10
32502.0746556600897748
 20
18733.0192305276286788
 30
0.0
 11
32528.8695749032012827
 21
18833.0192305276286788
 31
0.0
  0
LINE
  5
3E57F
  8
0
 10
32502.0746556600897748
 20
18833.0192305276286788
 30
0.0
 11
32502.0746556600897748
 21
18733.0192305276286788
 31
0.0
  0
TEXT
  5
3E580
  8
SCALE
 10
32464.5746556600897748
 20
19065.5192305276214029
 30
0.0
 40
75.0
  1
865
 50
90.0
  0
LINE
  5
3E581
  8
0
 10
37122.5
 20
20972.0682212532410631
 30
0.0
 11
37022.5
 21
20945.2733020101295551
 31
0.0
  0
LINE
  5
3E582
  8
0
 10
37122.5
 20
20972.0682212532410631
 30
0.0
 11
37022.5
 21
20998.8631404963489331
 31
0.0
  0
LINE
  5
3E583
  8
0
 10
37022.5
 20
20972.0682212532410631
 30
0.0
 11
37122.5
 21
20972.0682212532410631
 31
0.0
  0
LINE
  5
3E584
  8
0
 10
36822.5
 20
20972.0682212532410631
 30
0.0
 11
36922.5
 21
20998.8631404963489331
 31
0.0
  0
LINE
  5
3E585
  8
0
 10
36822.5
 20
20972.0682212532410631
 30
0.0
 11
36922.5
 21
20945.2733020101295551
 31
0.0
  0
LINE
  5
3E586
  8
0
 10
36922.5
 20
20972.0682212532410631
 30
0.0
 11
36822.5
 21
20972.0682212532410631
 31
0.0
  0
TEXT
  5
3E587
  8
SCALE
 10
36885.0
 20
21009.5682212532410631
 30
0.0
 40
75.0
  1
300
  0
LINE
  5
3E588
  8
0
 10
33145.1105566453625215
 20
19813.0192305276395928
 30
0.0
 11
33171.9054758884813054
 21
19713.0192305276286788
 31
0.0
  0
LINE
  5
3E589
  8
0
 10
33145.1105566453625215
 20
19813.0192305276395928
 30
0.0
 11
33118.3156374022510136
 21
19713.0192305276286788
 31
0.0
  0
LINE
  5
3E58A
  8
0
 10
33145.1105566453625215
 20
19713.0192305276286788
 30
0.0
 11
33145.1105566453625215
 21
19813.0192305276395928
 31
0.0
  0
LINE
  5
3E58B
  8
0
 10
33145.1105566453625215
 20
19383.0192305276286788
 30
0.0
 11
33118.3156374022510136
 21
19483.0192305276286788
 31
0.0
  0
LINE
  5
3E58C
  8
0
 10
33145.1105566453625215
 20
19383.0192305276286788
 30
0.0
 11
33171.9054758884813054
 21
19483.0192305276286788
 31
0.0
  0
LINE
  5
3E58D
  8
0
 10
33145.1105566453625215
 20
19483.0192305276286788
 30
0.0
 11
33145.1105566453625215
 21
19383.0192305276286788
 31
0.0
  0
TEXT
  5
3E58E
  8
SCALE
 10
33107.6105566453625215
 20
19504.2692305276214029
 30
0.0
 40
75.0
  1
430
 50
90.0
  0
TEXT
  5
3E591
  8
SCALE
 10
4383.0848754179642128
 20
15613.5410367590993701
 30
0.0
 40
75.0
  1
100
 50
90.0
  0
TEXT
  5
3E594
  8
SCALE
 10
4383.0848754179723983
 20
14828.5410367590993701
 30
0.0
 40
75.0
  1
100
 50
90.0
  0
TEXT
  5
3E595
  8
SCALE
 10
3828.0966931694811137
 20
15239.5410367590902752
 30
0.0
 40
75.0
  1
12
 50
90.0
  0
LINE
  5
3E596
  8
0
 10
3918.09669316947884
 20
15283.5410367590993701
 30
0.0
 11
3944.8916124125898932
 21
15183.5410367590993701
 31
0.0
  0
LINE
  5
3E597
  8
0
 10
3918.09669316947884
 20
15283.5410367590993701
 30
0.0
 11
3891.301773926369151
 21
15183.5410367590993701
 31
0.0
  0
LINE
  5
3E598
  8
0
 10
3918.09669316947884
 20
15183.5410367590993701
 30
0.0
 11
3918.09669316947884
 21
15283.5410367590993701
 31
0.0
  0
LINE
  5
3E599
  8
0
 10
3918.09669316947884
 20
15295.5410367590993701
 30
0.0
 11
3891.301773926369151
 21
15395.5410367590993701
 31
0.0
  0
LINE
  5
3E59A
  8
0
 10
3918.09669316947884
 20
15295.5410367590993701
 30
0.0
 11
3944.8916124125898932
 21
15395.5410367590993701
 31
0.0
  0
LINE
  5
3E59B
  8
0
 10
3918.09669316947884
 20
15395.5410367590993701
 30
0.0
 11
3918.09669316947884
 21
15295.5410367590993701
 31
0.0
  0
TEXT
  5
3E59C
  8
SCALE
 10
13929.7898037645500153
 20
15202.2910367590902752
 30
0.0
 40
75.0
  1
11.5
 50
90.0
  0
LINE
  5
3E59D
  8
0
 10
14019.7898037645500153
 20
15284.0410367590993701
 30
0.0
 11
14046.5847230076597043
 21
15184.0410367590993701
 31
0.0
  0
LINE
  5
3E59E
  8
0
 10
14019.7898037645500153
 20
15284.0410367590993701
 30
0.0
 11
13992.9948845214403264
 21
15184.0410367590993701
 31
0.0
  0
LINE
  5
3E59F
  8
0
 10
14019.7898037645500153
 20
15184.0410367590993701
 30
0.0
 11
14019.7898037645500153
 21
15284.0410367590993701
 31
0.0
  0
LINE
  5
3E5A0
  8
0
 10
14019.7898037645500153
 20
15295.5410367590993701
 30
0.0
 11
13992.9948845214403264
 21
15395.5410367590993701
 31
0.0
  0
LINE
  5
3E5A1
  8
0
 10
14019.7898037645500153
 20
15295.5410367590993701
 30
0.0
 11
14046.5847230076597043
 21
15395.5410367590993701
 31
0.0
  0
LINE
  5
3E5A2
  8
0
 10
14019.7898037645500153
 20
15395.5410367590993701
 30
0.0
 11
14019.7898037645500153
 21
15295.5410367590993701
 31
0.0
  0
TEXT
  5
3E5A3
  8
SCALE
 10
23820.7681206800407381
 20
15221.0410367590902752
 30
0.0
 40
75.0
  1
24
 50
90.0
  0
LINE
  5
3E5A4
  8
0
 10
23910.7681206800407381
 20
15271.5410367590993701
 30
0.0
 11
23937.5630399231486081
 21
15171.5410367590993701
 31
0.0
  0
LINE
  5
3E5A5
  8
0
 10
23910.7681206800407381
 20
15271.5410367590993701
 30
0.0
 11
23883.9732014369292301
 21
15171.5410367590993701
 31
0.0
  0
LINE
  5
3E5A6
  8
0
 10
23910.7681206800407381
 20
15171.5410367590993701
 30
0.0
 11
23910.7681206800407381
 21
15271.5410367590993701
 31
0.0
  0
LINE
  5
3E5A7
  8
0
 10
23910.7681206800407381
 20
15295.5410367590993701
 30
0.0
 11
23883.9732014369292301
 21
15395.5410367590993701
 31
0.0
  0
LINE
  5
3E5A8
  8
0
 10
23910.7681206800407381
 20
15295.5410367590993701
 30
0.0
 11
23937.5630399231486081
 21
15395.5410367590993701
 31
0.0
  0
LINE
  5
3E5A9
  8
0
 10
23910.7681206800407381
 20
15395.5410367590993701
 30
0.0
 11
23910.7681206800407381
 21
15295.5410367590993701
 31
0.0
  0
TEXT
  5
3E5AA
  8
SCALE
 10
33822.5781206800966174
 20
15170.7910367590902752
 30
0.0
 40
75.0
  1
24.5
 50
90.0
  0
LINE
  5
3E5AB
  8
0
 10
33912.5781206801111693
 20
15271.0410367590993701
 30
0.0
 11
33939.3730399232226773
 21
15171.0410367590993701
 31
0.0
  0
LINE
  5
3E5AC
  8
0
 10
33912.5781206801111693
 20
15271.0410367590993701
 30
0.0
 11
33885.7832014369923854
 21
15171.0410367590993701
 31
0.0
  0
LINE
  5
3E5AD
  8
0
 10
33912.5781206801111693
 20
15171.0410367590993701
 30
0.0
 11
33912.5781206801111693
 21
15271.0410367590993701
 31
0.0
  0
LINE
  5
3E5AE
  8
0
 10
33912.5781206801111693
 20
15295.5410367590993701
 30
0.0
 11
33885.7832014369923854
 21
15395.5410367590993701
 31
0.0
  0
LINE
  5
3E5AF
  8
0
 10
33912.5781206801111693
 20
15295.5410367590993701
 30
0.0
 11
33939.3730399232226773
 21
15395.5410367590993701
 31
0.0
  0
LINE
  5
3E5B0
  8
0
 10
33912.5781206801111693
 20
15395.5410367590993701
 30
0.0
 11
33912.5781206801111693
 21
15295.5410367590993701
 31
0.0
  0
TEXT
  5
3E5B3
  8
SCALE
 10
14435.0848754179605749
 20
15634.0410367590993701
 30
0.0
 40
75.0
  1
100
 50
90.0
  0
TEXT
  5
3E5B6
  8
SCALE
 10
24452.0848754179714888
 20
15636.5410367590993701
 30
0.0
 40
75.0
  1
100
 50
90.0
  0
TEXT
  5
3E5B9
  8
SCALE
 10
34442.0848754179605749
 20
15661.0410367590902752
 30
0.0
 40
75.0
  1
100
 50
90.0
  0
TEXT
  5
3E5BC
  8
SCALE
 10
34442.0848754179605749
 20
14731.0410367590793612
 30
0.0
 40
75.0
  1
100
 50
90.0
  0
TEXT
  5
3E5BF
  8
SCALE
 10
24452.0848754179714888
 20
14756.5410367590902752
 30
0.0
 40
75.0
  1
100
 50
90.0
  0
TEXT
  5
3E5C2
  8
SCALE
 10
14435.0848754179605749
 20
14784.0410367590902752
 30
0.0
 40
75.0
  1
100
 50
90.0
  0
ARC
  5
3E5C3
  8
0
  6
BYBLOCK
 62
     0
 10
4420.5848754179605749
 20
15388.5410367590993701
 30
0.0
 40
6.25
 50
90.0
 51
270.0
  0
ARC
  5
3E5C4
  8
0
  6
BYBLOCK
 62
     0
 10
4420.5848754179605749
 20
15388.5410367590993701
 30
0.0
 40
6.25
 50
270.0
 51
90.0
  0
ARC
  5
3E5C5
  8
0
  6
BYBLOCK
 62
     0
 10
4420.5848754179605749
 20
15488.5410367590993701
 30
0.0
 40
6.25
 50
270.0
 51
90.0
  0
ARC
  5
3E5C6
  8
0
  6
BYBLOCK
 62
     0
 10
4420.5848754179605749
 20
15488.5410367590993701
 30
0.0
 40
6.25
 50
90.0
 51
270.0
  0
ARC
  5
3E5C7
  8
0
  6
BYBLOCK
 62
     0
 10
4420.5848754179678508
 20
15178.5410367590993701
 30
0.0
 40
6.25
 50
270.0
 51
90.0
  0
ARC
  5
3E5C8
  8
0
  6
BYBLOCK
 62
     0
 10
4420.5848754179678508
 20
15178.5410367590993701
 30
0.0
 40
6.25
 50
90.0
 51
270.0
  0
ARC
  5
3E5C9
  8
0
  6
BYBLOCK
 62
     0
 10
4420.5848754179678508
 20
15078.5410367590993701
 30
0.0
 40
6.25
 50
90.0
 51
270.0
  0
ARC
  5
3E5CA
  8
0
  6
BYBLOCK
 62
     0
 10
4420.5848754179678508
 20
15078.5410367590993701
 30
0.0
 40
6.25
 50
270.0
 51
90.0
  0
ARC
  5
3E5CB
  8
0
  6
BYBLOCK
 62
     0
 10
14472.5848754179605749
 20
15409.0410367590993701
 30
0.0
 40
6.25
 50
90.0
 51
270.0
  0
ARC
  5
3E5CC
  8
0
  6
BYBLOCK
 62
     0
 10
14472.5848754179605749
 20
15409.0410367590993701
 30
0.0
 40
6.25
 50
270.0
 51
90.0
  0
ARC
  5
3E5CD
  8
0
  6
BYBLOCK
 62
     0
 10
14472.5848754179605749
 20
15509.0410367590993701
 30
0.0
 40
6.25
 50
270.0
 51
90.0
  0
ARC
  5
3E5CE
  8
0
  6
BYBLOCK
 62
     0
 10
14472.5848754179605749
 20
15509.0410367590993701
 30
0.0
 40
6.25
 50
90.0
 51
270.0
  0
ARC
  5
3E5CF
  8
0
  6
BYBLOCK
 62
     0
 10
24489.5848754179605749
 20
15411.5410367590993701
 30
0.0
 40
6.25
 50
90.0
 51
270.0
  0
ARC
  5
3E5D0
  8
0
  6
BYBLOCK
 62
     0
 10
24489.5848754179605749
 20
15411.5410367590993701
 30
0.0
 40
6.25
 50
270.0
 51
90.0
  0
ARC
  5
3E5D1
  8
0
  6
BYBLOCK
 62
     0
 10
24489.5848754179605749
 20
15511.5410367590993701
 30
0.0
 40
6.25
 50
270.0
 51
90.0
  0
ARC
  5
3E5D2
  8
0
  6
BYBLOCK
 62
     0
 10
24489.5848754179605749
 20
15511.5410367590993701
 30
0.0
 40
6.25
 50
90.0
 51
270.0
  0
ARC
  5
3E5D3
  8
0
  6
BYBLOCK
 62
     0
 10
34479.5848754179678508
 20
15436.0410367590993701
 30
0.0
 40
6.25
 50
90.0
 51
270.0
  0
ARC
  5
3E5D4
  8
0
  6
BYBLOCK
 62
     0
 10
34479.5848754179678508
 20
15436.0410367590993701
 30
0.0
 40
6.25
 50
270.0
 51
90.0
  0
ARC
  5
3E5D5
  8
0
  6
BYBLOCK
 62
     0
 10
34479.5848754179678508
 20
15536.0410367590993701
 30
0.0
 40
6.25
 50
270.0
 51
90.0
  0
ARC
  5
3E5D6
  8
0
  6
BYBLOCK
 62
     0
 10
34479.5848754179678508
 20
15536.0410367590993701
 30
0.0
 40
6.25
 50
90.0
 51
270.0
  0
ARC
  5
3E5D7
  8
0
  6
BYBLOCK
 62
     0
 10
34479.5848754179678508
 20
15106.0410367590993701
 30
0.0
 40
6.25
 50
270.0
 51
90.0
  0
ARC
  5
3E5D8
  8
0
  6
BYBLOCK
 62
     0
 10
34479.5848754179678508
 20
15106.0410367590993701
 30
0.0
 40
6.25
 50
90.0
 51
270.0
  0
ARC
  5
3E5D9
  8
0
  6
BYBLOCK
 62
     0
 10
34479.5848754179678508
 20
15006.0410367590993701
 30
0.0
 40
6.25
 50
90.0
 51
270.0
  0
ARC
  5
3E5DA
  8
0
  6
BYBLOCK
 62
     0
 10
34479.5848754179678508
 20
15006.0410367590993701
 30
0.0
 40
6.25
 50
270.0
 51
90.0
  0
ARC
  5
3E5DB
  8
0
  6
BYBLOCK
 62
     0
 10
24489.5848754179605749
 20
15131.5410367590993701
 30
0.0
 40
6.25
 50
270.0
 51
90.0
  0
ARC
  5
3E5DC
  8
0
  6
BYBLOCK
 62
     0
 10
24489.5848754179605749
 20
15131.5410367590993701
 30
0.0
 40
6.25
 50
90.0
 51
270.0
  0
ARC
  5
3E5DD
  8
0
  6
BYBLOCK
 62
     0
 10
24489.5848754179605749
 20
15031.5410367590993701
 30
0.0
 40
6.25
 50
90.0
 51
270.0
  0
ARC
  5
3E5DE
  8
0
  6
BYBLOCK
 62
     0
 10
24489.5848754179605749
 20
15031.5410367590993701
 30
0.0
 40
6.25
 50
270.0
 51
90.0
  0
ARC
  5
3E5DF
  8
0
  6
BYBLOCK
 62
     0
 10
14472.5848754179605749
 20
15159.0410367590993701
 30
0.0
 40
6.25
 50
270.0
 51
90.0
  0
ARC
  5
3E5E0
  8
0
  6
BYBLOCK
 62
     0
 10
14472.5848754179605749
 20
15159.0410367590993701
 30
0.0
 40
6.25
 50
90.0
 51
270.0
  0
ARC
  5
3E5E1
  8
0
  6
BYBLOCK
 62
     0
 10
14472.5848754179605749
 20
15059.0410367590993701
 30
0.0
 40
6.25
 50
90.0
 51
270.0
  0
ARC
  5
3E5E2
  8
0
  6
BYBLOCK
 62
     0
 10
14472.5848754179605749
 20
15059.0410367590993701
 30
0.0
 40
6.25
 50
270.0
 51
90.0
  0
ENDSEC
  0
EOF
