  0
SECTION
  2
HEADER
  9
$ACADVER
  1
AC1015
  9
$ACADMAINTVER
 70
    20
  9
$DWGCODEPAGE
  3
ANSI_932
  9
$INSBASE
 10
0.0
 20
0.0
 30
0.0
  9
$EXTMIN
 10
40.0
 20
-0.0000000000002265
 30
0.0
  9
$EXTMAX
 10
940.0000000000003
 20
1404.0
 30
0.0
  9
$LIMMIN
 10
0.0
 20
0.0
  9
$LIMMAX
 10
1050.0
 20
1485.0
  9
$ORTHOMODE
 70
     1
  9
$REGENMODE
 70
     1
  9
$FILLMODE
 70
     1
  9
$QTEXTMODE
 70
     0
  9
$MIRRTEXT
 70
     0
  9
$LTSCALE
 40
40.0
  9
$ATTMODE
 70
     1
  9
$TEXTSIZE
 40
15.0
  9
$TRACEWID
 40
0.05
  9
$TEXTSTYLE
  7
STANDARD
  9
$CLAYER
  8
0
  9
$CELTYPE
  6
BYLAYER
  9
$CECOLOR
 62
   256
  9
$CELTSCALE
 40
1.0
  9
$DISPSILH
 70
     0
  9
$DIMSCALE
 40
5.0
  9
$DIMASZ
 40
2.0
  9
$DIMEXO
 40
0.1
  9
$DIMDLI
 40
7.0
  9
$DIMRND
 40
0.0
  9
$DIMDLE
 40
0.0
  9
$DIMEXE
 40
1.8
  9
$DIMTP
 40
0.0
  9
$DIMTM
 40
0.0
  9
$DIMTXT
 40
2.5
  9
$DIMCEN
 40
0.1
  9
$DIMTSZ
 40
0.0
  9
$DIMTOL
 70
     0
  9
$DIMLIM
 70
     0
  9
$DIMTIH
 70
     0
  9
$DIMTOH
 70
     0
  9
$DIMSE1
 70
     0
  9
$DIMSE2
 70
     0
  9
$DIMTAD
 70
     0
  9
$DIMZIN
 70
     9
  9
$DIMBLK
  1

  9
$DIMASO
 70
     1
  9
$DIMSHO
 70
     1
  9
$DIMPOST
  1

  9
$DIMAPOST
  1

  9
$DIMALT
 70
     0
  9
$DIMALTD
 70
     2
  9
$DIMALTF
 40
25.4
  9
$DIMLFAC
 40
1.0
  9
$DIMTOFL
 70
     1
  9
$DIMTVP
 40
1.0
  9
$DIMTIX
 70
     0
  9
$DIMSOXD
 70
     0
  9
$DIMSAH
 70
     1
  9
$DIMBLK1
  1
YAZ1
  9
$DIMBLK2
  1
YAZ1
  9
$DIMSTYLE
  2
YAZ1
  9
$DIMCLRD
 70
   256
  9
$DIMCLRE
 70
   256
  9
$DIMCLRT
 70
   256
  9
$DIMTFAC
 40
1.0
  9
$DIMGAP
 40
0.0
  9
$DIMJUST
 70
     0
  9
$DIMSD1
 70
     0
  9
$DIMSD2
 70
     0
  9
$DIMTOLJ
 70
     1
  9
$DIMTZIN
 70
     9
  9
$DIMALTZ
 70
     9
  9
$DIMALTTZ
 70
     9
  9
$DIMUPT
 70
     0
  9
$DIMDEC
 70
     3
  9
$DIMTDEC
 70
     3
  9
$DIMALTU
 70
     2
  9
$DIMALTTD
 70
     2
  9
$DIMTXSTY
  7
STANDARD
  9
$DIMAUNIT
 70
     0
  9
$DIMADEC
 70
     0
  9
$DIMALTRND
 40
0.0
  9
$DIMAZIN
 70
     0
  9
$DIMDSEP
 70
    46
  9
$DIMATFIT
 70
     3
  9
$DIMFRAC
 70
     0
  9
$DIMLDRBLK
  1
YAZ1
  9
$DIMLUNIT
 70
     2
  9
$DIMLWD
 70
    -2
  9
$DIMLWE
 70
    -2
  9
$DIMTMOVE
 70
     0
  9
$LUNITS
 70
     2
  9
$LUPREC
 70
     3
  9
$SKETCHINC
 40
0.1
  9
$FILLETRAD
 40
0.0
  9
$AUNITS
 70
     0
  9
$AUPREC
 70
     2
  9
$MENU
  1
amecex
  9
$ELEVATION
 40
0.0
  9
$PELEVATION
 40
0.0
  9
$THICKNESS
 40
0.0
  9
$LIMCHECK
 70
     0
  9
$CHAMFERA
 40
0.0
  9
$CHAMFERB
 40
0.0
  9
$CHAMFERC
 40
0.0
  9
$CHAMFERD
 40
0.0
  9
$SKPOLY
 70
     0
  9
$TDCREATE
 40
2452597.791331018
  9
$TDUCREATE
 40
2452597.416331018
  9
$TDUPDATE
 40
2460118.473252315
  9
$TDUUPDATE
 40
2460118.098252315
  9
$TDINDWG
 40
0.1644726389
  9
$TDUSRTIMER
 40
0.1644726389
  9
$USRTIMER
 70
     1
  9
$ANGBASE
 50
0.0
  9
$ANGDIR
 70
     0
  9
$PDMODE
 70
     0
  9
$PDSIZE
 40
0.0
  9
$PLINEWID
 40
0.0
  9
$SPLFRAME
 70
     0
  9
$SPLINETYPE
 70
     6
  9
$SPLINESEGS
 70
     8
  9
$HANDSEED
  5
2501
  9
$SURFTAB1
 70
     6
  9
$SURFTAB2
 70
     6
  9
$SURFTYPE
 70
     6
  9
$SURFU
 70
     6
  9
$SURFV
 70
     6
  9
$UCSBASE
  2

  9
$UCSNAME
  2

  9
$UCSORG
 10
0.0
 20
0.0
 30
0.0
  9
$UCSXDIR
 10
1.0
 20
0.0
 30
0.0
  9
$UCSYDIR
 10
0.0
 20
1.0
 30
0.0
  9
$UCSORTHOREF
  2

  9
$UCSORTHOVIEW
 70
     0
  9
$UCSORGTOP
 10
0.0
 20
0.0
 30
0.0
  9
$UCSORGBOTTOM
 10
0.0
 20
0.0
 30
0.0
  9
$UCSORGLEFT
 10
0.0
 20
0.0
 30
0.0
  9
$UCSORGRIGHT
 10
0.0
 20
0.0
 30
0.0
  9
$UCSORGFRONT
 10
0.0
 20
0.0
 30
0.0
  9
$UCSORGBACK
 10
0.0
 20
0.0
 30
0.0
  9
$PUCSBASE
  2

  9
$PUCSNAME
  2

  9
$PUCSORG
 10
0.0
 20
0.0
 30
0.0
  9
$PUCSXDIR
 10
1.0
 20
0.0
 30
0.0
  9
$PUCSYDIR
 10
0.0
 20
1.0
 30
0.0
  9
$PUCSORTHOREF
  2

  9
$PUCSORTHOVIEW
 70
     0
  9
$PUCSORGTOP
 10
0.0
 20
0.0
 30
0.0
  9
$PUCSORGBOTTOM
 10
0.0
 20
0.0
 30
0.0
  9
$PUCSORGLEFT
 10
0.0
 20
0.0
 30
0.0
  9
$PUCSORGRIGHT
 10
0.0
 20
0.0
 30
0.0
  9
$PUCSORGFRONT
 10
0.0
 20
0.0
 30
0.0
  9
$PUCSORGBACK
 10
0.0
 20
0.0
 30
0.0
  9
$USERI1
 70
     0
  9
$USERI2
 70
     0
  9
$USERI3
 70
     0
  9
$USERI4
 70
     0
  9
$USERI5
 70
     0
  9
$USERR1
 40
30.0
  9
$USERR2
 40
0.0
  9
$USERR3
 40
0.0
  9
$USERR4
 40
0.0
  9
$USERR5
 40
0.0
  9
$WORLDVIEW
 70
     1
  9
$SHADEDGE
 70
     3
  9
$SHADEDIF
 70
    70
  9
$TILEMODE
 70
     1
  9
$MAXACTVP
 70
    16
  9
$PINSBASE
 10
0.0
 20
0.0
 30
0.0
  9
$PLIMCHECK
 70
     0
  9
$PEXTMIN
 10
1.000000000000000E+20
 20
1.000000000000000E+20
 30
1.000000000000000E+20
  9
$PEXTMAX
 10
-1.000000000000000E+20
 20
-1.000000000000000E+20
 30
-1.000000000000000E+20
  9
$PLIMMIN
 10
0.0
 20
0.0
  9
$PLIMMAX
 10
12.0
 20
9.0
  9
$UNITMODE
 70
     0
  9
$VISRETAIN
 70
     0
  9
$PLINEGEN
 70
     0
  9
$PSLTSCALE
 70
     0
  9
$TREEDEPTH
 70
  3020
  9
$CMLSTYLE
  2
STANDARD
  9
$CMLJUST
 70
     0
  9
$CMLSCALE
 40
1.0
  9
$PROXYGRAPHICS
 70
     1
  9
$MEASUREMENT
 70
     0
  9
$CELWEIGHT
370
    -1
  9
$ENDCAPS
280
     0
  9
$JOINSTYLE
280
     0
  9
$LWDISPLAY
290
     0
  9
$INSUNITS
 70
     0
  9
$HYPERLINKBASE
  1

  9
$STYLESHEET
  1

  9
$XEDIT
290
     1
  9
$CEPSNTYPE
380
     0
  9
$PSTYLEMODE
290
     1
  9
$FINGERPRINTGUID
  2
{D7E786F4-9E21-064C-9C57-75688BC59632}
  9
$VERSIONGUID
  2
{94F9D292-4911-CC49-8FEF-5CA88C4E5C2B}
  9
$EXTNAMES
290
     1
  9
$PSVPSCALE
 40
0.0
  9
$OLESTARTUP
290
     0
  0
ENDSEC
  0
SECTION
  2
CLASSES
  0
CLASS
  1
ACDBDICTIONARYWDFLT
  2
AcDbDictionaryWithDefault
  3
ObjectDBX Classes
 90
        0
280
     0
281
     0
  0
CLASS
  1
MATERIAL
  2
AcDbMaterial
  3
ObjectDBX Classes
 90
     1153
280
     0
281
     0
  0
CLASS
  1
VISUALSTYLE
  2
AcDbVisualStyle
  3
ObjectDBX Classes
 90
     4095
280
     0
281
     0
  0
CLASS
  1
TABLESTYLE
  2
AcDbTableStyle
  3
ObjectDBX Classes
 90
     4095
280
     0
281
     0
  0
CLASS
  1
SCALE
  2
AcDbScale
  3
ObjectDBX Classes
 90
     1153
280
     0
281
     0
  0
CLASS
  1
MLEADERSTYLE
  2
AcDbMLeaderStyle
  3
ACDB_MLEADERSTYLE_CLASS
 90
     4095
280
     0
281
     0
  0
CLASS
  1
ACDBSECTIONVIEWSTYLE
  2
AcDbSectionViewStyle
  3
ObjectDBX Classes
 90
     1025
280
     0
281
     0
  0
CLASS
  1
ACDBDETAILVIEWSTYLE
  2
AcDbDetailViewStyle
  3
ObjectDBX Classes
 90
     1025
280
     0
281
     0
  0
CLASS
  1
AMGSETTINGSOBJ
  2
AmgSettingsObj
  3
"AcadM|Product Description: AutoCAD Mechanical|Company: Autodesk, Inc."
 90
     1024
280
     0
281
     0
  0
CLASS
  1
ACME_DOCUMENT
  2
AcMeDbDoc
  3
AcMeServices
 90
     1024
280
     0
281
     0
  0
CLASS
  1
ACMESCOPE
  2
AcMeScope
  3
AcMeServices
 90
     1024
280
     0
281
     0
  0
CLASS
  1
ACMECOMMANDHISTORY
  2
AcMeCommandHistory
  3
AcMeServices
 90
     1024
280
     0
281
     0
  0
CLASS
  1
ACIMSYSVARMAN
  2
AcImSysVarManager
  3
AcMeServices
 90
     1024
280
     0
281
     0
  0
CLASS
  1
ACIMINTSYSVAR
  2
AcImIntSysVar
  3
AcMeServices
 90
     1024
280
     0
281
     0
  0
CLASS
  1
ACMESTATEMGR
  2
AcMeStateMgr
  3
AcMeServices
 90
     1024
280
     0
281
     0
  0
CLASS
  1
ACDBENTITYCACHE
  2
AcMeEntityCache
  3
AcMeServices
 90
     1024
280
     0
281
     0
  0
CLASS
  1
ACGREFMASTER
  2
AcGrefMaster
  3
AcAttribServices
 90
     1024
280
     0
281
     0
  0
CLASS
  1
ACME_DATABASE
  2
AcMeDbDatabase
  3
AcMeServices
 90
     1024
280
     0
281
     0
  0
CLASS
  1
ACRFINSADJUSTERMGR
  2
AcRfInsAdjusterMgr
  3
AcMeServices
 90
     1024
280
     0
281
     0
  0
CLASS
  1
ACGREFACADMASTER
  2
AcGrefacadMaster
  3
AcGrefServices
 90
     1024
280
     0
281
     0
  0
CLASS
  1
AMIMASTER
  2
AmiMaster
  3
AmiServices
 90
     1024
280
     0
281
     0
  0
CLASS
  1
AMDTMENUSTATEMGR
  2
AmdtMenuStateMgr
  3
McadcomServices
 90
     1024
280
     0
281
     0
  0
CLASS
  1
AMDTMCOMMENUSTATE
  2
AmdtMcomMenuState
  3
McadcomServices
 90
     1024
280
     0
281
     0
  0
CLASS
  1
MAPIAMMOUDLE
  2
MApiAmModule
  3
MApiAmServices
 90
     1024
280
     0
281
     0
  0
CLASS
  1
ACIMSTRSYSVAR
  2
AcImStrSysVar
  3
AcMeServices
 90
     1024
280
     0
281
     0
  0
CLASS
  1
AMDTAMMENUSTATE
  2
AmdtAmMenuState
  3
DesignerAssemblies_arx
 90
     1024
280
     0
281
     0
  0
CLASS
  1
ACAMPROJECT
  2
AcAmProject
  3
DesignerAssemblies
 90
     1024
280
     0
281
     0
  0
CLASS
  1
ACAMGRCOMPDEF
  2
AcAmGrCompDef
  3
DesignerAssemblies
 90
     1024
280
     0
281
     0
  0
CLASS
  1
ACAMCOMPDEF
  2
AcAmCompDef
  3
DesignerAssemblies
 90
     1024
280
     0
281
     0
  0
CLASS
  1
ACAMCOMPDEFMGR
  2
AcAmCompDefMgr
  3
DesignerAssemblies
 90
     1024
280
     0
281
     0
  0
CLASS
  1
AMCONTEXTMGR
  2
AcAmContextMgr
  3
DesignerAssemblies
 90
     1024
280
     0
281
     0
  0
CLASS
  1
ACAMCONTEXTMODELER
  2
AcAmContextModeler
  3
DesignerAssemblies
 90
     1024
280
     0
281
     0
  0
CLASS
  1
ACMDATADICTIONARY
  2
AcmDataDictionary
  3
"AcmSymBB|Product Description: AutoCAD Mechanical|Company: Autodesk, Inc."
 90
     1024
280
     0
281
     0
  0
CLASS
  1
ACAMGRCOMPDEFSET
  2
AcAmGrCompDefSet
  3
DesignerAssemblies
 90
     1024
280
     0
281
     0
  0
CLASS
  1
AMDTBROWSERDBTAB
  2
AmdtBrowserDbTab
  3
McadcomServices
 90
     1024
280
     0
281
     0
  0
CLASS
  1
CBROWSERAPPOBJECT
  2
CBrowserAppObject
  3
McadcomServices
 90
     1024
280
     0
281
     0
  0
CLASS
  1
DM_PLACEHOLDER
  2
AcDmSelsetPlaceholder
  3
McadcomServices
 90
     1024
280
     0
281
     0
  0
CLASS
  1
ACMSTANDARDANSI
  2
AcmStandardANSI
  3
"Amdt_StdImp|Product Description: AutoCAD Mechanical|Company: Autodesk, Inc."
 90
     1024
280
     0
281
     0
  0
CLASS
  1
ACMSURFSTANDARDANSI
  2
AcmSurfTextStdANSI
  3
"Amdt_StdImp|Product Description: AutoCAD Mechanical|Company: Autodesk, Inc."
 90
     1024
280
     0
281
     0
  0
CLASS
  1
ACMFCFSTANDARDANSI
  2
AcmFCFStdANSI
  3
"Amdt_StdImp|Product Description: AutoCAD Mechanical|Company: Autodesk, Inc."
 90
     1024
280
     0
281
     0
  0
CLASS
  1
ACMWELDSTANDARDANSI
  2
AcmWeldingStdANSI
  3
"Amdt_StdImp|Product Description: AutoCAD Mechanical|Company: Autodesk, Inc."
 90
     1024
280
     0
281
     0
  0
CLASS
  1
ACMIDSTANDARDANSI
  2
AcmIdStdANSI
  3
"Amdt_StdImp|Product Description: AutoCAD Mechanical|Company: Autodesk, Inc."
 90
     1024
280
     0
281
     0
  0
CLASS
  1
ACMDATUMSTANDARDANSI
  2
AcmDatumStdANSI
  3
"Amdt_StdImp|Product Description: AutoCAD Mechanical|Company: Autodesk, Inc."
 90
     1024
280
     0
281
     0
  0
CLASS
  1
ACMBOMSTANDARDANSI
  2
AcmBOMStdANSI
  3
"Amdt_StdImp|Product Description: AutoCAD Mechanical|Company: Autodesk, Inc."
 90
     1024
280
     0
281
     0
  0
CLASS
  1
ACMDETAILSTANDARDANSI
  2
AmdtDetailSymStdANSI
  3
"Amdt_StdImp|Product Description: AutoCAD Mechanical|Company: Autodesk, Inc."
 90
     1024
280
     0
281
     0
  0
CLASS
  1
ACMSECTIONSTANDARDANSI
  2
AmdtSectionSymStdANSI
  3
"Amdt_StdImp|Product Description: AutoCAD Mechanical|Company: Autodesk, Inc."
 90
     1024
280
     0
281
     0
  0
CLASS
  1
ACMCENTERLINESTANDARDANSI
  2
AmdtCenterLineStdANSI
  3
"Amdt_StdImp|Product Description: AutoCAD Mechanical|Company: Autodesk, Inc."
 90
     1024
280
     0
281
     0
  0
CLASS
  1
ACMTHREADLINESTANDARDANSI
  2
AmdtThreadLineStdANSI
  3
"Amdt_StdImp|Product Description: AutoCAD Mechanical|Company: Autodesk, Inc."
 90
     1024
280
     0
281
     0
  0
CLASS
  1
ACMNOTESTANDARDANSI
  2
AmdtNoteStdANSI
  3
"Amdt_StdImp|Product Description: AutoCAD Mechanical|Company: Autodesk, Inc."
 90
     1024
280
     0
281
     0
  0
CLASS
  1
ACMTAPERSTANDARDANSI
  2
AcmTaperStdANSI
  3
"Amdt_StdImp|Product Description: AutoCAD Mechanical|Company: Autodesk, Inc."
 90
     1024
280
     0
281
     0
  0
CLASS
  1
ACMANOOTATIONVIEWSTANDARDANSI
  2
AmdtAnViewStdANSI
  3
"Amdt_StdImp|Product Description: AutoCAD Mechanical|Company: Autodesk, Inc."
 90
     1024
280
     0
281
     0
  0
CLASS
  1
ACAMGLAYSTD
  2
AcAmgLayStd
  3
"AmgLay|Product Description: AutoCAD Mechanical|Company: Autodesk, Inc."
 90
     1024
280
     0
281
     0
  0
CLASS
  1
ACAMGTITLESTD
  2
AcAmgTitleStd
  3
"AmgTitle|Product Description: AutoCAD Mechanical|Company: Autodesk, Inc."
 90
     1024
280
     0
281
     0
  0
CLASS
  1
ACAMGDIMSTD
  2
AcAmgDimStd
  3
"AmgDim|Product Description: AutoCAD Mechanical|Company: Autodesk, Inc."
 90
     1024
280
     0
281
     0
  0
CLASS
  1
AMGOBJPROPCFG
  2
AmgObjPropCfg
  3
"AmgLay|Product Description: AutoCAD Mechanical|Company: Autodesk, Inc."
 90
     1024
280
     0
281
     0
  0
CLASS
  1
ACAMGHOLECHARTSTDANSI
  2
AcAmgHoleChartStdANSI
  3
"AmgDim" "Product Description: AutoCAD Mechanical|Company: Autodesk, Inc."
 90
     1024
280
     0
281
     0
  0
CLASS
  1
ACMSECTIONSTANDARDCUSTOM
  2
AmdtSectionSymStdCustom
  3
"Amdt_StdImp|Product Description: AutoCAD Mechanical|Company: Autodesk, Inc."
 90
     1024
280
     0
281
     0
  0
CLASS
  1
ACMDETAILTANDARDCUSTOM
  2
AmdtDetailSymStdCustom
  3
"Amdt_StdImp|Product Description: AutoCAD Mechanical|Company: Autodesk, Inc."
 90
     1024
280
     0
281
     0
  0
CLASS
  1
FIELD
  2
AcDbField
  3
ObjectDBX Classes
 90
     1152
280
     0
281
     0
  0
CLASS
  1
FIELDLIST
  2
AcDbFieldList
  3
ObjectDBX Classes
 90
     1152
280
     0
281
     0
  0
CLASS
  1
AMDTNOTETEMPLATEDB
  2
AmdtNoteTemplateDB
  3
"AcmSymBB" "Product Description: AutoCAD Mechanical|Company: Autodesk, Inc."
 90
     1024
280
     0
281
     0
  0
CLASS
  1
ACAMGFILTERDAT
  2
AcAmgFilterDat
  3
"AcadM|Product Description: AutoCAD Mechanical|Company: Autodesk, Inc."
 90
    33792
280
     0
281
     0
  0
CLASS
  1
CAMSSTRUCTBTNSTATE
  2
StructBtnState
  3
DesignerAssemblies_arx
 90
    33792
280
     0
281
     0
  0
CLASS
  1
DICTIONARYVAR
  2
AcDbDictionaryVar
  3
ObjectDBX Classes
 90
        0
280
     0
281
     0
  0
CLASS
  1
CELLSTYLEMAP
  2
AcDbCellStyleMap
  3
ObjectDBX Classes
 90
     1152
280
     0
281
     0
  0
CLASS
  1
ACDBPLACEHOLDER
  2
AcDbPlaceHolder
  3
ObjectDBX Classes
 90
        0
280
     0
281
     0
  0
CLASS
  1
LAYOUT
  2
AcDbLayout
  3
ObjectDBX Classes
 90
        0
280
     0
281
     0
  0
ENDSEC
  0
SECTION
  2
TABLES
  0
TABLE
  2
VPORT
  5
1C9
330
0
100
AcDbSymbolTable
 70
     1
  0
VPORT
  5
2249
330
1C9
100
AcDbSymbolTableRecord
100
AcDbViewportTableRecord
  2
*ACTIVE
 70
     0
 10
0.0
 20
0.0
 11
1.0
 21
1.0
 12
341.5980460998168
 22
830.8047462238185
 13
0.0
 23
0.0
 14
1.0
 24
1.0
 15
0.0
 25
0.0
 16
0.0
 26
0.0
 36
1.0
 17
0.0
 27
0.0
 37
0.0
 40
351.0972270937459
 41
2.265658747300216
 42
50.0
 43
0.0
 44
0.0
 50
0.0
 51
0.0
 71
     0
 72
   100
 73
     1
 74
     1
 75
     0
 76
     0
 77
     0
 78
     0
281
     0
 65
     0
110
0.0
120
0.0
130
0.0
111
1.0
121
0.0
131
0.0
112
0.0
122
1.0
132
0.0
 79
     0
146
0.0
1001
ACAD_NAV_VCDISPLAY
1070
     3
  0
ENDTAB
  0
TABLE
  2
LTYPE
  5
1C6
330
0
100
AcDbSymbolTable
 70
    17
  0
LTYPE
  5
1D3
330
1C6
100
AcDbSymbolTableRecord
100
AcDbLinetypeTableRecord
  2
BYBLOCK
 70
     0
  3

 72
    65
 73
     0
 40
0.0
  0
LTYPE
  5
1D4
330
1C6
100
AcDbSymbolTableRecord
100
AcDbLinetypeTableRecord
  2
BYLAYER
 70
     0
  3

 72
    65
 73
     0
 40
0.0
  0
LTYPE
  5
1D5
330
1C6
100
AcDbSymbolTableRecord
100
AcDbLinetypeTableRecord
  2
CONTINUOUS
 70
     0
  3
実線
 72
    65
 73
     0
 40
0.0
  0
LTYPE
  5
22E4
330
1C6
100
AcDbSymbolTableRecord
100
AcDbLinetypeTableRecord
  2
HIDDEN
 70
     0
  3
Hidden __ __ __ __ __ __ __ __ __ __ __ __ __ _
 72
    65
 73
     2
 40
0.375
 49
0.25
 74
     0
 49
-0.125
 74
     0
  0
LTYPE
  5
22E5
330
1C6
100
AcDbSymbolTableRecord
100
AcDbLinetypeTableRecord
  2
PHANTOM2
 70
     0
  3
Phantom (.5x) ___ _ _ ___ _ _ ___ _ _ ___ _ _
 72
    65
 73
     6
 40
1.25
 49
0.625
 74
     0
 49
-0.125
 74
     0
 49
0.125
 74
     0
 49
-0.125
 74
     0
 49
0.125
 74
     0
 49
-0.125
 74
     0
  0
LTYPE
  5
22E6
330
1C6
100
AcDbSymbolTableRecord
100
AcDbLinetypeTableRecord
  2
CENTER
 70
     0
  3
Center ____ _ ____ _ ____ _ ____ _ ____ _ ____
 72
    65
 73
     4
 40
2.0
 49
1.25
 74
     0
 49
-0.25
 74
     0
 49
0.25
 74
     0
 49
-0.25
 74
     0
  0
LTYPE
  5
2324
330
1C6
100
AcDbSymbolTableRecord
100
AcDbLinetypeTableRecord
  2
Amconstr
 70
     0
  3
_______________________
 72
    65
 73
     2
 40
9999.0
 49
9999.0
 74
     0
 49
0.0
 74
     0
  0
LTYPE
  5
232A
330
1C6
100
AcDbSymbolTableRecord
100
AcDbLinetypeTableRecord
  2
CENTER2
 70
     0
  3
Center (.5x) ___ _ ___ _ ___ _ ___ _ ___ _ ___
 72
    65
 73
     4
 40
1.125
 49
0.75
 74
     0
 49
-0.125
 74
     0
 49
0.125
 74
     0
 49
-0.125
 74
     0
  0
LTYPE
  5
232B
330
1C6
100
AcDbSymbolTableRecord
100
AcDbLinetypeTableRecord
  2
HIDDEN2
 70
     0
  3
Hidden (.5x) _ _ _ _ _ _ _ _ _ _ _ _ _ _ _ _ _
 72
    65
 73
     2
 40
0.1875
 49
0.125
 74
     0
 49
-0.0625
 74
     0
  0
LTYPE
  5
232C
330
1C6
100
AcDbSymbolTableRecord
100
AcDbLinetypeTableRecord
  2
Amzigzag2
 70
     0
  3
/\/-/\/-/\/-/\/-/\/-/\/
 72
    65
 73
     2
 40
0.4401
 49
0.0001
 74
     4
 75
   136
340
2328
 46
0.0016
 50
0.0
 44
0.0
 45
0.0
 49
-0.4400000000000003
 74
     0
  0
LTYPE
  5
233B
330
1C6
100
AcDbSymbolTableRecord
100
AcDbLinetypeTableRecord
  2
ACANSTGB
 70
     0
  3
__ . . __ . .
 72
    65
 73
     6
 40
0.35433070866
 49
0.15748031496
 74
     0
 49
-0.03937007874
 74
     0
 49
0.03937007874
 74
     0
 49
-0.03937007874
 74
     0
 49
0.03937007874
 74
     0
 49
-0.03937007874
 74
     0
  0
LTYPE
  5
233C
330
1C6
100
AcDbSymbolTableRecord
100
AcDbLinetypeTableRecord
  2
ACANSTGL
 70
     0
  3
_ _ _ _ _
 72
    65
 73
     2
 40
0.11811023622
 49
0.07874015748
 74
     0
 49
-0.03937007874
 74
     0
  0
LTYPE
  5
249D
330
1C6
100
AcDbSymbolTableRecord
100
AcDbLinetypeTableRecord
  2
AM_ISO02W050
 70
     0
  3
__ __ __ __ __ __ __ __ __ __ __ __ __ __ __
 72
    65
 73
     2
 40
7.5
 49
6.0
 74
     0
 49
-1.5
 74
     0
  0
LTYPE
  5
249E
330
1C6
100
AcDbSymbolTableRecord
100
AcDbLinetypeTableRecord
  2
AM_ISO08W050
 70
     0
  3
____ . ____ . ____ . ____ . ____ . ____ . ____
 72
    65
 73
     4
 40
18.0
 49
12.0
 74
     0
 49
-1.5
 74
     0
 49
3.0
 74
     0
 49
-1.5
 74
     0
  0
LTYPE
  5
249F
330
1C6
100
AcDbSymbolTableRecord
100
AcDbLinetypeTableRecord
  2
AM_ISO09W050
 70
     0
  3
_____ . . _____ . . _____ . . ____ .. ____
 72
    65
 73
     6
 40
22.5
 49
12.0
 74
     0
 49
-1.5
 74
     0
 49
3.0
 74
     0
 49
-1.5
 74
     0
 49
3.0
 74
     0
 49
-1.5
 74
     0
  0
LTYPE
  5
24A0
330
1C6
100
AcDbSymbolTableRecord
100
AcDbLinetypeTableRecord
  2
AM_ISO08W050x2
 70
     0
  3
__ . __ . __ . __ . __ . __
 72
    65
 73
     4
 40
9.0
 49
6.0
 74
     0
 49
-0.75
 74
     0
 49
1.5
 74
     0
 49
-0.75
 74
     0
  0
LTYPE
  5
24A1
330
1C6
100
AcDbSymbolTableRecord
100
AcDbLinetypeTableRecord
  2
AM_ISO02W050x2
 70
     0
  3
 _ _ _ _ _ _ _ _ _ _ _ _
 72
    65
 73
     2
 40
3.75
 49
3.0
 74
     0
 49
-0.75
 74
     0
  0
LTYPE
  5
24A2
330
1C6
100
AcDbSymbolTableRecord
100
AcDbLinetypeTableRecord
  2
Amzigzag
 70
     0
  3
/\/-/\/-/\/-/\/-/\/-/\/
 72
    65
 73
     2
 40
11.0001
 49
0.0001
 74
     4
 75
   136
340
2328
 46
0.04
 50
0.0
 44
0.0
 45
0.0
 49
-11.0
 74
     0
  0
ENDTAB
  0
TABLE
  2
LAYER
  5
1C3
330
0
100
AcDbSymbolTable
 70
     1
  0
LAYER
  5
1D0
102
{ACAD_XDICTIONARY
360
236F
102
}
330
1C3
100
AcDbSymbolTableRecord
100
AcDbLayerTableRecord
  2
0
 70
     0
 62
     7
  6
CONTINUOUS
370
    -3
390
2286
  0
ENDTAB
  0
TABLE
  2
STYLE
  5
1C4
330
0
100
AcDbSymbolTable
 70
     5
  0
STYLE
  5
1D1
330
1C4
100
AcDbSymbolTableRecord
100
AcDbTextStyleTableRecord
  2
STANDARD
 70
     0
 40
0.0
 41
1.0
 50
0.0
 71
     0
 42
15.0
  3
TXT
  4
BIGFONT
  0
STYLE
  5
1E6
330
1C4
100
AcDbSymbolTableRecord
100
AcDbTextStyleTableRecord
  2
MONO-SET
 70
     0
 40
0.0
 41
1.0
 50
0.0
 71
     0
 42
0.2
  3
MONOTXT
  4
BIGFONT
  0
STYLE
  5
2328
330
1C4
100
AcDbSymbolTableRecord
100
AcDbTextStyleTableRecord
  2

 70
     1
 40
0.0
 41
1.0
 50
0.0
 71
     0
 42
15.0
  3
genltshp.shx
  4

  0
STYLE
  5
233A
330
1C4
100
AcDbSymbolTableRecord
100
AcDbTextStyleTableRecord
  2
ACANSGDT
 70
     0
 40
0.0
 41
1.0
 50
0.0
 71
     0
 42
15.0
  3
amgdt.shx
  4

  0
STYLE
  5
24A5
330
1C4
100
AcDbSymbolTableRecord
100
AcDbTextStyleTableRecord
  2
ACANSTS
 70
     0
 40
0.0
 41
1.0
 50
0.0
 71
     0
 42
15.0
  3
romans.shx
  4

  0
ENDTAB
  0
TABLE
  2
VIEW
  5
1C7
330
0
100
AcDbSymbolTable
 70
     0
  0
ENDTAB
  0
TABLE
  2
UCS
  5
1C8
330
0
100
AcDbSymbolTable
 70
     0
  0
ENDTAB
  0
TABLE
  2
APPID
  5
1CA
330
0
100
AcDbSymbolTable
 70
    15
  0
APPID
  5
1D2
330
1CA
100
AcDbSymbolTableRecord
100
AcDbRegAppTableRecord
  2
ACAD
 70
     0
  0
APPID
  5
286
330
1CA
100
AcDbSymbolTableRecord
100
AcDbRegAppTableRecord
  2
ACE-LT__COPYRIGHT_TRIALSOFT-JPN
 70
     0
  0
APPID
  5
22DD
330
1CA
100
AcDbSymbolTableRecord
100
AcDbRegAppTableRecord
  2
MCAD_NO_VIS
 70
     0
  0
APPID
  5
22DE
330
1CA
100
AcDbSymbolTableRecord
100
AcDbRegAppTableRecord
  2
ACAD_TEMP_GRAPHIC
 70
     0
  0
APPID
  5
22EB
330
1CA
100
AcDbSymbolTableRecord
100
AcDbRegAppTableRecord
  2
ACATTRIBSERVICES
 70
     0
  0
APPID
  5
2303
330
1CA
100
AcDbSymbolTableRecord
100
AcDbRegAppTableRecord
  2
DESIGNERASSEMBLIES
 70
     0
  0
APPID
  5
231E
330
1CA
100
AcDbSymbolTableRecord
100
AcDbRegAppTableRecord
  2
ACAD_DSTYLE_DIMJAG
 70
     0
  0
APPID
  5
231F
330
1CA
100
AcDbSymbolTableRecord
100
AcDbRegAppTableRecord
  2
ACAD_DSTYLE_DIMBREAK
 70
     0
  0
APPID
  5
2358
330
1CA
100
AcDbSymbolTableRecord
100
AcDbRegAppTableRecord
  2
ACAD_NAV_VCDISPLAY
 70
     0
  0
APPID
  5
2359
330
1CA
100
AcDbSymbolTableRecord
100
AcDbRegAppTableRecord
  2
ACAD_EXEMPT_FROM_CAD_STANDARDS
 70
     0
  0
APPID
  5
23B3
330
1CA
100
AcDbSymbolTableRecord
100
AcDbRegAppTableRecord
  2
ACAD_MLEADERVER
 70
     0
  0
APPID
  5
23BC
330
1CA
100
AcDbSymbolTableRecord
100
AcDbRegAppTableRecord
  2
ACAD_DSTYLE_DIMARC_LENGTH_SYMBOL
 70
     0
  0
APPID
  5
23BD
330
1CA
100
AcDbSymbolTableRecord
100
AcDbRegAppTableRecord
  2
ACAD_DSTYLE_DIM_LINETYPE
 70
     0
  0
APPID
  5
23BE
330
1CA
100
AcDbSymbolTableRecord
100
AcDbRegAppTableRecord
  2
ACAD_DSTYLE_DIM_EXT1_LINETYPE
 70
     0
  0
APPID
  5
23BF
330
1CA
100
AcDbSymbolTableRecord
100
AcDbRegAppTableRecord
  2
ACAD_DSTYLE_DIM_EXT2_LINETYPE
 70
     0
  0
ENDTAB
  0
TABLE
  2
DIMSTYLE
  5
1CB
330
0
100
AcDbSymbolTable
 70
     7
100
AcDbDimStyleTable
 71
     0
  0
DIMSTYLE
105
1F1
330
1CB
100
AcDbSymbolTableRecord
100
AcDbDimStyleTableRecord
  2
YAZ1
 70
     0
 40
5.0
 41
2.0
 42
0.1
 43
7.0
 44
1.8
 73
     0
 74
     0
 78
     9
140
2.5
141
0.1
145
1.0
147
0.0
172
     1
173
     1
176
   256
177
   256
178
   256
271
     3
272
     3
284
     9
285
     9
286
     9
340
1D1
341
254
343
254
344
254
  0
DIMSTYLE
105
231D
102
{ACAD_REACTORS
330
248A
102
}
330
1CB
100
AcDbSymbolTableRecord
100
AcDbDimStyleTableRecord
  2
AM_ANSI
 70
     0
  4
mm
 41
0.12
 42
0.05
 43
0.5
 44
0.1
 47
0.1
 48
0.1
 78
     7
 79
     2
140
0.12
141
0.0
146
0.71
147
0.06
176
   256
177
   256
178
     2
274
     4
284
     7
340
1D1
371
    -1
372
    -1
1001
ACAD_DSTYLE_DIMJAG
1070
   388
1040
1.5
1001
ACAD_DSTYLE_DIMBREAK
1070
   391
1040
0.125
1001
ACAD_DSTYLE_DIMARC_LENGTH_SYMBOL
1070
   379
1070
     1
1001
ACAD_DSTYLE_DIM_LINETYPE
1070
   380
1005
1D3
1001
ACAD_DSTYLE_DIM_EXT1_LINETYPE
1070
   381
1005
1D3
1001
ACAD_DSTYLE_DIM_EXT2_LINETYPE
1070
   382
1005
1D3
  0
DIMSTYLE
105
232D
330
1CB
100
AcDbSymbolTableRecord
100
AcDbDimStyleTableRecord
  2
AM_ANSI$3
 70
     0
  4
mm
 41
0.12
 42
0.05
 43
0.5
 44
0.1
 47
0.1
 48
0.1
 78
     7
 79
     2
140
0.12
141
0.0
146
0.71
147
0.06
176
   256
177
   256
178
     2
274
     4
284
     7
288
     1
289
     0
340
1D1
371
    -1
372
    -1
1001
ACAD_DSTYLE_DIMBREAK
1070
   391
1040
0.125
1001
ACAD_DSTYLE_DIMJAG
1070
   388
1040
1.5
1001
ACAD_DSTYLE_DIMARC_LENGTH_SYMBOL
1070
   379
1070
     1
1001
ACAD_DSTYLE_DIM_LINETYPE
1070
   380
1005
1D3
1001
ACAD_DSTYLE_DIM_EXT1_LINETYPE
1070
   381
1005
1D3
1001
ACAD_DSTYLE_DIM_EXT2_LINETYPE
1070
   382
1005
1D3
  0
DIMSTYLE
105
232E
330
1CB
100
AcDbSymbolTableRecord
100
AcDbDimStyleTableRecord
  2
AM_ANSI$4
 70
     0
  4
mm
 41
0.12
 42
0.05
 43
0.5
 44
0.1
 47
0.1
 48
0.1
 78
     7
 79
     2
140
0.12
141
0.0
146
0.71
147
0.06
176
   256
177
   256
178
     2
274
     4
284
     7
288
     1
289
     0
340
1D1
371
    -1
372
    -1
1001
ACAD_DSTYLE_DIMBREAK
1070
   391
1040
0.125
1001
ACAD_DSTYLE_DIMJAG
1070
   388
1040
1.5
1001
ACAD_DSTYLE_DIMARC_LENGTH_SYMBOL
1070
   379
1070
     1
1001
ACAD_DSTYLE_DIM_LINETYPE
1070
   380
1005
1D3
1001
ACAD_DSTYLE_DIM_EXT1_LINETYPE
1070
   381
1005
1D3
1001
ACAD_DSTYLE_DIM_EXT2_LINETYPE
1070
   382
1005
1D3
  0
DIMSTYLE
105
232F
330
1CB
100
AcDbSymbolTableRecord
100
AcDbDimStyleTableRecord
  2
AM_ANSI$7
 70
     0
  4
mm
 41
0.12
 42
0.05
 43
0.5
 44
0.1
 47
0.1
 48
0.1
 78
     7
 79
     2
140
0.12
141
0.0
146
0.71
147
0.06
176
   256
177
   256
178
     2
274
     4
284
     7
340
1D1
371
    -1
372
    -1
1001
ACAD_DSTYLE_DIMBREAK
1070
   391
1040
0.125
1001
ACAD_DSTYLE_DIMJAG
1070
   388
1040
1.5
1001
ACAD_DSTYLE_DIMARC_LENGTH_SYMBOL
1070
   379
1070
     1
1001
ACAD_DSTYLE_DIM_LINETYPE
1070
   380
1005
1D3
1001
ACAD_DSTYLE_DIM_EXT1_LINETYPE
1070
   381
1005
1D3
1001
ACAD_DSTYLE_DIM_EXT2_LINETYPE
1070
   382
1005
1D3
  0
DIMSTYLE
105
2330
330
1CB
100
AcDbSymbolTableRecord
100
AcDbDimStyleTableRecord
  2
AM_ANSI$SF
 70
     0
  4
mm
 41
0.12
 42
0.05
 43
0.5
 44
0.1
 47
0.1
 48
0.1
 75
     1
 76
     1
 78
     7
 79
     2
140
0.12
141
0.0
146
0.71
147
0.06
176
   256
177
   256
178
     2
274
     4
284
     7
340
1D1
371
    -1
372
    -1
1001
ACAD_DSTYLE_DIMBREAK
1070
   391
1040
0.125
1001
ACAD_DSTYLE_DIMJAG
1070
   388
1040
1.5
1001
ACAD_DSTYLE_DIMARC_LENGTH_SYMBOL
1070
   379
1070
     1
1001
ACAD_DSTYLE_DIM_LINETYPE
1070
   380
1005
1D3
1001
ACAD_DSTYLE_DIM_EXT1_LINETYPE
1070
   381
1005
1D3
1001
ACAD_DSTYLE_DIM_EXT2_LINETYPE
1070
   382
1005
1D3
  0
DIMSTYLE
105
2335
330
1CB
100
AcDbSymbolTableRecord
100
AcDbDimStyleTableRecord
  2
AM_ANSI$SH
 70
     0
  4
mm
 41
0.12
 42
0.05
 43
0.5
 44
0.1
 47
0.1
 48
0.1
 75
     1
 76
     1
 78
     7
 79
     2
140
0.12
141
0.0
146
0.71
147
0.06
173
     1
176
   256
177
   256
178
     2
274
     4
284
     7
340
1D1
343
2331
371
    -1
372
    -1
1001
ACAD_DSTYLE_DIMBREAK
1070
   391
1040
0.125
1001
ACAD_DSTYLE_DIMJAG
1070
   388
1040
1.5
1001
ACAD_DSTYLE_DIMARC_LENGTH_SYMBOL
1070
   379
1070
     1
1001
ACAD_DSTYLE_DIM_LINETYPE
1070
   380
1005
1D3
1001
ACAD_DSTYLE_DIM_EXT1_LINETYPE
1070
   381
1005
1D3
1001
ACAD_DSTYLE_DIM_EXT2_LINETYPE
1070
   382
1005
1D3
  0
ENDTAB
  0
TABLE
  2
BLOCK_RECORD
  5
1C2
330
0
100
AcDbSymbolTable
 70
     4
  0
BLOCK_RECORD
  5
1D9
102
{ACAD_XDICTIONARY
360
224F
102
}
330
1C2
100
AcDbSymbolTableRecord
100
AcDbBlockTableRecord
  2
*MODEL_SPACE
340
22D4
  0
BLOCK_RECORD
  5
1D6
102
{ACAD_XDICTIONARY
360
224D
102
}
330
1C2
100
AcDbSymbolTableRecord
100
AcDbBlockTableRecord
  2
*PAPER_SPACE
340
22D5
  0
BLOCK_RECORD
  5
254
330
1C2
100
AcDbSymbolTableRecord
100
AcDbBlockTableRecord
  2
YAZ1
340
0
  0
BLOCK_RECORD
  5
2331
330
1C2
100
AcDbSymbolTableRecord
100
AcDbBlockTableRecord
  2
GENAXEH
340
0
  0
BLOCK_RECORD
  5
233E
330
1C2
100
AcDbSymbolTableRecord
100
AcDbBlockTableRecord
  2
_ACMFILLEDHALF
340
0
  0
ENDTAB
  0
ENDSEC
  0
SECTION
  2
BLOCKS
  0
BLOCK
  5
20A
330
1D9
100
AcDbEntity
  8
0
100
AcDbBlockBegin
  2
*MODEL_SPACE
 70
     0
 10
0.0
 20
0.0
 30
0.0
  3
*MODEL_SPACE
  1

  0
ENDBLK
  5
20B
330
1D9
100
AcDbEntity
  8
0
100
AcDbBlockEnd
  0
BLOCK
  5
208
330
1D6
100
AcDbEntity
 67
     1
  8
0
100
AcDbBlockBegin
  2
*PAPER_SPACE
 70
     0
 10
0.0
 20
0.0
 30
0.0
  3
*PAPER_SPACE
  1

  0
ENDBLK
  5
209
330
1D6
100
AcDbEntity
 67
     1
  8
0
100
AcDbBlockEnd
  0
BLOCK
  5
258
330
254
100
AcDbEntity
  8
0
100
AcDbBlockBegin
  2
YAZ1
 70
     0
 10
0.0
 20
0.0
 30
0.0
  3
YAZ1
  1

  0
LINE
  5
255
330
254
100
AcDbEntity
  8
0
100
AcDbLine
 10
0.0
 20
0.0
 30
0.0
 11
-1.0
 21
-0.2679491924311037
 31
0.0
  0
LINE
  5
256
330
254
100
AcDbEntity
  8
0
100
AcDbLine
 10
0.0
 20
0.0
 30
0.0
 11
-1.0
 21
0.2679491924311037
 31
0.0
  0
LINE
  5
257
330
254
100
AcDbEntity
  8
0
100
AcDbLine
 10
-1.0
 20
0.0
 30
0.0
 11
0.0
 21
0.0
 31
0.0
  0
ENDBLK
  5
259
330
254
100
AcDbEntity
  8
0
100
AcDbBlockEnd
  0
BLOCK
  5
2333
330
2331
100
AcDbEntity
  8
0
100
AcDbBlockBegin
  2
GENAXEH
 70
     0
 10
0.0
 20
0.0
 30
0.0
  3
GENAXEH
  1

  0
LINE
  5
2332
330
2331
100
AcDbEntity
  8
0
100
AcDbLine
 10
-1.0
 20
0.0
 30
0.0
 11
1.0
 21
0.0
 31
0.0
  0
ENDBLK
  5
2334
330
2331
100
AcDbEntity
  8
0
100
AcDbBlockEnd
  0
BLOCK
  5
233F
330
233E
100
AcDbEntity
  8
0
100
AcDbBlockBegin
  2
_ACMFILLEDHALF
 70
     0
 10
0.0
 20
0.0
 30
0.0
  3
_ACMFILLEDHALF
  1

  0
TRACE
  5
2341
330
233E
100
AcDbEntity
  8
0
 62
     0
100
AcDbTrace
 10
-0.8
 20
0.0
 30
0.0
 11
-1.0
 21
0.166666666
 31
0.0
 12
0.0
 22
0.0
 32
0.0
 13
0.0
 23
0.0
 33
0.0
  0
LINE
  5
2342
330
233E
100
AcDbEntity
  8
0
 62
     0
100
AcDbLine
 10
-1.0
 20
0.0
 30
0.0
 11
-0.8
 21
0.0
 31
0.0
  0
ENDBLK
  5
2340
330
233E
100
AcDbEntity
  8
0
100
AcDbBlockEnd
  0
ENDSEC
  0
SECTION
  2
ENTITIES
  0
LINE
  5
707
330
1D9
100
AcDbEntity
  8
0
100
AcDbLine
 10
160.0
 20
1112.499765724457
 30
0.0
 11
529.9999999999998
 21
1112.499765724457
 31
0.0
  0
LINE
  5
708
330
1D9
100
AcDbEntity
  8
0
100
AcDbLine
 10
160.0
 20
1112.499765724457
 30
0.0
 11
529.9999999999998
 21
1112.499765724457
 31
0.0
  0
LINE
  5
756
330
1D9
100
AcDbEntity
  8
0
100
AcDbLine
 10
170.0
 20
1029.999531448914
 30
0.0
 11
235.7163763586797
 21
1029.999531448914
 31
0.0
  0
LINE
  5
757
330
1D9
100
AcDbEntity
  8
0
100
AcDbLine
 10
170.0
 20
1195.0
 30
0.0
 11
235.7163763586797
 21
1195.0
 31
0.0
  0
LINE
  5
758
330
1D9
100
AcDbEntity
  8
0
100
AcDbLine
 10
197.4999999999988
 20
1162.499765724457
 30
0.0
 11
172.5
 21
1162.499765724457
 31
0.0
  0
LINE
  5
759
330
1D9
100
AcDbEntity
  8
0
100
AcDbLine
 10
197.4999999999988
 20
1062.499765724457
 30
0.0
 11
172.5
 21
1062.499765724457
 31
0.0
  0
LINE
  5
75A
330
1D9
100
AcDbEntity
  8
0
100
AcDbLine
 10
199.5186710249211
 20
765.9997754473837
 30
0.0
 11
169.9999999999997
 21
765.9997754473837
 31
0.0
  0
LINE
  5
75B
330
1D9
100
AcDbEntity
  8
0
100
AcDbLine
 10
169.9999999999997
 20
765.9997754473837
 30
0.0
 11
344.9999999999997
 21
765.9997754473837
 31
0.0
  0
LINE
  5
75C
330
1D9
100
AcDbEntity
  8
0
100
AcDbLine
 10
169.9999999999997
 20
759.9997754473837
 30
0.0
 11
344.9999999999997
 21
759.9997754473839
 31
0.0
  0
LINE
  5
764
330
1D9
100
AcDbEntity
  8
0
100
AcDbLine
 10
169.9999999999997
 20
759.9997754473837
 30
0.0
 11
169.9999999999997
 21
765.9997754473837
 31
0.0
  0
LINE
  5
765
330
1D9
100
AcDbEntity
  8
0
100
AcDbLine
 10
184.9999999999997
 20
774.7047656550368
 30
0.0
 11
184.9999999999997
 21
749.7047656550381
 31
0.0
  0
LINE
  5
76E
330
1D9
100
AcDbEntity
  8
0
100
AcDbLine
 10
170.0
 20
1029.999531448914
 30
0.0
 11
170.0
 21
1102.999765724456
 31
0.0
  0
LINE
  5
774
330
1D9
100
AcDbEntity
  8
0
100
AcDbLine
 10
185.0
 20
1074.999765724456
 30
0.0
 11
185.0
 21
1049.999765724457
 31
0.0
  0
CIRCLE
  5
775
330
1D9
100
AcDbEntity
  8
0
100
AcDbCircle
 10
185.0
 20
1062.499765724457
 30
0.0
 40
7.5
  0
LINE
  5
778
330
1D9
100
AcDbEntity
  8
0
100
AcDbLine
 10
170.0
 20
1121.999765724458
 30
0.0
 11
170.0
 21
1195.0
 31
0.0
  0
LINE
  5
77A
330
1D9
100
AcDbEntity
  8
0
100
AcDbLine
 10
169.9999999999997
 20
1102.999765724456
 30
0.0
 11
184.9999999999997
 21
1102.999765724459
 31
0.0
  0
LINE
  5
77B
330
1D9
100
AcDbEntity
  8
0
100
AcDbLine
 10
169.9999999999997
 20
1121.999765724458
 30
0.0
 11
184.9999999999997
 21
1121.999765724456
 31
0.0
  0
ARC
  5
77C
330
1D9
100
AcDbEntity
  8
0
100
AcDbCircle
 10
184.9999999999997
 20
1112.499765724457
 30
0.0
 40
9.5
100
AcDbArc
 50
270.0
 51
90.0
  0
LINE
  5
77D
330
1D9
100
AcDbEntity
  8
0
100
AcDbLine
 10
184.9999999999997
 20
1102.999765724458
 30
0.0
 11
184.9999999999997
 21
1121.999765724455
 31
0.0
  0
CIRCLE
  5
77F
330
1D9
100
AcDbEntity
  8
0
100
AcDbCircle
 10
185.0
 20
1162.499765724457
 30
0.0
 40
7.5
  0
LINE
  5
780
330
1D9
100
AcDbEntity
  8
0
100
AcDbLine
 10
185.0
 20
1149.999765724458
 30
0.0
 11
185.0
 21
1174.999765724457
 31
0.0
  0
TEXT
  5
781
330
1D9
100
AcDbEntity
  8
0
100
AcDbText
 10
49.58858515399379
 20
1327.283320191598
 30
0.0
 40
15.0
  1
＜外形寸法図＞
100
AcDbText
  0
LINE
  5
787
330
1D9
100
AcDbEntity
  8
0
100
AcDbLine
 10
344.9999999999997
 20
1009.660244193985
 30
0.0
 11
344.9999999999997
 21
1215.33928725493
 31
0.0
  0
LINE
  5
788
330
1D9
100
AcDbEntity
  8
0
100
AcDbLine
 10
270.9999999999993
 20
1022.499765724456
 30
0.0
 11
419.0000000000006
 21
1022.499765724456
 31
0.0
  0
LINE
  5
789
330
1D9
100
AcDbEntity
  8
0
100
AcDbLine
 10
270.9999999999993
 20
1202.499765724458
 30
0.0
 11
419.0000000000006
 21
1202.499765724458
 31
0.0
  0
LINE
  5
794
330
1D9
100
AcDbEntity
  8
0
100
AcDbLine
 10
344.9999999999997
 20
805.4997754473836
 30
0.0
 11
202.0000000000006
 21
805.4997754473838
 31
0.0
  0
LINE
  5
795
330
1D9
100
AcDbEntity
  8
0
100
AcDbLine
 10
221.9851305776789
 20
863.4997754473832
 30
0.0
 11
344.9999999999997
 21
863.4997754473838
 31
0.0
  0
ARC
  5
796
330
1D9
100
AcDbEntity
  8
0
100
AcDbCircle
 10
265.9999999999993
 20
853.4997754473836
 30
0.0
 40
10.0
100
AcDbArc
 50
90.0
 51
180.0
  0
ARC
  5
798
330
1D9
100
AcDbEntity
  8
0
100
AcDbCircle
 10
221.9851305776789
 20
853.4997754473831
 30
0.0
 40
10.0
100
AcDbArc
 50
90.0
 51
176.8750828508663
  0
LINE
  5
799
330
1D9
100
AcDbEntity
  8
0
100
AcDbLine
 10
231.0000000000002
 20
753.2012946356384
 30
0.0
 11
231.0000000000002
 21
864.5992004022858
 31
0.0
  0
LINE
  5
79A
330
1D9
100
AcDbEntity
  8
0
100
AcDbLine
 10
241.3923534322886
 20
789.9997720643701
 30
0.0
 11
220.6077434322885
 21
789.9997720643701
 31
0.0
  0
ARC
  5
79B
330
1D9
100
AcDbEntity
  8
0
100
AcDbCircle
 10
231.0000434322885
 20
771.6786090643702
 30
0.0
 40
18.32118299999999
100
AcDbArc
 50
67.7807100000049
 51
112.2193300000031
  0
LINE
  5
79C
330
1D9
100
AcDbEntity
  8
0
100
AcDbLine
 10
214.8271096583596
 20
776.9997754473839
 30
0.0
 11
247.1728903416403
 21
776.9997754473839
 31
0.0
  0
LINE
  5
79D
330
1D9
100
AcDbEntity
  8
0
100
AcDbLine
 10
214.8271096583596
 20
776.9997754473839
 30
0.0
 11
247.1728903416403
 21
776.9997754473839
 31
0.0
  0
LINE
  5
79F
330
1D9
100
AcDbEntity
  8
0
100
AcDbLine
 10
244.5000000000002
 20
818.4997754473837
 30
0.0
 11
217.4999999999997
 21
818.4997754473837
 31
0.0
  0
LINE
  5
7A0
330
1D9
100
AcDbEntity
  8
0
100
AcDbLine
 10
249.9999999999997
 20
821.4997754473838
 30
0.0
 11
211.9999999999997
 21
821.4997754473838
 31
0.0
  0
LINE
  5
7A1
330
1D9
100
AcDbEntity
  8
0
100
AcDbLine
 10
215.9999999999997
 20
824.4997754473837
 30
0.0
 11
245.9999999999997
 21
824.4997754473837
 31
0.0
  0
LINE
  5
7A2
330
1D9
100
AcDbEntity
  8
0
100
AcDbLine
 10
244.8564064605509
 20
824.4997754473837
 30
0.0
 11
217.143593539449
 21
824.4997754473837
 31
0.0
  0
LINE
  5
7A4
330
1D9
100
AcDbEntity
  8
0
100
AcDbLine
 10
237.8895153878922
 20
789.9997720643701
 30
0.0
 11
237.8895153878922
 21
805.4997754473838
 31
0.0
  0
LINE
  5
7A5
330
1D9
100
AcDbEntity
  8
0
100
AcDbLine
 10
224.0894953878926
 20
789.9997720643701
 30
0.0
 11
224.0894953878926
 21
805.4997754473838
 31
0.0
  0
LINE
  5
7A6
330
1D9
100
AcDbEntity
  8
0
100
AcDbLine
 10
222.9894753878923
 20
805.4997754473838
 30
0.0
 11
222.9894753878923
 21
789.9997720643701
 31
0.0
  0
ARC
  5
7A7
330
1D9
100
AcDbEntity
  8
0
100
AcDbCircle
 10
220.6077434322885
 20
784.9093230643703
 30
0.0
 40
5.090450299999996
100
AcDbArc
 50
47.11663999999276
 51
132.8833200000052
  0
LINE
  5
7A8
330
1D9
100
AcDbEntity
  8
0
100
AcDbLine
 10
208.167648997796
 20
774.0538305933506
 30
0.0
 11
201.7384912451091
 21
766.9817570653946
 31
0.0
  0
ARC
  5
7A9
330
1D9
100
AcDbEntity
  8
0
100
AcDbCircle
 10
199.5186710249211
 20
768.9997754473837
 30
0.0
 40
3.0
100
AcDbArc
 50
270.0
 51
317.7263109939053
  0
LINE
  5
7AA
330
1D9
100
AcDbEntity
  8
0
100
AcDbLine
 10
217.1436534322885
 20
788.6393110643703
 30
0.0
 11
217.1436534322885
 21
776.9997890643702
 31
0.0
  0
ARC
  5
7AB
330
1D9
100
AcDbEntity
  8
0
100
AcDbCircle
 10
214.8271096583596
 20
767.999775447384
 30
0.0
 40
9.0
100
AcDbArc
 50
90.0
 51
137.7263109939053
  0
LINE
  5
7AC
330
1D9
100
AcDbEntity
  8
0
100
AcDbLine
 10
224.0718334322889
 20
788.6393110643703
 30
0.0
 11
224.0718334322884
 21
776.9997890643702
 31
0.0
  0
LINE
  5
7AD
330
1D9
100
AcDbEntity
  8
0
100
AcDbLine
 10
217.5000000000002
 20
818.4997754473837
 30
0.0
 11
210.0000000000006
 21
818.4997754473837
 31
0.0
  0
LINE
  5
7AE
330
1D9
100
AcDbEntity
  8
0
100
AcDbLine
 10
212.0000000000011
 20
854.044906025061
 30
0.0
 11
212.0000000000011
 21
818.4997754473837
 31
0.0
  0
ARC
  5
7AF
330
1D9
100
AcDbEntity
  8
0
100
AcDbCircle
 10
210.0000000000006
 20
810.4997754473837
 30
0.0
 40
8.0
100
AcDbArc
 50
90.0
 51
180.0
  0
LINE
  5
7B0
330
1D9
100
AcDbEntity
  8
0
100
AcDbLine
 10
202.0000000000006
 20
805.4997754473838
 30
0.0
 11
202.0000000000006
 21
810.4997754473837
 31
0.0
  0
LINE
  5
7B1
330
1D9
100
AcDbEntity
  8
0
100
AcDbLine
 10
212.0000000000002
 20
818.4997754473837
 30
0.0
 11
212.0000000000002
 21
821.4997754473838
 31
0.0
  0
LINE
  5
7B2
330
1D9
100
AcDbEntity
  8
0
100
AcDbLine
 10
215.9999999999997
 20
821.4997754473838
 30
0.0
 11
215.9999999999997
 21
824.4997754473837
 31
0.0
  0
LINE
  5
7B3
330
1D9
100
AcDbEntity
  8
0
100
AcDbLine
 10
238.9895353878926
 20
805.4997754473838
 30
0.0
 11
238.9895353878926
 21
789.9997720643701
 31
0.0
  0
LINE
  5
7B4
330
1D9
100
AcDbEntity
  8
0
100
AcDbLine
 10
268.2599045901515
 20
767.9648706345091
 30
0.0
 11
267.6047303895684
 21
805.4997754473838
 31
0.0
  0
LINE
  5
7B5
330
1D9
100
AcDbEntity
  8
0
100
AcDbLine
 10
253.8323510022039
 20
774.0538305933506
 30
0.0
 11
260.2615087548908
 21
766.9817570653946
 31
0.0
  0
ARC
  5
7B6
330
1D9
100
AcDbEntity
  8
0
100
AcDbCircle
 10
247.1728903416403
 20
767.999775447384
 30
0.0
 40
9.0
100
AcDbArc
 50
42.27368900609464
 51
90.0
  0
ARC
  5
7B7
330
1D9
100
AcDbEntity
  8
0
100
AcDbCircle
 10
241.3923534322886
 20
784.9093230643703
 30
0.0
 40
5.090450299999996
100
AcDbArc
 50
47.11668999999559
 51
132.8833699999994
  0
LINE
  5
7B8
330
1D9
100
AcDbEntity
  8
0
100
AcDbLine
 10
237.9282534322885
 20
788.6393110643703
 30
0.0
 11
237.9282534322885
 21
776.9997890643702
 31
0.0
  0
LINE
  5
7B9
330
1D9
100
AcDbEntity
  8
0
100
AcDbLine
 10
244.8564434322886
 20
788.6393110643703
 30
0.0
 11
244.8564434322886
 21
776.9997890643702
 31
0.0
  0
ARC
  5
7BA
330
1D9
100
AcDbEntity
  8
0
100
AcDbCircle
 10
270.2595999804643
 20
767.9997754473837
 30
0.0
 40
2.0
100
AcDbArc
 50
181.0000000000016
 51
270.0
  0
ARC
  5
7BB
330
1D9
100
AcDbEntity
  8
0
100
AcDbCircle
 10
262.4813289750789
 20
768.9997754473837
 30
0.0
 40
3.0
100
AcDbArc
 50
222.2736890060946
 51
270.0
  0
LINE
  5
7BC
330
1D9
100
AcDbEntity
  8
0
100
AcDbLine
 10
255.9999999999988
 20
824.4997754473835
 30
0.0
 11
255.9999999999993
 21
853.4997754473836
 31
0.0
  0
LINE
  5
7BD
330
1D9
100
AcDbEntity
  8
0
100
AcDbLine
 10
249.9999999999988
 20
818.4997754473837
 30
0.0
 11
244.5000000000002
 21
818.4997754473837
 31
0.0
  0
LINE
  5
7BE
330
1D9
100
AcDbEntity
  8
0
100
AcDbLine
 10
245.9999999999997
 20
824.4997754473837
 30
0.0
 11
245.9999999999997
 21
821.4997754473838
 31
0.0
  0
LINE
  5
7BF
330
1D9
100
AcDbEntity
  8
0
100
AcDbLine
 10
249.9999999999997
 20
818.4997754473837
 30
0.0
 11
249.9999999999997
 21
821.4997754473838
 31
0.0
  0
ARC
  5
7C0
330
1D9
100
AcDbEntity
  8
0
100
AcDbCircle
 10
249.9999999999988
 20
824.4997754473835
 30
0.0
 40
6.0
100
AcDbArc
 50
270.0
 51
0.0
  0
LINE
  5
7C5
330
1D9
100
AcDbEntity
  8
0
100
AcDbLine
 10
265.9999999999993
 20
863.4997754473838
 30
0.0
 11
241.9999999999997
 21
863.4997754473838
 31
0.0
  0
LINE
  5
7C8
330
1D9
100
AcDbEntity
  8
0
100
AcDbLine
 10
344.9999999999997
 20
748.0004033552731
 30
0.0
 11
344.9999999999997
 21
872.5432297256602
 31
0.0
  0
LINE
  5
7C9
330
1D9
100
AcDbEntity
  8
0
100
AcDbLine
 10
319.4999311953263
 20
805.4997754473838
 30
0.0
 11
319.4999311953263
 21
781.4997754473837
 31
0.0
  0
LINE
  5
7CC
330
1D9
100
AcDbEntity
  8
0
100
AcDbLine
 10
332.501032070103
 20
805.4997754473838
 30
0.0
 11
332.501032070103
 21
786.4997754473837
 31
0.0
  0
ARC
  5
7D2
330
1D9
100
AcDbEntity
  8
0
100
AcDbCircle
 10
230.9999999999991
 20
1065.499765724456
 30
0.0
 40
25.0
100
AcDbArc
 50
0.0
 51
90.0
  0
ARC
  5
7D3
330
1D9
100
AcDbEntity
  8
0
100
AcDbCircle
 10
227.0000000000009
 20
1105.499765724456
 30
0.0
 40
15.0
100
AcDbArc
 50
180.0
 51
270.0
  0
ARC
  5
7D4
330
1D9
100
AcDbEntity
  8
0
100
AcDbCircle
 10
217.0000000000011
 20
1084.160019762301
 30
0.0
 40
15.0
100
AcDbArc
 50
150.0000000000061
 51
180.0
  0
LINE
  5
7D5
330
1D9
100
AcDbEntity
  8
0
100
AcDbLine
 10
270.9999999999988
 20
1022.499765724456
 30
0.0
 11
213.8813246377342
 21
1034.640714966605
 31
0.0
  0
CIRCLE
  5
7D7
330
1D9
100
AcDbEntity
  8
0
100
AcDbCircle
 10
231.0000000000002
 20
1065.500531448914
 30
0.0
 40
8.000000000000049
  0
CIRCLE
  5
7D8
330
1D9
100
AcDbEntity
  8
0
100
AcDbCircle
 10
231.0000000000002
 20
1065.500531448914
 30
0.0
 40
15.00000000000049
  0
CIRCLE
  5
7D9
330
1D9
100
AcDbEntity
  8
0
100
AcDbCircle
 10
231.0000000000002
 20
1065.500531448914
 30
0.0
 40
19.0
  0
CIRCLE
  5
7DA
330
1D9
100
AcDbEntity
  8
0
100
AcDbCircle
 10
231.0000000000002
 20
1065.500531448914
 30
0.0
 40
12.0000000000005
  0
LINE
  5
7DB
330
1D9
100
AcDbEntity
  8
0
100
AcDbLine
 10
210.9375
 20
1065.500531448914
 30
0.0
 11
251.0625
 21
1065.500531448914
 31
0.0
  0
LINE
  5
7DC
330
1D9
100
AcDbEntity
  8
0
100
AcDbLine
 10
202.0000000000011
 20
1049.312928977613
 30
0.0
 11
202.0000000000011
 21
1084.160019762301
 31
0.0
  0
ARC
  5
7DD
330
1D9
100
AcDbEntity
  8
0
100
AcDbCircle
 10
217.0000000000007
 20
1049.312928977613
 30
0.0
 40
15.0
100
AcDbArc
 50
180.0
 51
257.9999999999971
  0
LINE
  5
7DE
330
1D9
100
AcDbEntity
  8
0
100
AcDbLine
 10
231.0
 20
1045.438031448915
 30
0.0
 11
231.0
 21
1085.563031448914
 31
0.0
  0
CIRCLE
  5
7DF
330
1D9
100
AcDbEntity
  8
0
100
AcDbCircle
 10
231.0000000000002
 20
1065.500531448914
 30
0.0
 40
6.560000000000047
  0
LINE
  5
7E0
330
1D9
100
AcDbEntity
  8
0
100
AcDbLine
 10
227.0000000000009
 20
1090.499765724456
 30
0.0
 11
230.9999999999993
 21
1090.499765724456
 31
0.0
  0
ARC
  5
7E1
330
1D9
100
AcDbEntity
  8
0
100
AcDbCircle
 10
270.9999999999993
 20
1037.499765724456
 30
0.0
 40
15.0
100
AcDbArc
 50
180.0
 51
270.0
  0
LINE
  5
7E2
330
1D9
100
AcDbEntity
  8
0
100
AcDbLine
 10
255.9999999999991
 20
1037.501297173372
 30
0.0
 11
255.9999999999991
 21
1065.499765724456
 31
0.0
  0
LINE
  5
7E3
330
1D9
100
AcDbEntity
  8
0
100
AcDbLine
 10
270.9999999999988
 20
1202.499765724458
 30
0.0
 11
213.8813246377342
 21
1190.358816482309
 31
0.0
  0
ARC
  5
7E9
330
1D9
100
AcDbEntity
  8
0
100
AcDbCircle
 10
230.9999999999991
 20
1159.499765724458
 30
0.0
 40
25.0
100
AcDbArc
 50
270.0
 51
0.0
  0
LINE
  5
7EA
330
1D9
100
AcDbEntity
  8
0
100
AcDbLine
 10
202.0000000000011
 20
1175.686602471301
 30
0.0
 11
202.0000000000011
 21
1140.839511686613
 31
0.0
  0
ARC
  5
7EC
330
1D9
100
AcDbEntity
  8
0
100
AcDbCircle
 10
227.0000000000009
 20
1119.499765724458
 30
0.0
 40
15.0
100
AcDbArc
 50
90.0
 51
180.0
  0
ARC
  5
7ED
330
1D9
100
AcDbEntity
  8
0
100
AcDbCircle
 10
201.5000000000009
 20
1116.686299203931
 30
0.0
 40
10.5
100
AcDbArc
 50
0.0
 51
29.99999999999376
  0
LINE
  5
7EE
330
1D9
100
AcDbEntity
  8
0
100
AcDbLine
 10
210.5932667397376
 20
1103.063232244983
 30
0.0
 11
204.0096189432347
 21
1091.6600197623
 31
0.0
  0
ARC
  5
7EF
330
1D9
100
AcDbEntity
  8
0
100
AcDbCircle
 10
201.5000000000009
 20
1108.313232244983
 30
0.0
 40
10.5
100
AcDbArc
 50
330.0000000000062
 51
0.0
  0
LINE
  5
7F0
330
1D9
100
AcDbEntity
  8
0
100
AcDbLine
 10
212.0000000000008
 20
1119.499765724458
 30
0.0
 11
212.0000000000008
 21
1105.499765724456
 31
0.0
  0
LINE
  5
7F1
330
1D9
100
AcDbEntity
  8
0
100
AcDbLine
 10
210.5932667397376
 20
1121.936299203931
 30
0.0
 11
204.0096189432347
 21
1133.339511686613
 31
0.0
  0
ARC
  5
7F2
330
1D9
100
AcDbEntity
  8
0
100
AcDbCircle
 10
217.0000000000011
 20
1140.839511686613
 30
0.0
 40
15.0
100
AcDbArc
 50
180.0
 51
209.9999999999937
  0
LINE
  5
7F3
330
1D9
100
AcDbEntity
  8
0
100
AcDbLine
 10
227.0000000000006
 20
1134.499765724458
 30
0.0
 11
230.9999999999993
 21
1134.499765724458
 31
0.0
  0
ARC
  5
7F4
330
1D9
100
AcDbEntity
  8
0
100
AcDbCircle
 10
217.0000000000007
 20
1175.686602471301
 30
0.0
 40
15.0
100
AcDbArc
 50
102.0000000000029
 51
180.0
  0
ARC
  5
7F6
330
1D9
100
AcDbEntity
  8
0
100
AcDbCircle
 10
270.9999999999993
 20
1187.499765724458
 30
0.0
 40
15.0
100
AcDbArc
 50
90.0
 51
180.0
  0
LINE
  5
7F7
330
1D9
100
AcDbEntity
  8
0
100
AcDbLine
 10
255.9999999999991
 20
1187.499765724458
 30
0.0
 11
255.9999999999991
 21
1159.499765724458
 31
0.0
  0
CIRCLE
  5
7FC
330
1D9
100
AcDbEntity
  8
0
100
AcDbCircle
 10
344.9999999999997
 20
1062.499765724457
 30
0.0
 40
8.0
  0
CIRCLE
  5
7FD
330
1D9
100
AcDbEntity
  8
0
100
AcDbCircle
 10
344.9999999999997
 20
1062.499765724457
 30
0.0
 40
6.559999999999997
  0
LINE
  5
7FE
330
1D9
100
AcDbEntity
  8
0
100
AcDbLine
 10
359.2375740901486
 20
1062.499765724457
 30
0.0
 11
330.7624259098508
 21
1062.499765724457
 31
0.0
  0
CIRCLE
  5
800
330
1D9
100
AcDbEntity
  8
0
100
AcDbCircle
 10
294.9999999999997
 20
1112.499765724457
 30
0.0
 40
6.559999999999997
  0
CIRCLE
  5
801
330
1D9
100
AcDbEntity
  8
0
100
AcDbCircle
 10
294.9999999999997
 20
1112.499765724457
 30
0.0
 40
8.0
  0
LINE
  5
802
330
1D9
100
AcDbEntity
  8
0
100
AcDbLine
 10
295.000021282681
 20
1125.911963584815
 30
0.0
 11
295.0000212826805
 21
1099.087484719026
 31
0.0
  0
CIRCLE
  5
803
330
1D9
100
AcDbEntity
  8
0
100
AcDbCircle
 10
344.9999999999997
 20
1112.499765724457
 30
0.0
 40
8.0
  0
CIRCLE
  5
804
330
1D9
100
AcDbEntity
  8
0
100
AcDbCircle
 10
344.9999999999997
 20
1112.499765724457
 30
0.0
 40
6.559999999999997
  0
LINE
  5
805
330
1D9
100
AcDbEntity
  8
0
100
AcDbLine
 10
359.2375740901486
 20
1162.499765724457
 30
0.0
 11
330.7624259098508
 21
1162.499765724457
 31
0.0
  0
CIRCLE
  5
806
330
1D9
100
AcDbEntity
  8
0
100
AcDbCircle
 10
344.9999999999997
 20
1162.499765724457
 30
0.0
 40
8.0
  0
CIRCLE
  5
807
330
1D9
100
AcDbEntity
  8
0
100
AcDbCircle
 10
344.9999999999997
 20
1162.499765724457
 30
0.0
 40
6.559999999999997
  0
ARC
  5
882
330
1D9
100
AcDbEntity
  8
0
100
AcDbCircle
 10
459.0000000000006
 20
1159.499765724458
 30
0.0
 40
25.0
100
AcDbArc
 50
180.0
 51
270.0
  0
LINE
  5
883
330
1D9
100
AcDbEntity
  8
0
100
AcDbLine
 10
419.0000000000006
 20
1202.499765724458
 30
0.0
 11
476.1186753622653
 21
1190.358816482309
 31
0.0
  0
LINE
  5
884
330
1D9
100
AcDbEntity
  8
0
100
AcDbLine
 10
419.0000000000006
 20
1022.499765724456
 30
0.0
 11
476.1186753622653
 21
1034.640714966605
 31
0.0
  0
ARC
  5
885
330
1D9
100
AcDbEntity
  8
0
100
AcDbCircle
 10
459.0000000000006
 20
1065.499765724456
 30
0.0
 40
25.0
100
AcDbArc
 50
90.0
 51
180.0
  0
CIRCLE
  5
886
330
1D9
100
AcDbEntity
  8
0
100
AcDbCircle
 10
458.9999999999998
 20
1065.500531448914
 30
0.0
 40
19.0
  0
LINE
  5
887
330
1D9
100
AcDbEntity
  8
0
100
AcDbLine
 10
479.0624999999997
 20
1065.500531448914
 30
0.0
 11
438.9374999999997
 21
1065.500531448914
 31
0.0
  0
LINE
  5
888
330
1D9
100
AcDbEntity
  8
0
100
AcDbLine
 10
479.0624999999997
 20
1159.498999999999
 30
0.0
 11
438.9374999999997
 21
1159.499
 31
0.0
  0
CIRCLE
  5
889
330
1D9
100
AcDbEntity
  8
0
100
AcDbCircle
 10
458.9999999999998
 20
1159.499
 30
0.0
 40
19.0
  0
ARC
  5
88A
330
1D9
100
AcDbEntity
  8
0
100
AcDbCircle
 10
419.0000000000006
 20
1037.499765724456
 30
0.0
 40
15.0
100
AcDbArc
 50
270.0
 51
0.0
  0
LINE
  5
88B
330
1D9
100
AcDbEntity
  8
0
100
AcDbLine
 10
434.0000000000006
 20
1037.501297173372
 30
0.0
 11
434.0000000000006
 21
1065.499765724456
 31
0.0
  0
CIRCLE
  5
88C
330
1D9
100
AcDbEntity
  8
0
100
AcDbCircle
 10
394.9999999999997
 20
1112.499765724457
 30
0.0
 40
8.0
  0
LINE
  5
88D
330
1D9
100
AcDbEntity
  8
0
100
AcDbLine
 10
394.9999999999997
 20
1125.912005157351
 30
0.0
 11
394.9999999999997
 21
1099.087526291563
 31
0.0
  0
CIRCLE
  5
88E
330
1D9
100
AcDbEntity
  8
0
100
AcDbCircle
 10
394.9999999999997
 20
1112.499765724457
 30
0.0
 40
6.559999999999997
  0
ARC
  5
88F
330
1D9
100
AcDbEntity
  8
0
100
AcDbCircle
 10
419.0000000000006
 20
1187.499765724458
 30
0.0
 40
15.0
100
AcDbArc
 50
0.0
 51
90.0
  0
LINE
  5
890
330
1D9
100
AcDbEntity
  8
0
100
AcDbLine
 10
434.0000000000006
 20
1187.499765724458
 30
0.0
 11
434.0000000000006
 21
1159.499765724458
 31
0.0
  0
LINE
  5
891
330
1D9
100
AcDbEntity
  8
0
100
AcDbLine
 10
519.9999999999996
 20
1029.999531448915
 30
0.0
 11
519.9999999999996
 21
1102.999765724456
 31
0.0
  0
ARC
  5
892
330
1D9
100
AcDbEntity
  8
0
100
AcDbCircle
 10
462.9999999999988
 20
1105.499765724456
 30
0.0
 40
15.0
100
AcDbArc
 50
270.0
 51
0.0
  0
ARC
  5
893
330
1D9
100
AcDbEntity
  8
0
100
AcDbCircle
 10
472.9999999999987
 20
1084.160019762301
 30
0.0
 40
15.0
100
AcDbArc
 50
0.0
 51
29.99999999999376
  0
LINE
  5
894
330
1D9
100
AcDbEntity
  8
0
100
AcDbLine
 10
519.9999999999996
 20
1029.999531448915
 30
0.0
 11
454.2836236413227
 21
1029.999531448915
 31
0.0
  0
ARC
  5
895
330
1D9
100
AcDbEntity
  8
0
100
AcDbCircle
 10
472.9999999999987
 20
1049.312928977613
 30
0.0
 40
15.0
100
AcDbArc
 50
282.0000000000028
 51
0.0
  0
CIRCLE
  5
897
330
1D9
100
AcDbEntity
  8
0
100
AcDbCircle
 10
458.9999999999998
 20
1065.500531448914
 30
0.0
 40
8.000000000000049
  0
CIRCLE
  5
898
330
1D9
100
AcDbEntity
  8
0
100
AcDbCircle
 10
458.9999999999998
 20
1065.500531448914
 30
0.0
 40
6.560000000000047
  0
CIRCLE
  5
899
330
1D9
100
AcDbEntity
  8
0
100
AcDbCircle
 10
458.9999999999998
 20
1065.500531448914
 30
0.0
 40
12.0000000000005
  0
CIRCLE
  5
89A
330
1D9
100
AcDbEntity
  8
0
100
AcDbCircle
 10
458.9999999999998
 20
1065.500531448914
 30
0.0
 40
15.00000000000049
  0
LINE
  5
89B
330
1D9
100
AcDbEntity
  8
0
100
AcDbLine
 10
458.9999999999998
 20
1045.438031448915
 30
0.0
 11
458.9999999999998
 21
1085.563031448914
 31
0.0
  0
LINE
  5
89C
330
1D9
100
AcDbEntity
  8
0
100
AcDbLine
 10
462.9999999999988
 20
1090.499765724456
 30
0.0
 11
459.0000000000006
 21
1090.499765724456
 31
0.0
  0
CIRCLE
  5
89D
330
1D9
100
AcDbEntity
  8
0
100
AcDbCircle
 10
504.9999999999998
 20
1062.499765724457
 30
0.0
 40
7.5
  0
LINE
  5
89E
330
1D9
100
AcDbEntity
  8
0
100
AcDbLine
 10
492.5000000000011
 20
1062.499765724457
 30
0.0
 11
517.4999999999998
 21
1062.499765724457
 31
0.0
  0
LINE
  5
89F
330
1D9
100
AcDbEntity
  8
0
100
AcDbLine
 10
487.9999999999988
 20
1049.312928977613
 30
0.0
 11
487.9999999999988
 21
1084.160019762301
 31
0.0
  0
LINE
  5
8A0
330
1D9
100
AcDbEntity
  8
0
100
AcDbLine
 10
504.9999999999998
 20
1074.999765724456
 30
0.0
 11
504.9999999999998
 21
1049.999765724457
 31
0.0
  0
LINE
  5
8A1
330
1D9
100
AcDbEntity
  8
0
100
AcDbLine
 10
519.9999999999996
 20
1194.999999999999
 30
0.0
 11
454.2836236413227
 21
1194.999999999999
 31
0.0
  0
ARC
  5
8A2
330
1D9
100
AcDbEntity
  8
0
100
AcDbCircle
 10
472.9999999999987
 20
1175.686602471301
 30
0.0
 40
15.0
100
AcDbArc
 50
0.0
 51
77.99999999999704
  0
LINE
  5
8A3
330
1D9
100
AcDbEntity
  8
0
100
AcDbLine
 10
479.4067332602621
 20
1121.936299203931
 30
0.0
 11
485.990381056765
 21
1133.339511686613
 31
0.0
  0
LINE
  5
8A4
330
1D9
100
AcDbEntity
  8
0
100
AcDbLine
 10
479.4067332602621
 20
1103.063232244983
 30
0.0
 11
485.990381056765
 21
1091.6600197623
 31
0.0
  0
CIRCLE
  5
8A6
330
1D9
100
AcDbEntity
  8
0
100
AcDbCircle
 10
458.9999999999998
 20
1159.499
 30
0.0
 40
12.0000000000005
  0
CIRCLE
  5
8A7
330
1D9
100
AcDbEntity
  8
0
100
AcDbCircle
 10
458.9999999999998
 20
1159.499
 30
0.0
 40
15.00000000000049
  0
LINE
  5
8A8
330
1D9
100
AcDbEntity
  8
0
100
AcDbLine
 10
458.9999999999998
 20
1179.561499999999
 30
0.0
 11
458.9999999999998
 21
1139.436499999999
 31
0.0
  0
ARC
  5
8A9
330
1D9
100
AcDbEntity
  8
0
100
AcDbCircle
 10
462.9999999999988
 20
1119.499765724458
 30
0.0
 40
15.0
100
AcDbArc
 50
0.0
 51
90.0
  0
LINE
  5
8AA
330
1D9
100
AcDbEntity
  8
0
100
AcDbLine
 10
462.9999999999993
 20
1134.499765724458
 30
0.0
 11
459.0000000000006
 21
1134.499765724458
 31
0.0
  0
ARC
  5
8AB
330
1D9
100
AcDbEntity
  8
0
100
AcDbCircle
 10
488.4999999999989
 20
1116.686299203931
 30
0.0
 40
10.5
100
AcDbArc
 50
150.0000000000061
 51
180.0
  0
ARC
  5
8AC
330
1D9
100
AcDbEntity
  8
0
100
AcDbCircle
 10
488.4999999999989
 20
1108.313232244983
 30
0.0
 40
10.5
100
AcDbArc
 50
180.0
 51
209.9999999999937
  0
LINE
  5
8AD
330
1D9
100
AcDbEntity
  8
0
100
AcDbLine
 10
477.9999999999986
 20
1119.499765724458
 30
0.0
 11
477.9999999999986
 21
1105.499765724456
 31
0.0
  0
CIRCLE
  5
8AE
330
1D9
100
AcDbEntity
  8
0
100
AcDbCircle
 10
458.9999999999998
 20
1159.499
 30
0.0
 40
6.560000000000047
  0
CIRCLE
  5
8AF
330
1D9
100
AcDbEntity
  8
0
100
AcDbCircle
 10
458.9999999999998
 20
1159.499
 30
0.0
 40
8.000000000000049
  0
LINE
  5
8B0
330
1D9
100
AcDbEntity
  8
0
100
AcDbLine
 10
519.9999999999996
 20
1121.999765724458
 30
0.0
 11
519.9999999999996
 21
1194.999999999999
 31
0.0
  0
LINE
  5
8B1
330
1D9
100
AcDbEntity
  8
0
100
AcDbLine
 10
487.9999999999988
 20
1175.686602471301
 30
0.0
 11
487.9999999999988
 21
1140.839511686613
 31
0.0
  0
ARC
  5
8B2
330
1D9
100
AcDbEntity
  8
0
100
AcDbCircle
 10
504.9999999999998
 20
1112.499765724457
 30
0.0
 40
9.5
100
AcDbArc
 50
90.0
 51
270.0
  0
ARC
  5
8B3
330
1D9
100
AcDbEntity
  8
0
100
AcDbCircle
 10
472.9999999999987
 20
1140.839511686613
 30
0.0
 40
15.0
100
AcDbArc
 50
330.0000000000062
 51
0.0
  0
LINE
  5
8B4
330
1D9
100
AcDbEntity
  8
0
100
AcDbLine
 10
504.9999999999998
 20
1102.999765724458
 30
0.0
 11
504.9999999999998
 21
1121.999765724455
 31
0.0
  0
LINE
  5
8B5
330
1D9
100
AcDbEntity
  8
0
100
AcDbLine
 10
519.9999999999996
 20
1102.999765724456
 30
0.0
 11
504.9999999999998
 21
1102.999765724459
 31
0.0
  0
LINE
  5
8B6
330
1D9
100
AcDbEntity
  8
0
100
AcDbLine
 10
519.9999999999996
 20
1121.999765724458
 30
0.0
 11
504.9999999999998
 21
1121.999765724456
 31
0.0
  0
LINE
  5
8B7
330
1D9
100
AcDbEntity
  8
0
100
AcDbLine
 10
492.5000000000011
 20
1162.499765724457
 30
0.0
 11
517.4999999999998
 21
1162.499765724457
 31
0.0
  0
CIRCLE
  5
8B8
330
1D9
100
AcDbEntity
  8
0
100
AcDbCircle
 10
504.9999999999998
 20
1162.499765724457
 30
0.0
 40
7.5
  0
LINE
  5
8B9
330
1D9
100
AcDbEntity
  8
0
100
AcDbLine
 10
504.9999999999998
 20
1149.999765724458
 30
0.0
 11
504.9999999999998
 21
1174.999765724457
 31
0.0
  0
LINE
  5
922
330
1D9
100
AcDbEntity
  8
0
100
AcDbLine
 10
678.0001421311792
 20
818.4997754473842
 30
0.0
 11
731.9986106822632
 21
818.4997754473842
 31
0.0
  0
LINE
  5
923
330
1D9
100
AcDbEntity
  8
0
100
AcDbLine
 10
690.1677911289754
 20
774.0538305933511
 30
0.0
 11
683.7386333762885
 21
766.981757065395
 31
0.0
  0
LINE
  5
924
330
1D9
100
AcDbEntity
  8
0
100
AcDbLine
 10
670.0001421311797
 20
805.4997754473841
 30
0.0
 11
849.9986106822642
 21
805.4997754473838
 31
0.0
  0
LINE
  5
925
330
1D9
100
AcDbEntity
  8
0
100
AcDbLine
 10
680.0001421311796
 20
863.4997754473841
 30
0.0
 11
840.0001421311795
 21
863.4997754473841
 31
0.0
  0
LINE
  5
926
330
1D9
100
AcDbEntity
  8
0
100
AcDbLine
 10
677.5001421311792
 20
759.9997754473841
 30
0.0
 11
842.5001421311797
 21
759.9997754473839
 31
0.0
  0
LINE
  5
927
330
1D9
100
AcDbEntity
  8
0
100
AcDbLine
 10
677.5001421311792
 20
765.9997754473842
 30
0.0
 11
842.5001421311797
 21
765.9997754473837
 31
0.0
  0
ARC
  5
92B
330
1D9
100
AcDbEntity
  8
0
100
AcDbCircle
 10
680.0001421311796
 20
853.499775447384
 30
0.0
 40
10.0
100
AcDbArc
 50
90.0
 51
180.0
  0
LINE
  5
92C
330
1D9
100
AcDbEntity
  8
0
100
AcDbLine
 10
681.6044155366177
 20
805.4997754473841
 30
0.0
 11
682.2595897372008
 21
767.9648706345094
 31
0.0
  0
LINE
  5
92D
330
1D9
100
AcDbEntity
  8
0
100
AcDbLine
 10
677.5001421311792
 20
765.9997754473842
 30
0.0
 11
677.5001421311792
 21
759.9997754473841
 31
0.0
  0
ARC
  5
92E
330
1D9
100
AcDbEntity
  8
0
100
AcDbCircle
 10
684.2592851275136
 20
767.999775447384
 30
0.0
 40
2.0
100
AcDbArc
 50
180.9999999999985
 51
232.4463314010355
  0
ARC
  5
92F
330
1D9
100
AcDbEntity
  8
0
100
AcDbCircle
 10
681.5188131561
 20
768.9997754473842
 30
0.0
 40
3.0
100
AcDbArc
 50
270.0
 51
317.7263109939053
  0
ARC
  5
930
330
1D9
100
AcDbEntity
  8
0
100
AcDbCircle
 10
678.0001421311791
 20
810.4997754473837
 30
0.0
 40
8.0
100
AcDbArc
 50
90.0
 51
180.0
  0
LINE
  5
931
330
1D9
100
AcDbEntity
  8
0
100
AcDbLine
 10
670.0001421311797
 20
853.4997754473842
 30
0.0
 11
670.0001421311797
 21
805.4997754473841
 31
0.0
  0
LINE
  5
935
330
1D9
100
AcDbEntity
  8
0
100
AcDbLine
 10
836.249726655711
 20
765.9997754473837
 30
0.0
 11
760.0001421311795
 21
765.9997754473842
 31
0.0
  0
ARC
  5
936
330
1D9
100
AcDbEntity
  8
0
100
AcDbCircle
 10
747.998610682263
 20
853.4997754473836
 30
0.0
 40
10.0
100
AcDbArc
 50
90.0
 51
180.0
  0
LINE
  5
937
330
1D9
100
AcDbEntity
  8
0
100
AcDbLine
 10
760.0001421311795
 20
748.8244522985585
 30
0.0
 11
760.0001421311798
 21
872.0901448275467
 31
0.0
  0
LINE
  5
938
330
1D9
100
AcDbEntity
  8
0
100
AcDbLine
 10
713.0001421311797
 20
753.2012946356384
 30
0.0
 11
713.0001421311797
 21
862.9997754473839
 31
0.0
  0
ARC
  5
939
330
1D9
100
AcDbEntity
  8
0
100
AcDbCircle
 10
729.1730324728192
 20
767.9997754473841
 30
0.0
 40
9.0
100
AcDbArc
 50
42.27368900609464
 51
90.0
  0
LINE
  5
93A
330
1D9
100
AcDbEntity
  8
0
100
AcDbLine
 10
732.0001421311792
 20
821.4997754473841
 30
0.0
 11
694.0001421311792
 21
821.4997754473841
 31
0.0
  0
LINE
  5
93B
330
1D9
100
AcDbEntity
  8
0
100
AcDbLine
 10
731.5001421311783
 20
818.4997754473839
 30
0.0
 11
726.5001421311795
 21
818.4997754473839
 31
0.0
  0
LINE
  5
93C
330
1D9
100
AcDbEntity
  8
0
100
AcDbLine
 10
719.8896575190716
 20
789.9997720643706
 30
0.0
 11
719.8896575190716
 21
805.4997754473841
 31
0.0
  0
LINE
  5
93D
330
1D9
100
AcDbEntity
  8
0
100
AcDbLine
 10
720.9896775190718
 20
805.4997754473841
 30
0.0
 11
720.989677519072
 21
789.9997720643706
 31
0.0
  0
LINE
  5
93E
330
1D9
100
AcDbEntity
  8
0
100
AcDbLine
 10
706.0896375190718
 20
789.9997720643706
 30
0.0
 11
706.0896375190718
 21
805.4997754473841
 31
0.0
  0
LINE
  5
93F
330
1D9
100
AcDbEntity
  8
0
100
AcDbLine
 10
704.9896175190716
 20
805.4997754473841
 30
0.0
 11
704.9896175190716
 21
789.9997720643706
 31
0.0
  0
LINE
  5
940
330
1D9
100
AcDbEntity
  8
0
100
AcDbLine
 10
723.392495563468
 20
789.9997720643706
 30
0.0
 11
702.6078855634679
 21
789.9997720643706
 31
0.0
  0
ARC
  5
941
330
1D9
100
AcDbEntity
  8
0
100
AcDbCircle
 10
713.0001855634677
 20
771.6786090643704
 30
0.0
 40
18.32118299999999
100
AcDbArc
 50
67.78071000000483
 51
112.2193300000031
  0
LINE
  5
942
330
1D9
100
AcDbEntity
  8
0
100
AcDbLine
 10
696.827251789539
 20
776.9997754473842
 30
0.0
 11
729.1730324728198
 21
776.9997754473842
 31
0.0
  0
ARC
  5
943
330
1D9
100
AcDbEntity
  8
0
100
AcDbCircle
 10
702.6078855634679
 20
784.9093230643703
 30
0.0
 40
5.090450299999996
100
AcDbArc
 50
47.11664000000771
 51
132.8833200000043
  0
ARC
  5
944
330
1D9
100
AcDbEntity
  8
0
100
AcDbCircle
 10
696.8272517895385
 20
767.9997754473841
 30
0.0
 40
9.0
100
AcDbArc
 50
90.0
 51
137.7263109939053
  0
LINE
  5
945
330
1D9
100
AcDbEntity
  8
0
100
AcDbLine
 10
699.143795563468
 20
788.6393110643705
 30
0.0
 11
699.143795563468
 21
776.9997890643707
 31
0.0
  0
LINE
  5
946
330
1D9
100
AcDbEntity
  8
0
100
AcDbLine
 10
706.0719755634679
 20
788.6393110643705
 30
0.0
 11
706.0719755634679
 21
776.9997890643707
 31
0.0
  0
ARC
  5
947
330
1D9
100
AcDbEntity
  8
0
100
AcDbCircle
 10
723.392495563468
 20
784.9093230643703
 30
0.0
 40
5.090450299999996
100
AcDbArc
 50
47.11668999999612
 51
132.8833699999999
  0
LINE
  5
948
330
1D9
100
AcDbEntity
  8
0
100
AcDbLine
 10
719.9283955634679
 20
788.6393110643705
 30
0.0
 11
719.9283955634679
 21
776.9997890643707
 31
0.0
  0
LINE
  5
949
330
1D9
100
AcDbEntity
  8
0
100
AcDbLine
 10
726.856585563468
 20
788.6393110643705
 30
0.0
 11
726.856585563468
 21
776.9997890643707
 31
0.0
  0
LINE
  5
94B
330
1D9
100
AcDbEntity
  8
0
100
AcDbLine
 10
726.5001421311795
 20
818.4997754473839
 30
0.0
 11
699.5001421311792
 21
818.4997754473839
 31
0.0
  0
LINE
  5
94C
330
1D9
100
AcDbEntity
  8
0
100
AcDbLine
 10
698.0001421311792
 20
824.4997754473841
 30
0.0
 11
728.0001421311792
 21
824.4997754473841
 31
0.0
  0
LINE
  5
94D
330
1D9
100
AcDbEntity
  8
0
100
AcDbLine
 10
726.8565485917301
 20
824.4997754473841
 30
0.0
 11
699.143735670628
 21
824.4997754473841
 31
0.0
  0
LINE
  5
94F
330
1D9
100
AcDbEntity
  8
0
100
AcDbLine
 10
694.0001421311792
 20
818.4997754473842
 30
0.0
 11
694.0001421311792
 21
821.4997754473841
 31
0.0
  0
LINE
  5
950
330
1D9
100
AcDbEntity
  8
0
100
AcDbLine
 10
698.0001421311792
 20
821.4997754473841
 30
0.0
 11
698.0001421311792
 21
824.4997754473841
 31
0.0
  0
LINE
  5
951
330
1D9
100
AcDbEntity
  8
0
100
AcDbLine
 10
728.0001421311792
 20
824.4997754473841
 30
0.0
 11
728.0001421311792
 21
821.4997754473841
 31
0.0
  0
LINE
  5
952
330
1D9
100
AcDbEntity
  8
0
100
AcDbLine
 10
735.8324931333831
 20
774.0538305933511
 30
0.0
 11
742.2616508860702
 21
766.981757065395
 31
0.0
  0
LINE
  5
953
330
1D9
100
AcDbEntity
  8
0
100
AcDbLine
 10
750.5009078556359
 20
765.9997754473837
 30
0.0
 11
750.5009078556359
 21
759.9997754473839
 31
0.0
  0
LINE
  5
955
330
1D9
100
AcDbEntity
  8
0
100
AcDbLine
 10
769.4993764067231
 20
765.9997754473837
 30
0.0
 11
769.4993764067231
 21
759.9997754473839
 31
0.0
  0
LINE
  5
956
330
1D9
100
AcDbEntity
  8
0
100
AcDbLine
 10
737.9986106822632
 20
853.4997754473842
 30
0.0
 11
737.9986106822632
 21
824.4997754473841
 31
0.0
  0
ARC
  5
957
330
1D9
100
AcDbEntity
  8
0
100
AcDbCircle
 10
731.9986106822632
 20
824.4997754473839
 30
0.0
 40
6.0
100
AcDbArc
 50
270.0
 51
0.0
  0
LINE
  5
958
330
1D9
100
AcDbEntity
  8
0
100
AcDbLine
 10
732.0001421311792
 20
818.4997754473842
 30
0.0
 11
732.0001421311792
 21
821.4997754473841
 31
0.0
  0
ARC
  5
959
330
1D9
100
AcDbEntity
  8
0
100
AcDbCircle
 10
840.0001421311795
 20
853.4997754473836
 30
0.0
 40
10.0
100
AcDbArc
 50
0.0
 51
90.0
  0
ARC
  5
95A
330
1D9
100
AcDbEntity
  8
0
100
AcDbCircle
 10
772.0016735800958
 20
853.4997754473836
 30
0.0
 40
10.0
100
AcDbArc
 50
0.0
 51
90.0
  0
LINE
  5
95B
330
1D9
100
AcDbEntity
  8
0
100
AcDbLine
 10
807.0001421311797
 20
753.2012946356384
 30
0.0
 11
807.0001421311797
 21
862.9997754473839
 31
0.0
  0
LINE
  5
95C
330
1D9
100
AcDbEntity
  8
0
100
AcDbLine
 10
796.6077886988914
 20
789.9997720643706
 30
0.0
 11
817.3923986988912
 21
789.9997720643706
 31
0.0
  0
ARC
  5
95D
330
1D9
100
AcDbEntity
  8
0
100
AcDbCircle
 10
807.0000986988912
 20
771.6786090643704
 30
0.0
 40
18.32118299999999
100
AcDbArc
 50
67.78066999999679
 51
112.219290000009
  0
LINE
  5
95F
330
1D9
100
AcDbEntity
  8
0
100
AcDbLine
 10
820.5001421311798
 20
818.4997754473839
 30
0.0
 11
793.5001421311794
 21
818.4997754473839
 31
0.0
  0
LINE
  5
960
330
1D9
100
AcDbEntity
  8
0
100
AcDbLine
 10
826.0001421311798
 20
821.4997754473841
 30
0.0
 11
788.0001421311797
 21
821.4997754473841
 31
0.0
  0
LINE
  5
961
330
1D9
100
AcDbEntity
  8
0
100
AcDbLine
 10
792.0001421311797
 20
824.4997754473841
 30
0.0
 11
822.0001421311797
 21
824.4997754473841
 31
0.0
  0
LINE
  5
962
330
1D9
100
AcDbEntity
  8
0
100
AcDbLine
 10
820.8565485917308
 20
824.4997754473841
 30
0.0
 11
793.1437356706289
 21
824.4997754473841
 31
0.0
  0
LINE
  5
963
330
1D9
100
AcDbEntity
  8
0
100
AcDbLine
 10
842.0001421311798
 20
818.4997754473839
 30
0.0
 11
788.0016735800958
 21
818.4997754473842
 31
0.0
  0
LINE
  5
964
330
1D9
100
AcDbEntity
  8
0
100
AcDbLine
 10
823.1730324728204
 20
776.9997754473842
 30
0.0
 11
790.8272517895397
 21
776.9997754473842
 31
0.0
  0
LINE
  5
966
330
1D9
100
AcDbEntity
  8
0
100
AcDbLine
 10
800.1106267432875
 20
789.9997720643706
 30
0.0
 11
800.1106267432875
 21
805.4997754473838
 31
0.0
  0
LINE
  5
967
330
1D9
100
AcDbEntity
  8
0
100
AcDbLine
 10
799.0106067432876
 20
805.4997754473838
 30
0.0
 11
799.0106067432872
 21
789.9997720643706
 31
0.0
  0
LINE
  5
968
330
1D9
100
AcDbEntity
  8
0
100
AcDbLine
 10
784.1677911289763
 20
774.0538305933511
 30
0.0
 11
777.7386333762889
 21
766.981757065395
 31
0.0
  0
ARC
  5
969
330
1D9
100
AcDbEntity
  8
0
100
AcDbCircle
 10
775.5188131561009
 20
768.9997754473842
 30
0.0
 40
3.0
100
AcDbArc
 50
270.0
 51
317.7263109939053
  0
ARC
  5
96A
330
1D9
100
AcDbEntity
  8
0
100
AcDbCircle
 10
790.8272517895392
 20
767.9997754473841
 30
0.0
 40
9.0
100
AcDbArc
 50
90.0
 51
137.7263109939053
  0
ARC
  5
96B
330
1D9
100
AcDbEntity
  8
0
100
AcDbCircle
 10
796.6077886988911
 20
784.9093230643703
 30
0.0
 40
5.090450299999996
100
AcDbArc
 50
47.11663
 51
132.8833100000032
  0
LINE
  5
96C
330
1D9
100
AcDbEntity
  8
0
100
AcDbLine
 10
800.0718886988913
 20
788.6393110643705
 30
0.0
 11
800.0718886988913
 21
776.9997890643707
 31
0.0
  0
LINE
  5
96D
330
1D9
100
AcDbEntity
  8
0
100
AcDbLine
 10
793.1436986988916
 20
788.6393110643705
 30
0.0
 11
793.1436986988911
 21
776.9997890643707
 31
0.0
  0
LINE
  5
96E
330
1D9
100
AcDbEntity
  8
0
100
AcDbLine
 10
782.0016735800958
 20
853.4997754473842
 30
0.0
 11
782.0016735800958
 21
824.4997754473841
 31
0.0
  0
ARC
  5
96F
330
1D9
100
AcDbEntity
  8
0
100
AcDbCircle
 10
788.0016735800958
 20
824.4997754473839
 30
0.0
 40
6.0
100
AcDbArc
 50
180.0
 51
270.0
  0
LINE
  5
970
330
1D9
100
AcDbEntity
  8
0
100
AcDbLine
 10
788.0001421311797
 20
818.4997754473842
 30
0.0
 11
788.0001421311797
 21
821.4997754473841
 31
0.0
  0
LINE
  5
971
330
1D9
100
AcDbEntity
  8
0
100
AcDbLine
 10
792.0001421311797
 20
821.4997754473841
 30
0.0
 11
792.0001421311797
 21
824.4997754473841
 31
0.0
  0
LINE
  5
972
330
1D9
100
AcDbEntity
  8
0
100
AcDbLine
 10
813.9106467432876
 20
789.9997720643706
 30
0.0
 11
813.9106467432876
 21
805.4997754473841
 31
0.0
  0
LINE
  5
973
330
1D9
100
AcDbEntity
  8
0
100
AcDbLine
 10
815.0106667432876
 20
805.4997754473841
 30
0.0
 11
815.0106667432876
 21
789.9997720643706
 31
0.0
  0
LINE
  5
974
330
1D9
100
AcDbEntity
  8
0
100
AcDbLine
 10
838.3958687257415
 20
805.4997754473838
 30
0.0
 11
837.7406945251587
 21
767.9648706345094
 31
0.0
  0
LINE
  5
975
330
1D9
100
AcDbEntity
  8
0
100
AcDbLine
 10
829.8324931333842
 20
774.0538305933511
 30
0.0
 11
836.261650886071
 21
766.9817570653947
 31
0.0
  0
ARC
  5
976
330
1D9
100
AcDbEntity
  8
0
100
AcDbCircle
 10
817.3923986988912
 20
784.9093230643703
 30
0.0
 40
5.090450299999996
100
AcDbArc
 50
47.11667999999617
 51
132.8833599999921
  0
LINE
  5
977
330
1D9
100
AcDbEntity
  8
0
100
AcDbLine
 10
813.9283086988912
 20
788.6393110643705
 30
0.0
 11
813.9283086988912
 21
776.9997890643707
 31
0.0
  0
LINE
  5
978
330
1D9
100
AcDbEntity
  8
0
100
AcDbLine
 10
820.8564886988911
 20
788.6393110643705
 30
0.0
 11
820.8564886988911
 21
776.9997890643707
 31
0.0
  0
ARC
  5
979
330
1D9
100
AcDbEntity
  8
0
100
AcDbCircle
 10
823.1730324728202
 20
767.9997754473841
 30
0.0
 40
9.0
100
AcDbArc
 50
42.27368900609464
 51
90.0
  0
LINE
  5
97A
330
1D9
100
AcDbEntity
  8
0
100
AcDbLine
 10
842.5001421311797
 20
765.9997754473837
 30
0.0
 11
842.5001421311797
 21
759.9997754473839
 31
0.0
  0
ARC
  5
97B
330
1D9
100
AcDbEntity
  8
0
100
AcDbCircle
 10
835.7409991348458
 20
767.999775447384
 30
0.0
 40
2.0
100
AcDbArc
 50
307.5536685989645
 51
359.0000000000014
  0
ARC
  5
97C
330
1D9
100
AcDbEntity
  8
0
100
AcDbCircle
 10
838.4814711062587
 20
768.9997754473842
 30
0.0
 40
3.0
100
AcDbArc
 50
222.2736890060946
 51
270.0
  0
LINE
  5
97D
330
1D9
100
AcDbEntity
  8
0
100
AcDbLine
 10
825.5001421311787
 20
818.4997754473839
 30
0.0
 11
820.5001421311798
 21
818.4997754473839
 31
0.0
  0
LINE
  5
97E
330
1D9
100
AcDbEntity
  8
0
100
AcDbLine
 10
822.0001421311797
 20
824.4997754473841
 30
0.0
 11
822.0001421311797
 21
821.4997754473841
 31
0.0
  0
LINE
  5
97F
330
1D9
100
AcDbEntity
  8
0
100
AcDbLine
 10
826.0001421311795
 20
818.4997754473842
 30
0.0
 11
826.0001421311795
 21
821.4997754473841
 31
0.0
  0
LINE
  5
980
330
1D9
100
AcDbEntity
  8
0
100
AcDbLine
 10
850.0001421311795
 20
853.499775447384
 30
0.0
 11
850.0001421311798
 21
805.4997754473841
 31
0.0
  0
ARC
  5
981
330
1D9
100
AcDbEntity
  8
0
100
AcDbCircle
 10
842.0001421311795
 20
810.4997754473837
 30
0.0
 40
8.0
100
AcDbArc
 50
0.0
 51
90.0
  0
TEXT
  5
1BB9
330
1D9
100
AcDbEntity
  8
0
100
AcDbText
 10
475.0
 20
10.0
 30
0.0
 40
17.5
  1
BU-○○○○SL（上記）
  7
MONO-SET
100
AcDbText
  0
TEXT
  5
1BBA
330
1D9
100
AcDbEntity
  8
0
100
AcDbText
 10
475.0
 20
69.31165893730895
 30
0.0
 40
17.5
  1
ボックス形防振ユニット
 41
0.8
  7
MONO-SET
100
AcDbText
  0
LINE
  5
1C5E
330
1D9
100
AcDbEntity
  8
0
100
AcDbLine
 10
210.9375
 20
1159.498999999999
 30
0.0
 11
251.0625
 21
1159.499
 31
0.0
  0
CIRCLE
  5
1C5F
330
1D9
100
AcDbEntity
  8
0
100
AcDbCircle
 10
231.0000000000002
 20
1159.499
 30
0.0
 40
12.0000000000005
  0
CIRCLE
  5
1C60
330
1D9
100
AcDbEntity
  8
0
100
AcDbCircle
 10
231.0000000000002
 20
1159.499
 30
0.0
 40
19.0
  0
CIRCLE
  5
1C61
330
1D9
100
AcDbEntity
  8
0
100
AcDbCircle
 10
231.0000000000002
 20
1159.499
 30
0.0
 40
15.00000000000049
  0
CIRCLE
  5
1C62
330
1D9
100
AcDbEntity
  8
0
100
AcDbCircle
 10
231.0000000000002
 20
1159.499
 30
0.0
 40
8.000000000000049
  0
CIRCLE
  5
1C64
330
1D9
100
AcDbEntity
  8
0
100
AcDbCircle
 10
231.0000000000002
 20
1159.499
 30
0.0
 40
6.560000000000047
  0
LINE
  5
1C65
330
1D9
100
AcDbEntity
  8
0
100
AcDbLine
 10
231.0
 20
1179.561499999999
 30
0.0
 11
231.0
 21
1139.436499999999
 31
0.0
  0
TEXT
  5
1C7A
330
1D9
100
AcDbEntity
  8
0
100
AcDbText
 10
475.0
 20
48.46217968357951
 30
0.0
 40
17.5
  1
サージング防止機能付
 41
0.8
  7
MONO-SET
100
AcDbText
  0
LINE
  5
200F
330
1D9
100
AcDbEntity
  8
0
100
AcDbLine
 10
424.0000000000001
 20
863.4997754473838
 30
0.0
 11
447.9999999999995
 21
863.4997754473838
 31
0.0
  0
ARC
  5
2010
330
1D9
100
AcDbEntity
  8
0
100
AcDbCircle
 10
424.0000000000001
 20
853.4997754473836
 30
0.0
 40
10.0
100
AcDbArc
 50
0.000000000000007
 51
90.0
  0
LINE
  5
2011
330
1D9
100
AcDbEntity
  8
0
100
AcDbLine
 10
468.0148694223205
 20
863.4997754473832
 30
0.0
 11
344.9999999999997
 21
863.4997754473838
 31
0.0
  0
LINE
  5
2012
330
1D9
100
AcDbEntity
  8
0
100
AcDbLine
 10
344.9999999999997
 20
805.4997754473836
 30
0.0
 11
487.9999999999988
 21
805.4997754473838
 31
0.0
  0
LINE
  5
2013
330
1D9
100
AcDbEntity
  8
0
100
AcDbLine
 10
519.9999999999996
 20
759.9997754473837
 30
0.0
 11
344.9999999999997
 21
759.9997754473839
 31
0.0
  0
LINE
  5
2014
330
1D9
100
AcDbEntity
  8
0
100
AcDbLine
 10
519.9999999999996
 20
765.9997754473837
 30
0.0
 11
344.9999999999997
 21
765.9997754473837
 31
0.0
  0
ARC
  5
2015
330
1D9
100
AcDbEntity
  8
0
100
AcDbCircle
 10
468.0148694223205
 20
853.4997754473831
 30
0.0
 40
10.0
100
AcDbArc
 50
3.124917149133607
 51
90.0
  0
ARC
  5
2016
330
1D9
100
AcDbEntity
  8
0
100
AcDbCircle
 10
479.9999999999989
 20
810.4997754473837
 30
0.0
 40
8.0
100
AcDbArc
 50
0.000000000000007
 51
90.0
  0
ARC
  5
2017
330
1D9
100
AcDbEntity
  8
0
100
AcDbCircle
 10
475.1728903416398
 20
767.999775447384
 30
0.0
 40
9.0
100
AcDbArc
 50
42.27368900609463
 51
90.0
  0
LINE
  5
2018
330
1D9
100
AcDbEntity
  8
0
100
AcDbLine
 10
490.4813289750783
 20
765.9997754473837
 30
0.0
 11
519.9999999999996
 21
765.9997754473837
 31
0.0
  0
LINE
  5
2019
330
1D9
100
AcDbEntity
  8
0
100
AcDbLine
 10
519.9999999999996
 20
759.9997754473837
 30
0.0
 11
519.9999999999996
 21
765.9997754473837
 31
0.0
  0
LINE
  5
201A
330
1D9
100
AcDbEntity
  8
0
100
AcDbLine
 10
481.8323510022032
 20
774.0538305933506
 30
0.0
 11
488.2615087548903
 21
766.9817570653946
 31
0.0
  0
ARC
  5
201B
330
1D9
100
AcDbEntity
  8
0
100
AcDbCircle
 10
490.4813289750783
 20
768.9997754473837
 30
0.0
 40
3.0
100
AcDbArc
 50
222.2736890060946
 51
270.0
  0
LINE
  5
201C
330
1D9
100
AcDbEntity
  8
0
100
AcDbLine
 10
487.9999999999988
 20
805.4997754473838
 30
0.0
 11
487.9999999999988
 21
810.4997754473837
 31
0.0
  0
LINE
  5
201D
330
1D9
100
AcDbEntity
  8
0
100
AcDbLine
 10
451.0104646121066
 20
805.4997754473838
 30
0.0
 11
451.0104646121066
 21
789.9997720643701
 31
0.0
  0
LINE
  5
201E
330
1D9
100
AcDbEntity
  8
0
100
AcDbLine
 10
467.0105246121072
 20
805.4997754473838
 30
0.0
 11
467.0105246121072
 21
789.9997720643701
 31
0.0
  0
LINE
  5
201F
330
1D9
100
AcDbEntity
  8
0
100
AcDbLine
 10
465.9105046121069
 20
789.9997720643701
 30
0.0
 11
465.9105046121069
 21
805.4997754473838
 31
0.0
  0
LINE
  5
2020
330
1D9
100
AcDbEntity
  8
0
100
AcDbLine
 10
452.1104846121071
 20
789.9997720643701
 30
0.0
 11
452.1104846121071
 21
805.4997754473838
 31
0.0
  0
ARC
  5
2021
330
1D9
100
AcDbEntity
  8
0
100
AcDbCircle
 10
458.999956567711
 20
771.6786090643702
 30
0.0
 40
18.32118299999999
100
AcDbArc
 50
67.78066999999679
 51
112.2192899999951
  0
LINE
  5
2022
330
1D9
100
AcDbEntity
  8
0
100
AcDbLine
 10
448.6076465677108
 20
789.9997720643701
 30
0.0
 11
469.392256567711
 21
789.9997720643701
 31
0.0
  0
LINE
  5
2023
330
1D9
100
AcDbEntity
  8
0
100
AcDbLine
 10
475.1728903416398
 20
776.9997754473839
 30
0.0
 11
442.8271096583592
 21
776.9997754473839
 31
0.0
  0
LINE
  5
2024
330
1D9
100
AcDbEntity
  8
0
100
AcDbLine
 10
475.1728903416398
 20
776.9997754473839
 30
0.0
 11
442.8271096583592
 21
776.9997754473839
 31
0.0
  0
ARC
  5
2025
330
1D9
100
AcDbEntity
  8
0
100
AcDbCircle
 10
469.392256567711
 20
784.9093230643703
 30
0.0
 40
5.090450299999996
100
AcDbArc
 50
47.11667999999481
 51
132.8833600000072
  0
LINE
  5
2026
330
1D9
100
AcDbEntity
  8
0
100
AcDbLine
 10
472.8563465677106
 20
788.6393110643703
 30
0.0
 11
472.8563465677106
 21
776.9997890643702
 31
0.0
  0
LINE
  5
2027
330
1D9
100
AcDbEntity
  8
0
100
AcDbLine
 10
465.9281665677106
 20
788.6393110643703
 30
0.0
 11
465.9281665677108
 21
776.9997890643702
 31
0.0
  0
LINE
  5
2028
330
1D9
100
AcDbEntity
  8
0
100
AcDbLine
 10
436.1676489977956
 20
774.0538305933506
 30
0.0
 11
429.7384912451086
 21
766.9817570653946
 31
0.0
  0
ARC
  5
2029
330
1D9
100
AcDbEntity
  8
0
100
AcDbCircle
 10
427.5186710249206
 20
768.9997754473837
 30
0.0
 40
3.0
100
AcDbArc
 50
270.0
 51
317.7263109939053
  0
ARC
  5
202A
330
1D9
100
AcDbEntity
  8
0
100
AcDbCircle
 10
442.8271096583592
 20
767.999775447384
 30
0.0
 40
9.0
100
AcDbArc
 50
90.0
 51
137.7263109939053
  0
LINE
  5
202B
330
1D9
100
AcDbEntity
  8
0
100
AcDbLine
 10
445.1435565677107
 20
788.6393110643703
 30
0.0
 11
445.1435565677107
 21
776.9997890643702
 31
0.0
  0
LINE
  5
202C
330
1D9
100
AcDbEntity
  8
0
100
AcDbLine
 10
452.0717465677106
 20
788.6393110643703
 30
0.0
 11
452.0717465677106
 21
776.9997890643702
 31
0.0
  0
ARC
  5
202D
330
1D9
100
AcDbEntity
  8
0
100
AcDbCircle
 10
448.6076465677108
 20
784.9093230643703
 30
0.0
 40
5.090450299999996
100
AcDbArc
 50
47.11663000000057
 51
132.8833100000044
  0
LINE
  5
2030
330
1D9
100
AcDbEntity
  8
0
100
AcDbLine
 10
445.1435935394486
 20
824.4997754473837
 30
0.0
 11
472.8564064605505
 21
824.4997754473837
 31
0.0
  0
LINE
  5
2031
330
1D9
100
AcDbEntity
  8
0
100
AcDbLine
 10
473.9999999999997
 20
824.4997754473837
 30
0.0
 11
443.9999999999995
 21
824.4997754473837
 31
0.0
  0
LINE
  5
2032
330
1D9
100
AcDbEntity
  8
0
100
AcDbLine
 10
439.9999999999997
 20
821.4997754473838
 30
0.0
 11
477.9999999999997
 21
821.4997754473838
 31
0.0
  0
LINE
  5
2033
330
1D9
100
AcDbEntity
  8
0
100
AcDbLine
 10
445.4999999999991
 20
818.4997754473837
 30
0.0
 11
472.4999999999996
 21
818.4997754473837
 31
0.0
  0
LINE
  5
2034
330
1D9
100
AcDbEntity
  8
0
100
AcDbLine
 10
477.9999999999984
 20
854.044906025061
 30
0.0
 11
477.9999999999984
 21
818.4997754473837
 31
0.0
  0
LINE
  5
2035
330
1D9
100
AcDbEntity
  8
0
100
AcDbLine
 10
473.9999999999997
 20
821.4997754473838
 30
0.0
 11
473.9999999999997
 21
824.4997754473837
 31
0.0
  0
LINE
  5
2036
330
1D9
100
AcDbEntity
  8
0
100
AcDbLine
 10
477.9999999999993
 20
818.4997754473837
 30
0.0
 11
477.9999999999993
 21
821.4997754473838
 31
0.0
  0
LINE
  5
2037
330
1D9
100
AcDbEntity
  8
0
100
AcDbLine
 10
472.4999999999993
 20
818.4997754473837
 30
0.0
 11
479.9999999999989
 21
818.4997754473837
 31
0.0
  0
LINE
  5
2038
330
1D9
100
AcDbEntity
  8
0
100
AcDbLine
 10
434.0000000000006
 20
824.4997754473835
 30
0.0
 11
434.0000000000001
 21
853.4997754473836
 31
0.0
  0
ARC
  5
2039
330
1D9
100
AcDbEntity
  8
0
100
AcDbCircle
 10
440.0000000000006
 20
824.4997754473835
 30
0.0
 40
6.0
100
AcDbArc
 50
180.0
 51
270.0
  0
LINE
  5
203A
330
1D9
100
AcDbEntity
  8
0
100
AcDbLine
 10
439.9999999999997
 20
818.4997754473837
 30
0.0
 11
439.9999999999997
 21
821.4997754473838
 31
0.0
  0
LINE
  5
203B
330
1D9
100
AcDbEntity
  8
0
100
AcDbLine
 10
443.9999999999995
 20
824.4997754473837
 30
0.0
 11
443.9999999999995
 21
821.4997754473838
 31
0.0
  0
LINE
  5
203C
330
1D9
100
AcDbEntity
  8
0
100
AcDbLine
 10
440.0000000000006
 20
818.4997754473837
 30
0.0
 11
445.4999999999991
 21
818.4997754473837
 31
0.0
  0
LINE
  5
203D
330
1D9
100
AcDbEntity
  8
0
100
AcDbLine
 10
421.7400954098478
 20
767.9648706345091
 30
0.0
 11
422.3952696104309
 21
805.4997754473838
 31
0.0
  0
ARC
  5
203E
330
1D9
100
AcDbEntity
  8
0
100
AcDbCircle
 10
419.740400019535
 20
767.9997754473837
 30
0.0
 40
2.0
100
AcDbArc
 50
270.0
 51
358.9999999999982
  0
LINE
  5
203F
330
1D9
100
AcDbEntity
  8
0
100
AcDbLine
 10
357.4989679298965
 20
805.4997754473838
 30
0.0
 11
357.4989679298965
 21
786.4997754473837
 31
0.0
  0
LINE
  5
2040
330
1D9
100
AcDbEntity
  8
0
100
AcDbLine
 10
370.5000688046732
 20
805.4997754473838
 30
0.0
 11
370.5000688046732
 21
781.4997754473837
 31
0.0
  0
LINE
  5
2041
330
1D9
100
AcDbEntity
  8
0
100
AcDbLine
 10
458.9999999999993
 20
753.2012946356384
 30
0.0
 11
458.9999999999993
 21
864.5992004022858
 31
0.0
  0
LINE
  5
2042
330
1D9
100
AcDbEntity
  8
0
100
AcDbLine
 10
504.9999999999998
 20
774.7047656550368
 30
0.0
 11
504.9999999999998
 21
749.7047656550381
 31
0.0
  0
ARC
  5
2062
330
1D9
100
AcDbEntity
  8
0
100
AcDbCircle
 10
713.0001421311797
 20
852.8209214473841
 30
0.0
 40
18.32118299999999
100
AcDbArc
 50
247.7806800000026
 51
292.2193000000006
  0
ARC
  5
2063
330
1D9
100
AcDbEntity
  8
0
100
AcDbCircle
 10
713.0001421311797
 20
826.1785384473842
 30
0.0
 40
18.32118299999999
100
AcDbArc
 50
67.78070999999773
 51
112.2193300000017
  0
LINE
  5
2064
330
1D9
100
AcDbEntity
  8
0
100
AcDbLine
 10
723.3924421311797
 20
844.4997184473843
 30
0.0
 11
702.6078371311798
 21
844.4997184473843
 31
0.0
  0
LINE
  5
2065
330
1D9
100
AcDbEntity
  8
0
100
AcDbLine
 10
706.0719331311798
 20
843.1392574473843
 30
0.0
 11
706.0719331311798
 21
835.860208447384
 31
0.0
  0
LINE
  5
2066
330
1D9
100
AcDbEntity
  8
0
100
AcDbLine
 10
699.1437481311797
 20
843.1392514473841
 30
0.0
 11
699.1437481311797
 21
835.8602154473842
 31
0.0
  0
ARC
  5
2067
330
1D9
100
AcDbEntity
  8
0
100
AcDbCircle
 10
702.6078371311798
 20
839.4092694473842
 30
0.0
 40
5.090450299999996
100
AcDbArc
 50
47.11664000000129
 51
132.8833199999968
  0
ARC
  5
2068
330
1D9
100
AcDbEntity
  8
0
100
AcDbCircle
 10
702.6078371311798
 20
839.5901974473842
 30
0.0
 40
5.090450299999996
100
AcDbArc
 50
227.1166900000015
 51
312.8833619999983
  0
LINE
  5
2069
330
1D9
100
AcDbEntity
  8
0
100
AcDbLine
 10
726.8565221311797
 20
843.1392574473843
 30
0.0
 11
726.8565221311797
 21
835.860208447384
 31
0.0
  0
LINE
  5
206A
330
1D9
100
AcDbEntity
  8
0
100
AcDbLine
 10
719.9283321311797
 20
843.1392574473843
 30
0.0
 11
719.9283321311797
 21
835.860208447384
 31
0.0
  0
ARC
  5
206B
330
1D9
100
AcDbEntity
  8
0
100
AcDbCircle
 10
723.3924421311797
 20
839.409269447384
 30
0.0
 40
5.090450299999996
100
AcDbArc
 50
47.1166900000016
 51
132.8833700000012
  0
ARC
  5
206C
330
1D9
100
AcDbEntity
  8
0
100
AcDbCircle
 10
723.3924421311797
 20
839.590197447384
 30
0.0
 40
5.090450299999996
100
AcDbArc
 50
227.1166400000013
 51
312.8833169999972
  0
ARC
  5
206D
330
1D9
100
AcDbEntity
  8
0
100
AcDbCircle
 10
713.0001421311797
 20
842.8209484473843
 30
0.0
 40
18.32118299999999
100
AcDbArc
 50
247.7806800000026
 51
292.2193000000006
  0
ARC
  5
206E
330
1D9
100
AcDbEntity
  8
0
100
AcDbCircle
 10
713.0001421311797
 20
816.1785654473842
 30
0.0
 40
18.32118299999999
100
AcDbArc
 50
67.78070999999773
 51
112.2193300000017
  0
LINE
  5
206F
330
1D9
100
AcDbEntity
  8
0
100
AcDbLine
 10
723.3924421311797
 20
834.4997454473841
 30
0.0
 11
702.6078371311798
 21
834.4997454473841
 31
0.0
  0
LINE
  5
2070
330
1D9
100
AcDbEntity
  8
0
100
AcDbLine
 10
706.0719331311798
 20
833.1392844473841
 30
0.0
 11
706.0719331311798
 21
825.8602354473842
 31
0.0
  0
LINE
  5
2071
330
1D9
100
AcDbEntity
  8
0
100
AcDbLine
 10
699.1437481311797
 20
833.1392784473841
 30
0.0
 11
699.1437481311797
 21
825.8602424473842
 31
0.0
  0
ARC
  5
2072
330
1D9
100
AcDbEntity
  8
0
100
AcDbCircle
 10
702.6078371311798
 20
829.4092964473842
 30
0.0
 40
5.090450299999996
100
AcDbArc
 50
47.11664000000129
 51
132.8833199999968
  0
ARC
  5
2073
330
1D9
100
AcDbEntity
  8
0
100
AcDbCircle
 10
702.6078371311798
 20
829.5902244473841
 30
0.0
 40
5.090450299999996
100
AcDbArc
 50
227.1166900000015
 51
312.8833619999983
  0
LINE
  5
2074
330
1D9
100
AcDbEntity
  8
0
100
AcDbLine
 10
726.8565221311797
 20
833.1392844473841
 30
0.0
 11
726.8565221311797
 21
825.8602354473842
 31
0.0
  0
LINE
  5
2075
330
1D9
100
AcDbEntity
  8
0
100
AcDbLine
 10
719.9283321311797
 20
833.1392844473841
 30
0.0
 11
719.9283321311797
 21
825.8602354473842
 31
0.0
  0
ARC
  5
2076
330
1D9
100
AcDbEntity
  8
0
100
AcDbCircle
 10
723.3924421311797
 20
829.4092964473842
 30
0.0
 40
5.090450299999996
100
AcDbArc
 50
47.1166900000016
 51
132.8833700000012
  0
ARC
  5
2077
330
1D9
100
AcDbEntity
  8
0
100
AcDbCircle
 10
723.3924421311797
 20
829.5902244473841
 30
0.0
 40
5.090450299999996
100
AcDbArc
 50
227.1166400000013
 51
312.8833169999972
  0
LINE
  5
207A
330
1D9
100
AcDbEntity
  8
0
100
AcDbLine
 10
40.0
 20
1404.0
 30
0.0
 11
939.9999999999996
 21
1404.0
 31
0.0
  0
LINE
  5
207C
330
1D9
100
AcDbEntity
  8
0
100
AcDbLine
 10
40.0
 20
1404.0
 30
0.0
 11
40.0
 21
-0.0000000000000044
 31
0.0
  0
LINE
  5
214B
330
1D9
100
AcDbEntity
  8
0
100
AcDbLine
 10
940.0000000000003
 20
1404.0
 30
0.0
 11
940.0000000000003
 21
-0.0000000000002265
 31
0.0
  0
LINE
  5
2158
330
1D9
100
AcDbEntity
  8
0
100
AcDbLine
 10
40.0
 20
0.0
 30
0.0
 11
939.9999999999996
 21
0.0
 31
0.0
  0
LINE
  5
2164
330
1D9
100
AcDbEntity
  8
0
100
AcDbLine
 10
270.4999999999993
 20
1202.499765724458
 30
0.0
 11
74.58649501317636
 21
1202.499765724458
 31
0.0
  0
LINE
  5
2165
330
1D9
100
AcDbEntity
  8
0
100
AcDbLine
 10
270.4999999999993
 20
1022.499765724456
 30
0.0
 11
74.58649501317632
 21
1022.499765724456
 31
0.0
  0
LINE
  5
2166
330
1D9
100
AcDbEntity
  8
0
100
AcDbLine
 10
83.58649501317634
 20
1192.499765724458
 30
0.0
 11
83.5864950131763
 21
1032.499765724456
 31
0.0
  0
LINE
  5
216A
330
1D9
100
AcDbEntity
  8
0
100
AcDbLine
 10
170.0
 20
1195.5
 30
0.0
 11
170.0
 21
1323.999631105013
 31
0.0
  0
LINE
  5
216B
330
1D9
100
AcDbEntity
  8
0
100
AcDbLine
 10
519.9999999999996
 20
1195.499999999999
 30
0.0
 11
519.9999999999996
 21
1323.999631105013
 31
0.0
  0
LINE
  5
216C
330
1D9
100
AcDbEntity
  8
0
100
AcDbLine
 10
180.0
 20
1314.999631105012
 30
0.0
 11
509.9999999999996
 21
1314.999631105012
 31
0.0
  0
LINE
  5
2170
330
1D9
100
AcDbEntity
  8
0
100
AcDbLine
 10
169.4999999999997
 20
759.9997754473837
 30
0.0
 11
104.5864950131762
 21
759.9997754473837
 31
0.0
  0
LINE
  5
2171
330
1D9
100
AcDbEntity
  8
0
100
AcDbLine
 10
221.485130577679
 20
863.4997754473832
 30
0.0
 11
104.5864950131762
 21
863.4997754473832
 31
0.0
  0
LINE
  5
2172
330
1D9
100
AcDbEntity
  8
0
100
AcDbLine
 10
113.5864950131762
 20
769.9997754473837
 30
0.0
 11
113.5864950131762
 21
853.4997754473833
 31
0.0
  0
LINE
  5
2176
330
1D9
100
AcDbEntity
  8
0
100
AcDbLine
 10
113.086495013176
 20
759.9997754473837
 30
0.0
 11
74.58649501317623
 21
759.9997754473837
 31
0.0
  0
LINE
  5
2177
330
1D9
100
AcDbEntity
  8
0
100
AcDbLine
 10
99.84059737694833
 20
843.4997754473833
 30
0.0
 11
74.58649501317625
 21
843.4997754473833
 31
0.0
  0
LINE
  5
2178
330
1D9
100
AcDbEntity
  8
0
100
AcDbLine
 10
83.58649501317623
 20
769.9997754473837
 30
0.0
 11
83.58649501317625
 21
833.4997754473832
 31
0.0
  0
ARC
  5
217C
330
1D9
100
AcDbEntity
  8
0
100
AcDbCircle
 10
231.0191421933193
 20
852.8209214473836
 30
0.0
 40
18.32118299999999
100
AcDbArc
 50
247.7806999999993
 51
292.2193200000003
  0
ARC
  5
217D
330
1D9
100
AcDbEntity
  8
0
100
AcDbCircle
 10
231.0191421933193
 20
826.1785384473835
 30
0.0
 40
18.32118299999999
100
AcDbArc
 50
67.78067000000127
 51
112.2192900000007
  0
LINE
  5
217E
330
1D9
100
AcDbEntity
  8
0
100
AcDbLine
 10
220.6268421933193
 20
844.4997184473836
 30
0.0
 11
241.4114471933193
 21
844.4997184473836
 31
0.0
  0
LINE
  5
217F
330
1D9
100
AcDbEntity
  8
0
100
AcDbLine
 10
237.9473511933193
 20
843.1392574473836
 30
0.0
 11
237.9473511933193
 21
835.8602084473835
 31
0.0
  0
LINE
  5
2180
330
1D9
100
AcDbEntity
  8
0
100
AcDbLine
 10
244.8755361933193
 20
843.1392514473836
 30
0.0
 11
244.8755361933193
 21
835.8602154473835
 31
0.0
  0
ARC
  5
2181
330
1D9
100
AcDbEntity
  8
0
100
AcDbCircle
 10
241.4114471933193
 20
839.4092694473837
 30
0.0
 40
5.090450299999996
100
AcDbArc
 50
47.11668000000196
 51
132.8833599999986
  0
ARC
  5
2182
330
1D9
100
AcDbEntity
  8
0
100
AcDbCircle
 10
241.4114471933193
 20
839.5901974473837
 30
0.0
 40
5.090450299999996
100
AcDbArc
 50
227.1166380000016
 51
312.8833100000008
  0
LINE
  5
2183
330
1D9
100
AcDbEntity
  8
0
100
AcDbLine
 10
217.1627621933193
 20
843.1392574473836
 30
0.0
 11
217.1627621933193
 21
835.8602084473835
 31
0.0
  0
LINE
  5
2184
330
1D9
100
AcDbEntity
  8
0
100
AcDbLine
 10
224.0909521933193
 20
843.1392574473836
 30
0.0
 11
224.0909521933193
 21
835.8602084473835
 31
0.0
  0
ARC
  5
2185
330
1D9
100
AcDbEntity
  8
0
100
AcDbCircle
 10
220.6268421933193
 20
839.4092694473837
 30
0.0
 40
5.090450299999996
100
AcDbArc
 50
47.11662999999878
 51
132.8833100000007
  0
ARC
  5
2186
330
1D9
100
AcDbEntity
  8
0
100
AcDbCircle
 10
220.6268421933193
 20
839.5901974473837
 30
0.0
 40
5.090450299999996
100
AcDbArc
 50
227.1166830000002
 51
312.8833599999987
  0
ARC
  5
2187
330
1D9
100
AcDbEntity
  8
0
100
AcDbCircle
 10
231.0191421933193
 20
842.8209484473835
 30
0.0
 40
18.32118299999999
100
AcDbArc
 50
247.7806999999993
 51
292.2193200000003
  0
ARC
  5
2188
330
1D9
100
AcDbEntity
  8
0
100
AcDbCircle
 10
231.0191421933193
 20
816.1785654473835
 30
0.0
 40
18.32118299999999
100
AcDbArc
 50
67.78067000000127
 51
112.2192900000007
  0
LINE
  5
2189
330
1D9
100
AcDbEntity
  8
0
100
AcDbLine
 10
220.6268421933193
 20
834.4997454473835
 30
0.0
 11
241.4114471933193
 21
834.4997454473835
 31
0.0
  0
LINE
  5
218A
330
1D9
100
AcDbEntity
  8
0
100
AcDbLine
 10
237.9473511933193
 20
833.1392844473835
 30
0.0
 11
237.9473511933193
 21
825.8602354473836
 31
0.0
  0
LINE
  5
218B
330
1D9
100
AcDbEntity
  8
0
100
AcDbLine
 10
244.8755361933193
 20
833.1392784473836
 30
0.0
 11
244.8755361933193
 21
825.8602424473835
 31
0.0
  0
ARC
  5
218C
330
1D9
100
AcDbEntity
  8
0
100
AcDbCircle
 10
241.4114471933193
 20
829.4092964473835
 30
0.0
 40
5.090450299999996
100
AcDbArc
 50
47.11668000000196
 51
132.8833599999986
  0
ARC
  5
218D
330
1D9
100
AcDbEntity
  8
0
100
AcDbCircle
 10
241.4114471933193
 20
829.5902244473834
 30
0.0
 40
5.090450299999996
100
AcDbArc
 50
227.1166380000016
 51
312.8833100000008
  0
LINE
  5
218E
330
1D9
100
AcDbEntity
  8
0
100
AcDbLine
 10
217.1627621933193
 20
833.1392844473835
 30
0.0
 11
217.1627621933193
 21
825.8602354473836
 31
0.0
  0
LINE
  5
218F
330
1D9
100
AcDbEntity
  8
0
100
AcDbLine
 10
224.0909521933193
 20
833.1392844473835
 30
0.0
 11
224.0909521933193
 21
825.8602354473836
 31
0.0
  0
ARC
  5
2190
330
1D9
100
AcDbEntity
  8
0
100
AcDbCircle
 10
220.6268421933193
 20
829.4092964473835
 30
0.0
 40
5.090450299999996
100
AcDbArc
 50
47.11662999999878
 51
132.8833100000007
  0
ARC
  5
2191
330
1D9
100
AcDbEntity
  8
0
100
AcDbCircle
 10
220.6268421933193
 20
829.5902244473834
 30
0.0
 40
5.090450299999996
100
AcDbArc
 50
227.1166830000002
 51
312.8833599999987
  0
LINE
  5
2192
330
1D9
100
AcDbEntity
  8
0
100
AcDbLine
 10
224.0717967697246
 20
1053.500531448914
 30
0.0
 11
237.9282032302755
 21
1053.500531448914
 31
0.0
  0
LINE
  5
2193
330
1D9
100
AcDbEntity
  8
0
100
AcDbLine
 10
237.9282032302755
 20
1053.500531448914
 30
0.0
 11
244.8564064605511
 21
1065.500531448914
 31
0.0
  0
LINE
  5
2194
330
1D9
100
AcDbEntity
  8
0
100
AcDbLine
 10
244.8564064605511
 20
1065.500531448914
 30
0.0
 11
237.9282032302758
 21
1077.500531448914
 31
0.0
  0
LINE
  5
2195
330
1D9
100
AcDbEntity
  8
0
100
AcDbLine
 10
237.9282032302758
 20
1077.500531448914
 30
0.0
 11
224.0717967697246
 21
1077.500531448914
 31
0.0
  0
LINE
  5
2196
330
1D9
100
AcDbEntity
  8
0
100
AcDbLine
 10
224.0717967697246
 20
1077.500531448914
 30
0.0
 11
217.143593539449
 21
1065.500531448914
 31
0.0
  0
LINE
  5
2197
330
1D9
100
AcDbEntity
  8
0
100
AcDbLine
 10
217.143593539449
 20
1065.500531448914
 30
0.0
 11
224.0717967697246
 21
1053.500531448914
 31
0.0
  0
LINE
  5
2198
330
1D9
100
AcDbEntity
  8
0
100
AcDbLine
 10
224.0717967697246
 20
1171.499
 30
0.0
 11
237.9282032302755
 21
1171.499
 31
0.0
  0
LINE
  5
2199
330
1D9
100
AcDbEntity
  8
0
100
AcDbLine
 10
237.9282032302755
 20
1171.499
 30
0.0
 11
244.8564064605511
 21
1159.499
 31
0.0
  0
LINE
  5
219A
330
1D9
100
AcDbEntity
  8
0
100
AcDbLine
 10
244.8564064605511
 20
1159.499
 30
0.0
 11
237.9282032302758
 21
1147.499
 31
0.0
  0
LINE
  5
219B
330
1D9
100
AcDbEntity
  8
0
100
AcDbLine
 10
237.9282032302758
 20
1147.499
 30
0.0
 11
224.0717967697246
 21
1147.499
 31
0.0
  0
LINE
  5
219C
330
1D9
100
AcDbEntity
  8
0
100
AcDbLine
 10
224.0717967697246
 20
1147.499
 30
0.0
 11
217.143593539449
 21
1159.499
 31
0.0
  0
LINE
  5
219D
330
1D9
100
AcDbEntity
  8
0
100
AcDbLine
 10
217.143593539449
 20
1159.499
 30
0.0
 11
224.0717967697246
 21
1171.499
 31
0.0
  0
ARC
  5
219E
330
1D9
100
AcDbEntity
  8
0
100
AcDbCircle
 10
458.9808578066802
 20
842.8209484473835
 30
0.0
 40
18.32118299999999
100
AcDbArc
 50
247.7806799999996
 51
292.2193000000006
  0
ARC
  5
219F
330
1D9
100
AcDbEntity
  8
0
100
AcDbCircle
 10
458.9808578066802
 20
816.1785654473835
 30
0.0
 40
18.32118299999999
100
AcDbArc
 50
67.78071000000074
 51
112.2193299999987
  0
LINE
  5
21A0
330
1D9
100
AcDbEntity
  8
0
100
AcDbLine
 10
469.3731578066802
 20
834.4997454473835
 30
0.0
 11
448.5885528066801
 21
834.4997454473835
 31
0.0
  0
LINE
  5
21A1
330
1D9
100
AcDbEntity
  8
0
100
AcDbLine
 10
452.0526488066802
 20
833.1392844473835
 30
0.0
 11
452.0526488066802
 21
825.8602354473836
 31
0.0
  0
LINE
  5
21A2
330
1D9
100
AcDbEntity
  8
0
100
AcDbLine
 10
445.1244638066802
 20
833.1392784473836
 30
0.0
 11
445.1244638066802
 21
825.8602424473835
 31
0.0
  0
ARC
  5
21A3
330
1D9
100
AcDbEntity
  8
0
100
AcDbCircle
 10
448.5885528066801
 20
829.4092964473835
 30
0.0
 40
5.090450299999996
100
AcDbArc
 50
47.11664000000129
 51
132.8833199999992
  0
ARC
  5
21A4
330
1D9
100
AcDbEntity
  8
0
100
AcDbCircle
 10
448.5885528066801
 20
829.5902244473834
 30
0.0
 40
5.090450299999996
100
AcDbArc
 50
227.1166899999992
 51
312.8833619999983
  0
LINE
  5
21A5
330
1D9
100
AcDbEntity
  8
0
100
AcDbLine
 10
472.8372378066802
 20
833.1392844473835
 30
0.0
 11
472.8372378066802
 21
825.8602354473836
 31
0.0
  0
LINE
  5
21A6
330
1D9
100
AcDbEntity
  8
0
100
AcDbLine
 10
465.9090478066802
 20
833.1392844473835
 30
0.0
 11
465.9090478066802
 21
825.8602354473836
 31
0.0
  0
ARC
  5
21A7
330
1D9
100
AcDbEntity
  8
0
100
AcDbCircle
 10
469.3731578066802
 20
829.4092964473835
 30
0.0
 40
5.090450299999996
100
AcDbArc
 50
47.11668999999921
 51
132.8833700000012
  0
ARC
  5
21A8
330
1D9
100
AcDbEntity
  8
0
100
AcDbCircle
 10
469.3731578066802
 20
829.5902244473834
 30
0.0
 40
5.090450299999996
100
AcDbArc
 50
227.1166400000013
 51
312.8833169999996
  0
ARC
  5
21A9
330
1D9
100
AcDbEntity
  8
0
100
AcDbCircle
 10
458.9808578066802
 20
852.8209214473836
 30
0.0
 40
18.32118299999999
100
AcDbArc
 50
247.7806799999996
 51
292.2193000000006
  0
ARC
  5
21AA
330
1D9
100
AcDbEntity
  8
0
100
AcDbCircle
 10
458.9808578066802
 20
826.1785384473835
 30
0.0
 40
18.32118299999999
100
AcDbArc
 50
67.78071000000074
 51
112.2193299999987
  0
LINE
  5
21AB
330
1D9
100
AcDbEntity
  8
0
100
AcDbLine
 10
469.3731578066802
 20
844.4997184473836
 30
0.0
 11
448.5885528066801
 21
844.4997184473836
 31
0.0
  0
LINE
  5
21AC
330
1D9
100
AcDbEntity
  8
0
100
AcDbLine
 10
452.0526488066802
 20
843.1392574473836
 30
0.0
 11
452.0526488066802
 21
835.8602084473835
 31
0.0
  0
LINE
  5
21AD
330
1D9
100
AcDbEntity
  8
0
100
AcDbLine
 10
445.1244638066802
 20
843.1392514473836
 30
0.0
 11
445.1244638066802
 21
835.8602154473835
 31
0.0
  0
ARC
  5
21AE
330
1D9
100
AcDbEntity
  8
0
100
AcDbCircle
 10
448.5885528066801
 20
839.4092694473837
 30
0.0
 40
5.090450299999996
100
AcDbArc
 50
47.11664000000129
 51
132.8833199999992
  0
ARC
  5
21AF
330
1D9
100
AcDbEntity
  8
0
100
AcDbCircle
 10
448.5885528066801
 20
839.5901974473837
 30
0.0
 40
5.090450299999996
100
AcDbArc
 50
227.1166899999992
 51
312.8833619999983
  0
LINE
  5
21B0
330
1D9
100
AcDbEntity
  8
0
100
AcDbLine
 10
472.8372378066802
 20
843.1392574473836
 30
0.0
 11
472.8372378066802
 21
835.8602084473835
 31
0.0
  0
LINE
  5
21B1
330
1D9
100
AcDbEntity
  8
0
100
AcDbLine
 10
465.9090478066802
 20
843.1392574473836
 30
0.0
 11
465.9090478066802
 21
835.8602084473835
 31
0.0
  0
ARC
  5
21B2
330
1D9
100
AcDbEntity
  8
0
100
AcDbCircle
 10
469.3731578066802
 20
839.4092694473837
 30
0.0
 40
5.090450299999996
100
AcDbArc
 50
47.11668999999921
 51
132.8833700000012
  0
ARC
  5
21B3
330
1D9
100
AcDbEntity
  8
0
100
AcDbCircle
 10
469.3731578066802
 20
839.5901974473837
 30
0.0
 40
5.090450299999996
100
AcDbArc
 50
227.1166400000013
 51
312.8833169999996
  0
LINE
  5
21B4
330
1D9
100
AcDbEntity
  8
0
100
AcDbLine
 10
465.9282032302751
 20
1053.500531448914
 30
0.0
 11
452.0717967697243
 21
1053.500531448914
 31
0.0
  0
LINE
  5
21B5
330
1D9
100
AcDbEntity
  8
0
100
AcDbLine
 10
452.0717967697243
 20
1053.500531448914
 30
0.0
 11
445.1435935394486
 21
1065.500531448914
 31
0.0
  0
LINE
  5
21B6
330
1D9
100
AcDbEntity
  8
0
100
AcDbLine
 10
445.1435935394486
 20
1065.500531448914
 30
0.0
 11
452.0717967697239
 21
1077.500531448914
 31
0.0
  0
LINE
  5
21B7
330
1D9
100
AcDbEntity
  8
0
100
AcDbLine
 10
452.0717967697239
 20
1077.500531448914
 30
0.0
 11
465.9282032302751
 21
1077.500531448914
 31
0.0
  0
LINE
  5
21B8
330
1D9
100
AcDbEntity
  8
0
100
AcDbLine
 10
465.9282032302751
 20
1077.500531448914
 30
0.0
 11
472.8564064605508
 21
1065.500531448914
 31
0.0
  0
LINE
  5
21B9
330
1D9
100
AcDbEntity
  8
0
100
AcDbLine
 10
472.8564064605508
 20
1065.500531448914
 30
0.0
 11
465.9282032302751
 21
1053.500531448914
 31
0.0
  0
LINE
  5
21BA
330
1D9
100
AcDbEntity
  8
0
100
AcDbLine
 10
465.9282032302751
 20
1171.499
 30
0.0
 11
452.0717967697243
 21
1171.499
 31
0.0
  0
LINE
  5
21BB
330
1D9
100
AcDbEntity
  8
0
100
AcDbLine
 10
452.0717967697243
 20
1171.499
 30
0.0
 11
445.1435935394486
 21
1159.499
 31
0.0
  0
LINE
  5
21BC
330
1D9
100
AcDbEntity
  8
0
100
AcDbLine
 10
445.1435935394486
 20
1159.499
 30
0.0
 11
452.0717967697239
 21
1147.499
 31
0.0
  0
LINE
  5
21BD
330
1D9
100
AcDbEntity
  8
0
100
AcDbLine
 10
452.0717967697239
 20
1147.499
 30
0.0
 11
465.9282032302751
 21
1147.499
 31
0.0
  0
LINE
  5
21BE
330
1D9
100
AcDbEntity
  8
0
100
AcDbLine
 10
465.9282032302751
 20
1147.499
 30
0.0
 11
472.8564064605508
 21
1159.499
 31
0.0
  0
LINE
  5
21BF
330
1D9
100
AcDbEntity
  8
0
100
AcDbLine
 10
472.8564064605508
 20
1159.499
 30
0.0
 11
465.9282032302751
 21
1171.499
 31
0.0
  0
ARC
  5
21C0
330
1D9
100
AcDbEntity
  8
0
100
AcDbCircle
 10
807.0001421311797
 20
842.8209484473843
 30
0.0
 40
18.32118299999999
100
AcDbArc
 50
247.7806999999993
 51
292.2193199999973
  0
ARC
  5
21C1
330
1D9
100
AcDbEntity
  8
0
100
AcDbCircle
 10
807.0001421311797
 20
816.1785654473842
 30
0.0
 40
18.32118299999999
100
AcDbArc
 50
67.78066999999824
 51
112.2192900000022
  0
LINE
  5
21C2
330
1D9
100
AcDbEntity
  8
0
100
AcDbLine
 10
796.60784213118
 20
834.4997454473841
 30
0.0
 11
817.3924471311801
 21
834.4997454473841
 31
0.0
  0
LINE
  5
21C3
330
1D9
100
AcDbEntity
  8
0
100
AcDbLine
 10
813.9283511311798
 20
833.1392844473841
 30
0.0
 11
813.9283511311798
 21
825.8602354473842
 31
0.0
  0
LINE
  5
21C4
330
1D9
100
AcDbEntity
  8
0
100
AcDbLine
 10
820.85653613118
 20
833.1392784473841
 30
0.0
 11
820.85653613118
 21
825.8602424473842
 31
0.0
  0
ARC
  5
21C5
330
1D9
100
AcDbEntity
  8
0
100
AcDbCircle
 10
817.3924471311798
 20
829.4092964473842
 30
0.0
 40
5.090450299999996
100
AcDbArc
 50
47.11668000000318
 51
132.8833599999986
  0
ARC
  5
21C6
330
1D9
100
AcDbEntity
  8
0
100
AcDbCircle
 10
817.3924471311798
 20
829.5902244473841
 30
0.0
 40
5.090450299999996
100
AcDbArc
 50
227.1166380000016
 51
312.8833099999984
  0
LINE
  5
21C7
330
1D9
100
AcDbEntity
  8
0
100
AcDbLine
 10
793.14376213118
 20
833.1392844473841
 30
0.0
 11
793.14376213118
 21
825.8602354473842
 31
0.0
  0
LINE
  5
21C8
330
1D9
100
AcDbEntity
  8
0
100
AcDbLine
 10
800.0719521311799
 20
833.1392844473841
 30
0.0
 11
800.0719521311799
 21
825.8602354473842
 31
0.0
  0
ARC
  5
21C9
330
1D9
100
AcDbEntity
  8
0
100
AcDbCircle
 10
796.60784213118
 20
829.4092964473842
 30
0.0
 40
5.090450299999996
100
AcDbArc
 50
47.11662999999878
 51
132.8833099999984
  0
ARC
  5
21CA
330
1D9
100
AcDbEntity
  8
0
100
AcDbCircle
 10
796.60784213118
 20
829.5902244473841
 30
0.0
 40
5.090450299999996
100
AcDbArc
 50
227.1166830000026
 51
312.8833599999987
  0
ARC
  5
21CB
330
1D9
100
AcDbEntity
  8
0
100
AcDbCircle
 10
807.0001421311797
 20
852.8209214473841
 30
0.0
 40
18.32118299999999
100
AcDbArc
 50
247.7806999999993
 51
292.2193199999973
  0
ARC
  5
21CC
330
1D9
100
AcDbEntity
  8
0
100
AcDbCircle
 10
807.0001421311797
 20
826.1785384473842
 30
0.0
 40
18.32118299999999
100
AcDbArc
 50
67.78066999999824
 51
112.2192900000022
  0
LINE
  5
21CD
330
1D9
100
AcDbEntity
  8
0
100
AcDbLine
 10
796.60784213118
 20
844.4997184473843
 30
0.0
 11
817.3924471311801
 21
844.4997184473843
 31
0.0
  0
LINE
  5
21CE
330
1D9
100
AcDbEntity
  8
0
100
AcDbLine
 10
813.9283511311798
 20
843.1392574473843
 30
0.0
 11
813.9283511311798
 21
835.860208447384
 31
0.0
  0
LINE
  5
21CF
330
1D9
100
AcDbEntity
  8
0
100
AcDbLine
 10
820.85653613118
 20
843.1392514473841
 30
0.0
 11
820.85653613118
 21
835.8602154473842
 31
0.0
  0
ARC
  5
21D0
330
1D9
100
AcDbEntity
  8
0
100
AcDbCircle
 10
817.3924471311798
 20
839.409269447384
 30
0.0
 40
5.090450299999996
100
AcDbArc
 50
47.11668000000318
 51
132.8833599999986
  0
ARC
  5
21D1
330
1D9
100
AcDbEntity
  8
0
100
AcDbCircle
 10
817.3924471311798
 20
839.590197447384
 30
0.0
 40
5.090450299999996
100
AcDbArc
 50
227.1166380000016
 51
312.8833099999984
  0
LINE
  5
21D2
330
1D9
100
AcDbEntity
  8
0
100
AcDbLine
 10
793.14376213118
 20
843.1392574473843
 30
0.0
 11
793.14376213118
 21
835.860208447384
 31
0.0
  0
LINE
  5
21D3
330
1D9
100
AcDbEntity
  8
0
100
AcDbLine
 10
800.0719521311799
 20
843.1392574473843
 30
0.0
 11
800.0719521311799
 21
835.860208447384
 31
0.0
  0
ARC
  5
21D4
330
1D9
100
AcDbEntity
  8
0
100
AcDbCircle
 10
796.60784213118
 20
839.4092694473842
 30
0.0
 40
5.090450299999996
100
AcDbArc
 50
47.11662999999878
 51
132.8833099999984
  0
ARC
  5
21D5
330
1D9
100
AcDbEntity
  8
0
100
AcDbCircle
 10
796.60784213118
 20
839.5901974473842
 30
0.0
 40
5.090450299999996
100
AcDbArc
 50
227.1166830000026
 51
312.8833599999987
  0
TEXT
  5
21F6
330
1D9
100
AcDbEntity
  8
0
100
AcDbText
 10
67.752710620811
 20
747.216804088215
 30
0.0
 40
12.5
  1
最大負荷時約83.5
 50
90.0
100
AcDbText
  0
LINE
  5
21F7
330
1D9
100
AcDbEntity
  8
0
100
AcDbLine
 10
113.5864950131762
 20
863.4997754473832
 30
0.0
 11
116.2659869374872
 21
853.4997754473833
 31
0.0
  0
LINE
  5
21F8
330
1D9
100
AcDbEntity
  8
0
100
AcDbLine
 10
113.5864950131762
 20
863.4997754473832
 30
0.0
 11
110.9070030888652
 21
853.4997754473833
 31
0.0
  0
LINE
  5
21F9
330
1D9
100
AcDbEntity
  8
0
100
AcDbLine
 10
113.5864950131762
 20
853.4997754473833
 30
0.0
 11
113.5864950131762
 21
863.4997754473832
 31
0.0
  0
TEXT
  5
21FA
330
1D9
100
AcDbEntity
  8
0
100
AcDbText
 10
107.3364950131761
 20
783.9998511580904
 30
0.0
 40
12.5
  1
103.5
 50
90.0
100
AcDbText
  0
LINE
  5
21FB
330
1D9
100
AcDbEntity
  8
0
100
AcDbLine
 10
83.58649501317623
 20
759.9997754473837
 30
0.0
 11
80.90700308886518
 21
769.9997754473837
 31
0.0
  0
LINE
  5
21FC
330
1D9
100
AcDbEntity
  8
0
100
AcDbLine
 10
83.58649501317623
 20
759.9997754473837
 30
0.0
 11
86.26598693748725
 21
769.9997754473837
 31
0.0
  0
LINE
  5
21FD
330
1D9
100
AcDbEntity
  8
0
100
AcDbLine
 10
83.58649501317623
 20
769.9997754473837
 30
0.0
 11
83.58649501317623
 21
759.9997754473837
 31
0.0
  0
LINE
  5
21FE
330
1D9
100
AcDbEntity
  8
0
100
AcDbLine
 10
83.58649501317625
 20
843.4997754473833
 30
0.0
 11
86.2659869374873
 21
833.4997754473832
 31
0.0
  0
LINE
  5
21FF
330
1D9
100
AcDbEntity
  8
0
100
AcDbLine
 10
83.58649501317625
 20
843.4997754473833
 30
0.0
 11
80.90700308886521
 21
833.4997754473832
 31
0.0
  0
LINE
  5
2200
330
1D9
100
AcDbEntity
  8
0
100
AcDbLine
 10
83.58649501317625
 20
833.4997754473832
 30
0.0
 11
83.58649501317625
 21
843.4997754473833
 31
0.0
  0
LINE
  5
2201
330
1D9
100
AcDbEntity
  8
0
100
AcDbLine
 10
113.5864950131762
 20
759.9997754473837
 30
0.0
 11
110.9070030888652
 21
769.9997754473837
 31
0.0
  0
LINE
  5
2202
330
1D9
100
AcDbEntity
  8
0
100
AcDbLine
 10
113.5864950131762
 20
759.9997754473837
 30
0.0
 11
116.2659869374872
 21
769.9997754473837
 31
0.0
  0
LINE
  5
2203
330
1D9
100
AcDbEntity
  8
0
100
AcDbLine
 10
113.5864950131762
 20
769.9997754473837
 30
0.0
 11
113.5864950131762
 21
759.9997754473837
 31
0.0
  0
LINE
  5
2204
330
1D9
100
AcDbEntity
  8
0
100
AcDbLine
 10
83.5864950131763
 20
1022.499765724456
 30
0.0
 11
80.90700308886527
 21
1032.499765724456
 31
0.0
  0
LINE
  5
2205
330
1D9
100
AcDbEntity
  8
0
100
AcDbLine
 10
83.5864950131763
 20
1022.499765724456
 30
0.0
 11
86.26598693748734
 21
1032.499765724456
 31
0.0
  0
LINE
  5
2206
330
1D9
100
AcDbEntity
  8
0
100
AcDbLine
 10
83.5864950131763
 20
1032.499765724456
 30
0.0
 11
83.5864950131763
 21
1022.499765724456
 31
0.0
  0
TEXT
  5
2207
330
1D9
100
AcDbEntity
  8
0
100
AcDbText
 10
77.33649501317613
 20
1098.95809905779
 30
0.0
 40
12.5
  1
180
 50
90.0
100
AcDbText
  0
LINE
  5
2208
330
1D9
100
AcDbEntity
  8
0
100
AcDbLine
 10
83.58649501317634
 20
1202.499765724458
 30
0.0
 11
86.26598693748738
 21
1192.499765724458
 31
0.0
  0
LINE
  5
2209
330
1D9
100
AcDbEntity
  8
0
100
AcDbLine
 10
83.58649501317634
 20
1202.499765724458
 30
0.0
 11
80.9070030888653
 21
1192.499765724458
 31
0.0
  0
LINE
  5
220A
330
1D9
100
AcDbEntity
  8
0
100
AcDbLine
 10
83.58649501317634
 20
1192.499765724458
 30
0.0
 11
83.58649501317634
 21
1202.499765724458
 31
0.0
  0
LINE
  5
220B
330
1D9
100
AcDbEntity
  8
0
100
AcDbLine
 10
170.0
 20
1314.999631105012
 30
0.0
 11
180.0
 21
1317.679123029323
 31
0.0
  0
LINE
  5
220C
330
1D9
100
AcDbEntity
  8
0
100
AcDbLine
 10
170.0
 20
1314.999631105012
 30
0.0
 11
180.0
 21
1312.320139180701
 31
0.0
  0
LINE
  5
220D
330
1D9
100
AcDbEntity
  8
0
100
AcDbLine
 10
180.0
 20
1314.999631105012
 30
0.0
 11
170.0
 21
1314.999631105012
 31
0.0
  0
TEXT
  5
220E
330
1D9
100
AcDbEntity
  8
0
100
AcDbText
 10
329.3749999999998
 20
1321.249631105013
 30
0.0
 40
12.5
  1
350
100
AcDbText
  0
LINE
  5
220F
330
1D9
100
AcDbEntity
  8
0
100
AcDbLine
 10
519.9999999999996
 20
1314.999631105012
 30
0.0
 11
509.9999999999996
 21
1312.320139180702
 31
0.0
  0
LINE
  5
2210
330
1D9
100
AcDbEntity
  8
0
100
AcDbLine
 10
519.9999999999996
 20
1314.999631105012
 30
0.0
 11
509.9999999999996
 21
1317.679123029323
 31
0.0
  0
LINE
  5
2211
330
1D9
100
AcDbEntity
  8
0
100
AcDbLine
 10
509.9999999999996
 20
1314.999631105012
 30
0.0
 11
519.9999999999996
 21
1314.999631105012
 31
0.0
  0
ENDSEC
  0
SECTION
  2
OBJECTS
  0
DICTIONARY
  5
1CD
330
0
100
AcDbDictionary
281
     1
  3
ACAD_2007HEADERVARS_RT
350
24C3
  3
ACAD_CIP_PREVIOUS_PRODUCT_INFO
350
22D7
  3
ACAD_COLOR
350
22B9
  3
ACAD_DETAILVIEWSTYLE
350
22D2
  3
ACAD_FIELDLIST
350
2347
  3
ACAD_GROUP
350
1CE
  3
ACAD_LAYOUT
350
2DE
  3
ACAD_MATERIAL
350
2287
  3
ACAD_MLEADERSTYLE
350
22CE
  3
ACAD_MLINESTYLE
350
1CF
  3
ACAD_PLOTSETTINGS
350
2DF
  3
ACAD_PLOTSTYLENAME
350
2285
  3
ACAD_SCALELIST
350
22BC
  3
ACAD_SECTIONVIEWSTYLE
350
22D0
  3
ACAD_TABLESTYLE
350
22BA
  3
ACAD_VISUALSTYLE
350
22A0
  3
ACDB_RECOMPOSE_DATA
350
24C1
  3
AcDbVariableDictionary
350
2371
  3
AcmDictionary
350
2304
  3
AMG
350
22D8
  3
AMGSNAPSETTINGS
350
235B
  3
DWGPROPS
350
24C2
  0
DICTIONARY
  5
236F
330
1D0
100
AcDbDictionary
280
     1
281
     1
  3
ADSK_XREC_LAYER_RECONCILED
360
2370
  0
DICTIONARY
  5
224F
330
1D9
100
AcDbDictionary
281
     1
  3
ACAD_LAYOUTSELFREF
350
2250
  0
DICTIONARY
  5
224D
330
1D6
100
AcDbDictionary
281
     1
  3
ACAD_LAYOUTSELFREF
350
224E
  0
DICTIONARY
  5
24C3
102
{ACAD_REACTORS
330
1CD
102
}
330
1CD
100
AcDbDictionary
281
     1
  3
DIMARCSYM
350
24C4
  3
DIMLTEX1
350
24C6
  3
DIMLTEX2
350
24C7
  3
DIMLTYPE
350
24C5
  0
XRECORD
  5
22D7
102
{ACAD_REACTORS
330
1CD
102
}
330
1CD
100
AcDbXrecord
280
     1
300
AMECH_PP
300
2021
300
87400AMECH_PP_2021_0F
  0
DICTIONARY
  5
22B9
102
{ACAD_REACTORS
330
1CD
102
}
330
1CD
100
AcDbDictionary
281
     1
  0
DICTIONARY
  5
22D2
102
{ACAD_REACTORS
330
1CD
102
}
330
1CD
100
AcDbDictionary
281
     1
  3
Imperial24
350
22D3
  0
FIELDLIST
  5
2347
102
{ACAD_REACTORS
330
1CD
102
}
330
1CD
100
AcDbIdSet
 90
        8
330
24A9
330
24AA
330
24AB
330
24AC
330
24B0
330
24B1
330
24B2
330
24B3
100
AcDbFieldList
  0
DICTIONARY
  5
1CE
102
{ACAD_REACTORS
330
1CD
102
}
330
1CD
100
AcDbDictionary
281
     1
  0
DICTIONARY
  5
2DE
102
{ACAD_REACTORS
330
1CD
102
}
330
1CD
100
AcDbDictionary
281
     1
  3
Model
350
22D4
  3
レイアウト1
350
22D5
  0
DICTIONARY
  5
2287
102
{ACAD_REACTORS
330
1CD
102
}
330
1CD
100
AcDbDictionary
281
     1
  3
ByBlock
350
2290
  3
ByLayer
350
2288
  3
Global
350
2298
  0
DICTIONARY
  5
22CE
102
{ACAD_REACTORS
330
1CD
102
}
330
1CD
100
AcDbDictionary
281
     1
  3
Standard
350
22CF
  0
DICTIONARY
  5
1CF
102
{ACAD_REACTORS
330
1CD
102
}
330
1CD
100
AcDbDictionary
281
     1
  3
STANDARD
350
1DC
  0
DICTIONARY
  5
2DF
102
{ACAD_REACTORS
330
1CD
102
}
330
1CD
100
AcDbDictionary
281
     1
  0
ACDBDICTIONARYWDFLT
  5
2285
102
{ACAD_REACTORS
330
1CD
102
}
330
1CD
100
AcDbDictionary
281
     1
  3
Normal
350
2286
100
AcDbDictionaryWithDefault
340
2286
  0
DICTIONARY
  5
22BC
102
{ACAD_REACTORS
330
1CD
102
}
330
1CD
100
AcDbDictionary
281
     1
  3
A0
350
22BD
  3
A1
350
22BE
  3
A2
350
22BF
  3
A3
350
22C0
  3
A4
350
22C1
  3
A5
350
22C2
  3
A6
350
22C3
  3
A7
350
22C4
  3
A8
350
22C5
  3
A9
350
22C6
  3
B0
350
22C7
  3
B1
350
22C8
  3
B2
350
22C9
  3
B3
350
22CA
  3
B4
350
22CB
  3
B5
350
22CC
  3
B6
350
22CD
  0
DICTIONARY
  5
22D0
102
{ACAD_REACTORS
330
1CD
102
}
330
1CD
100
AcDbDictionary
281
     1
  3
Imperial24
350
22D1
  0
DICTIONARY
  5
22BA
102
{ACAD_REACTORS
330
1CD
102
}
330
1CD
100
AcDbDictionary
281
     1
  3
Standard
350
22BB
  0
DICTIONARY
  5
22A0
102
{ACAD_REACTORS
330
1CD
102
}
330
1CD
100
AcDbDictionary
281
     1
  3
2dWireframe
350
22A6
  3
Basic
350
22A5
  3
Brighten
350
22AC
  3
ColorChange
350
22B0
  3
Conceptual
350
22A9
  3
Dim
350
22AB
  3
EdgeColorOff
350
22B8
  3
Facepattern
350
22AF
  3
Flat
350
22A1
  3
FlatWithEdges
350
22A2
  3
Gouraud
350
22A3
  3
GouraudWithEdges
350
22A4
  3
Hidden
350
22A8
  3
JitterOff
350
22B6
  3
Linepattern
350
22AE
  3
OverhangOff
350
22B7
  3
Realistic
350
22AA
  3
Shaded
350
22B5
  3
Shaded with edges
350
22B4
  3
Shades of Gray
350
22B1
  3
Sketchy
350
22B2
  3
Thicken
350
22AD
  3
Wireframe
350
22A7
  3
X-Ray
350
22B3
  0
XRECORD
  5
24C1
102
{ACAD_REACTORS
330
1CD
102
}
330
1CD
100
AcDbXrecord
280
     1
 90
        1
330
22BB
  0
DICTIONARY
  5
2371
102
{ACAD_REACTORS
330
1CD
102
}
330
1CD
100
AcDbDictionary
281
     1
  3
CANNOSCALE
350
2376
  3
CMLEADERSTYLE
350
2373
  3
CTABLESTYLE
350
2372
  3
CVIEWDETAILSTYLE
350
2374
  3
CVIEWSECTIONSTYLE
350
2375
  3
DIMASSOC
350
2379
  3
INDEXCTL
350
2378
  3
LAYEREVAL
350
241F
  3
LAYERNOTIFY
350
2420
  3
LIGHTINGUNITS
350
241E
  3
LOFTANG1
350
24BC
  3
LOFTANG2
350
24BD
  3
LONGITUDE
350
24BE
  3
MSLTSCALE
350
241D
  3
SORTENTS
350
2377
  3
XCLIPFRAME
350
24BF
  0
DICTIONARY
  5
2304
102
{ACAD_REACTORS
330
1CD
102
}
330
1CD
100
AcDbDictionary
281
     1
  3
AcmStdDictionary
350
230B
  0
DICTIONARY
  5
22D8
102
{ACAD_REACTORS
330
1CD
102
}
330
1CD
100
AcDbDictionary
281
     1
  0
DICTIONARY
  5
235B
102
{ACAD_REACTORS
330
1CD
102
}
330
1CD
100
AcDbDictionary
281
     1
  0
XRECORD
  5
24C2
102
{ACAD_REACTORS
330
1CD
102
}
330
1CD
100
AcDbXrecord
280
     1
  1
DWGPROPS COOKIE
  2

  3

  4

  6

  7

  8
watanabe-y
  9

300
=
301
=
302
=
303
=
304
=
305
=
306
=
307
=
308
=
309
=
 40
0.1644726388888889
 41
2452597.791331018
 42
2460118.473252315
  1

 90
        0
  0
XRECORD
  5
2370
102
{ACAD_REACTORS
330
236F
102
}
330
236F
100
AcDbXrecord
280
     1
290
     1
  0
XRECORD
  5
2250
102
{ACAD_REACTORS
330
224F
102
}
330
224F
100
AcDbXrecord
280
     1
340
1D9
  0
XRECORD
  5
224E
102
{ACAD_REACTORS
330
224D
102
}
330
224D
100
AcDbXrecord
280
     1
340
1D6
  0
XRECORD
  5
24C4
102
{ACAD_REACTORS
330
24C3
102
}
330
24C3
100
AcDbXrecord
280
     1
 70
     1
  0
XRECORD
  5
24C6
102
{ACAD_REACTORS
330
24C3
102
}
330
24C3
100
AcDbXrecord
280
     1
340
1D3
  0
XRECORD
  5
24C7
102
{ACAD_REACTORS
330
24C3
102
}
330
24C3
100
AcDbXrecord
280
     1
340
1D3
  0
XRECORD
  5
24C5
102
{ACAD_REACTORS
330
24C3
102
}
330
24C3
100
AcDbXrecord
280
     1
340
1D3
  0
ACDBDETAILVIEWSTYLE
  5
22D3
102
{ACAD_XDICTIONARY
360
24FB
102
}
102
{ACAD_REACTORS
330
22D2
330
24A4
102
}
330
22D2
100
AcDbModelDocViewStyle
 70
     0
  3
Imperial24
290
     0
100
AcDbDetailViewStyle
 70
     0
 71
     0
 90
        3
 71
     1
340
1D1
 40
0.24
340
0
 40
0.24
300

 40
0.36
280
     3
 71
     2
340
1D5
 90
       25
 71
     3
340
1D1
 40
0.24
 90
        1
 40
0.75
 90
        1
300
%<\AcVar ViewType \f "%tc1">% %<\AcVar ViewDetailId>%\PSCALE %<\AcVar ViewScale \f "%sn">%
 71
     4
340
1D5
 90
       25
340
1D5
 90
       25
280
     0
  0
LAYOUT
  5
22D4
102
{ACAD_XDICTIONARY
360
24FD
102
}
102
{ACAD_REACTORS
330
2DE
102
}
330
2DE
100
AcDbPlotSettings
  1

  2
産機2F_DocuPrint 4050
  4

  6

 40
0.0
 41
0.0
 42
0.0
 43
0.0
 44
0.0
 45
0.0
 46
0.0
 47
0.0
 48
0.0
 49
0.0
140
0.0
141
0.0
142
1.0
143
1.0
 70
  1712
 72
     0
 73
     0
 74
     0
  7

 75
     0
147
1.0
148
0.0
149
0.0
100
AcDbLayout
  1
Model
 70
     1
 71
     0
 10
0.0
 20
0.0
 11
12.0
 21
9.0
 12
0.0
 22
0.0
 32
0.0
 14
0.0
 24
0.0
 34
0.0
 15
0.0
 25
0.0
 35
0.0
146
0.0
 13
0.0
 23
0.0
 33
0.0
 16
1.0
 26
0.0
 36
0.0
 17
0.0
 27
1.0
 37
0.0
 76
     0
330
1D9
331
2249
  0
LAYOUT
  5
22D5
102
{ACAD_XDICTIONARY
360
24FF
102
}
102
{ACAD_REACTORS
330
2DE
102
}
330
2DE
100
AcDbPlotSettings
  1

  2
産機2F_DocuPrint 4050
  4

  6

 40
0.0
 41
0.0
 42
0.0
 43
0.0
 44
0.0
 45
0.0
 46
0.0
 47
0.0
 48
0.0
 49
0.0
140
0.0
141
0.0
142
1.0
143
1.0
 70
   688
 72
     0
 73
     0
 74
     5
  7

 75
    16
147
1.0
148
0.0
149
0.0
100
AcDbLayout
  1
レイアウト1
 70
     0
 71
     1
 10
0.0
 20
0.0
 11
12.0
 21
9.0
 12
0.0
 22
0.0
 32
0.0
 14
1.000000000000000E+20
 24
1.000000000000000E+20
 34
1.000000000000000E+20
 15
-1.000000000000000E+20
 25
-1.000000000000000E+20
 35
-1.000000000000000E+20
146
0.0
 13
0.0
 23
0.0
 33
0.0
 16
1.0
 26
0.0
 36
0.0
 17
0.0
 27
1.0
 37
0.0
 76
     0
330
1D6
  0
MATERIAL
  5
2290
102
{ACAD_XDICTIONARY
360
2291
102
}
102
{ACAD_REACTORS
330
2287
102
}
330
2287
100
AcDbMaterial
  1
ByBlock
 72
     0
 43
0.0208333333333333
 43
0.0
 43
0.0
 43
0.0
 43
0.0
 43
0.0208333333333333
 43
0.0
 43
0.0
 43
0.0
 43
0.0
 43
1.0
 43
0.0
 43
0.0
 43
0.0
 43
0.0
 43
1.0
 77
     0
 47
0.0208333333333333
 47
0.0
 47
0.0
 47
0.0
 47
0.0
 47
0.0208333333333333
 47
0.0
 47
0.0
 47
0.0
 47
0.0
 47
1.0
 47
0.0
 47
0.0
 47
0.0
 47
0.0
 47
1.0
171
     0
 49
0.0208333333333333
 49
0.0
 49
0.0
 49
0.0
 49
0.0
 49
0.0208333333333333
 49
0.0
 49
0.0
 49
0.0
 49
0.0
 49
1.0
 49
0.0
 49
0.0
 49
0.0
 49
0.0
 49
1.0
175
     0
142
0.0208333333333333
142
0.0
142
0.0
142
0.0
142
0.0
142
0.0208333333333333
142
0.0
142
0.0
142
0.0
142
0.0
142
1.0
142
0.0
142
0.0
142
0.0
142
0.0
142
1.0
179
     0
144
0.0208333333333333
144
0.0
144
0.0
144
0.0
144
0.0
144
0.0208333333333333
144
0.0
144
0.0
144
0.0
144
0.0
144
1.0
144
0.0
144
0.0
144
0.0
144
0.0
144
1.0
147
0.0208333333333333
147
0.0
147
0.0
147
0.0
147
0.0
147
0.0208333333333333
147
0.0
147
0.0
147
0.0
147
0.0
147
1.0
147
0.0
147
0.0
147
0.0
147
0.0
147
1.0
  0
MATERIAL
  5
2288
102
{ACAD_XDICTIONARY
360
2289
102
}
102
{ACAD_REACTORS
330
2287
102
}
330
2287
100
AcDbMaterial
  1
ByLayer
 72
     0
 43
0.0208333333333333
 43
0.0
 43
0.0
 43
0.0
 43
0.0
 43
0.0208333333333333
 43
0.0
 43
0.0
 43
0.0
 43
0.0
 43
1.0
 43
0.0
 43
0.0
 43
0.0
 43
0.0
 43
1.0
 77
     0
 47
0.0208333333333333
 47
0.0
 47
0.0
 47
0.0
 47
0.0
 47
0.0208333333333333
 47
0.0
 47
0.0
 47
0.0
 47
0.0
 47
1.0
 47
0.0
 47
0.0
 47
0.0
 47
0.0
 47
1.0
171
     0
 49
0.0208333333333333
 49
0.0
 49
0.0
 49
0.0
 49
0.0
 49
0.0208333333333333
 49
0.0
 49
0.0
 49
0.0
 49
0.0
 49
1.0
 49
0.0
 49
0.0
 49
0.0
 49
0.0
 49
1.0
175
     0
142
0.0208333333333333
142
0.0
142
0.0
142
0.0
142
0.0
142
0.0208333333333333
142
0.0
142
0.0
142
0.0
142
0.0
142
1.0
142
0.0
142
0.0
142
0.0
142
0.0
142
1.0
179
     0
144
0.0208333333333333
144
0.0
144
0.0
144
0.0
144
0.0
144
0.0208333333333333
144
0.0
144
0.0
144
0.0
144
0.0
144
1.0
144
0.0
144
0.0
144
0.0
144
0.0
144
1.0
147
0.0208333333333333
147
0.0
147
0.0
147
0.0
147
0.0
147
0.0208333333333333
147
0.0
147
0.0
147
0.0
147
0.0
147
1.0
147
0.0
147
0.0
147
0.0
147
0.0
147
1.0
  0
MATERIAL
  5
2298
102
{ACAD_XDICTIONARY
360
2299
102
}
102
{ACAD_REACTORS
330
2287
102
}
330
2287
100
AcDbMaterial
  1
Global
 72
     0
 43
0.0208333333333333
 43
0.0
 43
0.0
 43
0.0
 43
0.0
 43
0.0208333333333333
 43
0.0
 43
0.0
 43
0.0
 43
0.0
 43
1.0
 43
0.0
 43
0.0
 43
0.0
 43
0.0
 43
1.0
 77
     0
 47
0.0208333333333333
 47
0.0
 47
0.0
 47
0.0
 47
0.0
 47
0.0208333333333333
 47
0.0
 47
0.0
 47
0.0
 47
0.0
 47
1.0
 47
0.0
 47
0.0
 47
0.0
 47
0.0
 47
1.0
171
     0
 49
0.0208333333333333
 49
0.0
 49
0.0
 49
0.0
 49
0.0
 49
0.0208333333333333
 49
0.0
 49
0.0
 49
0.0
 49
0.0
 49
1.0
 49
0.0
 49
0.0
 49
0.0
 49
0.0
 49
1.0
175
     0
142
0.0208333333333333
142
0.0
142
0.0
142
0.0
142
0.0
142
0.0208333333333333
142
0.0
142
0.0
142
0.0
142
0.0
142
1.0
142
0.0
142
0.0
142
0.0
142
0.0
142
1.0
179
     0
144
0.0208333333333333
144
0.0
144
0.0
144
0.0
144
0.0
144
0.0208333333333333
144
0.0
144
0.0
144
0.0
144
0.0
144
1.0
144
0.0
144
0.0
144
0.0
144
0.0
144
1.0
147
0.0208333333333333
147
0.0
147
0.0
147
0.0
147
0.0
147
0.0208333333333333
147
0.0
147
0.0
147
0.0
147
0.0
147
1.0
147
0.0
147
0.0
147
0.0
147
0.0
147
1.0
  0
MLEADERSTYLE
  5
22CF
102
{ACAD_REACTORS
330
22CE
102
}
330
22CE
100
AcDbMLeaderStyle
170
     2
171
     1
172
     0
 90
        2
 40
0.0
 41
0.0
173
     1
 91
-1056964608
340
1D3
 92
       -2
290
     1
 42
0.09
291
     1
 43
0.36
  3
Standard
 44
0.18
300

342
1D1
174
     1
178
     6
175
     1
176
     0
 93
-1056964608
 45
0.18
292
     0
297
     0
 46
0.18
 94
-1056964608
 47
1.0
 49
1.0
140
1.0
293
     1
141
0.0
294
     1
177
     0
142
1.0
295
     0
296
     0
143
0.125
1001
ACAD_MLEADERVER
1070
     2
  0
MLINESTYLE
  5
1DC
102
{ACAD_REACTORS
330
1CF
102
}
330
1CF
100
AcDbMlineStyle
  2
STANDARD
 70
     0
  3

 62
     0
 51
90.0
 52
90.0
 71
     2
 49
0.5
 62
   256
  6
BYLAYER
 49
-0.5
 62
   256
  6
BYLAYER
  0
ACDBPLACEHOLDER
  5
2286
102
{ACAD_REACTORS
330
2285
102
}
330
2285
  0
SCALE
  5
22BD
102
{ACAD_REACTORS
330
22BC
102
}
330
22BC
100
AcDbScale
 70
     0
300
1:1
140
1.0
141
1.0
290
     1
  0
SCALE
  5
22BE
102
{ACAD_REACTORS
330
22BC
102
}
330
22BC
100
AcDbScale
 70
     0
300
1/128" = 1'-0"
140
0.0078125
141
12.0
290
     0
  0
SCALE
  5
22BF
102
{ACAD_REACTORS
330
22BC
102
}
330
22BC
100
AcDbScale
 70
     0
300
1/64" = 1'-0"
140
0.015625
141
12.0
290
     0
  0
SCALE
  5
22C0
102
{ACAD_REACTORS
330
22BC
102
}
330
22BC
100
AcDbScale
 70
     0
300
1/32" = 1'-0"
140
0.03125
141
12.0
290
     0
  0
SCALE
  5
22C1
102
{ACAD_REACTORS
330
22BC
102
}
330
22BC
100
AcDbScale
 70
     0
300
1/16" = 1'-0"
140
0.0625
141
12.0
290
     0
  0
SCALE
  5
22C2
102
{ACAD_REACTORS
330
22BC
102
}
330
22BC
100
AcDbScale
 70
     0
300
3/32" = 1'-0"
140
0.09375
141
12.0
290
     0
  0
SCALE
  5
22C3
102
{ACAD_REACTORS
330
22BC
102
}
330
22BC
100
AcDbScale
 70
     0
300
1/8" = 1'-0"
140
0.125
141
12.0
290
     0
  0
SCALE
  5
22C4
102
{ACAD_REACTORS
330
22BC
102
}
330
22BC
100
AcDbScale
 70
     0
300
3/16" = 1'-0"
140
0.1875
141
12.0
290
     0
  0
SCALE
  5
22C5
102
{ACAD_REACTORS
330
22BC
102
}
330
22BC
100
AcDbScale
 70
     0
300
1/4" = 1'-0"
140
0.25
141
12.0
290
     0
  0
SCALE
  5
22C6
102
{ACAD_REACTORS
330
22BC
102
}
330
22BC
100
AcDbScale
 70
     0
300
3/8" = 1'-0"
140
0.375
141
12.0
290
     0
  0
SCALE
  5
22C7
102
{ACAD_REACTORS
330
22BC
102
}
330
22BC
100
AcDbScale
 70
     0
300
1/2" = 1'-0"
140
0.5
141
12.0
290
     0
  0
SCALE
  5
22C8
102
{ACAD_REACTORS
330
22BC
102
}
330
22BC
100
AcDbScale
 70
     0
300
3/4" = 1'-0"
140
0.75
141
12.0
290
     0
  0
SCALE
  5
22C9
102
{ACAD_REACTORS
330
22BC
102
}
330
22BC
100
AcDbScale
 70
     0
300
1" = 1'-0"
140
1.0
141
12.0
290
     0
  0
SCALE
  5
22CA
102
{ACAD_REACTORS
330
22BC
102
}
330
22BC
100
AcDbScale
 70
     0
300
1-1/2" = 1'-0"
140
1.5
141
12.0
290
     0
  0
SCALE
  5
22CB
102
{ACAD_REACTORS
330
22BC
102
}
330
22BC
100
AcDbScale
 70
     0
300
3" = 1'-0"
140
3.0
141
12.0
290
     0
  0
SCALE
  5
22CC
102
{ACAD_REACTORS
330
22BC
102
}
330
22BC
100
AcDbScale
 70
     0
300
6" = 1'-0"
140
6.0
141
12.0
290
     0
  0
SCALE
  5
22CD
102
{ACAD_REACTORS
330
22BC
102
}
330
22BC
100
AcDbScale
 70
     0
300
1'-0" = 1'-0"
140
12.0
141
12.0
290
     0
  0
ACDBSECTIONVIEWSTYLE
  5
22D1
102
{ACAD_XDICTIONARY
360
24F9
102
}
102
{ACAD_REACTORS
330
22D0
330
24A3
102
}
330
22D0
100
AcDbModelDocViewStyle
 70
     0
  3
Imperial24
290
     0
100
AcDbSectionViewStyle
 70
     0
 71
     0
 90
       78
 71
     1
340
1D1
 40
0.24
340
0
340
0
 40
0.24
300
I, O, Q, S, X, Z
 40
0.48
 90
        3
 40
0.18
 90
        1
 71
     2
340
1D5
 90
       25
340
1D5
 90
       50
 40
0.24
 40
0.0
 40
0.24
 71
     3
340
1D1
 40
0.24
 90
        1
 40
0.75
 90
        1
300
%<\AcVar ViewType \f "%tc1">% %<\AcVar ViewSectionStartId>%-%<\AcVar ViewSectionEndId>%\PSCALE %<\AcVar ViewScale \f "%sn">%
 71
     4
300
ANSI31
 40
1.0
 90
        0
290
     0
290
     0
 90
        6
 40
0.0
 40
1.570796326794896
 40
0.2617993877991494
 40
1.308996938995747
 40
-0.2617993877991494
 40
1.832595714594044
  0
TABLESTYLE
  5
22BB
102
{ACAD_XDICTIONARY
360
237B
102
}
102
{ACAD_REACTORS
330
22BA
102
}
330
22BA
100
AcDbTableStyle
  3
Standard
 70
     0
 71
     0
 40
0.06
 41
0.06
280
     0
281
     0
  7
STANDARD
140
0.18
170
     2
 62
     0
 63
     7
283
     0
274
    -2
284
     1
 64
     0
275
    -2
285
     1
 65
     0
276
    -2
286
     1
 66
     0
277
    -2
287
     1
 67
     0
278
    -2
288
     1
 68
     0
279
    -2
289
     1
 69
     0
  7
STANDARD
140
0.25
170
     5
 62
     0
 63
     7
283
     0
274
    -2
284
     1
 64
     0
275
    -2
285
     1
 65
     0
276
    -2
286
     1
 66
     0
277
    -2
287
     1
 67
     0
278
    -2
288
     1
 68
     0
279
    -2
289
     1
 69
     0
  7
STANDARD
140
0.18
170
     5
 62
     0
 63
     7
283
     0
274
    -2
284
     1
 64
     0
275
    -2
285
     1
 65
     0
276
    -2
286
     1
 66
     0
277
    -2
287
     1
 67
     0
278
    -2
288
     1
 68
     0
279
    -2
289
     1
 69
     0
  0
VISUALSTYLE
  5
22A6
102
{ACAD_XDICTIONARY
360
24D2
102
}
102
{ACAD_REACTORS
330
22A0
102
}
330
22A0
100
AcDbVisualStyle
  2

 70
     4
 71
     0
 72
     2
 73
     0
 90
        0
 40
-0.6
 41
-30.0
 62
     5
 63
     7
 74
     1
 91
        4
 64
     7
 65
   257
 75
     1
175
     1
 42
1.0
 92
        0
 66
   257
 43
1.0
 76
     1
 77
     6
 78
     2
 67
     7
 79
     5
170
     0
171
     0
290
     0
174
     0
 93
        1
 44
0.0
173
     0
291
     0
 45
0.0
1001
ACAD
1000
AcDbSavedByObjectVersion
1070
     0
  0
VISUALSTYLE
  5
22A5
102
{ACAD_XDICTIONARY
360
24D0
102
}
102
{ACAD_REACTORS
330
22A0
102
}
330
22A0
100
AcDbVisualStyle
  2

 70
     7
 71
     1
 72
     0
 73
     1
 90
        0
 40
-0.6
 41
-30.0
 62
     5
 63
     7
 74
     0
 91
        4
 64
     7
 65
   257
 75
     1
175
     1
 42
1.0
 92
        8
 66
     7
 43
1.0
 76
     1
 77
     6
 78
     2
 67
     7
 79
     5
170
     0
171
     0
290
     0
174
     0
 93
        1
 44
0.0
173
     0
291
     1
 45
0.0
1001
ACAD
1000
AcDbSavedByObjectVersion
1070
     0
  0
VISUALSTYLE
  5
22AC
102
{ACAD_XDICTIONARY
360
24DE
102
}
102
{ACAD_REACTORS
330
22A0
102
}
330
22A0
100
AcDbVisualStyle
  2

 70
    12
 71
     2
 72
     2
 73
     0
 90
        0
 40
-0.6
 41
-30.0
 62
     5
 63
     7
 74
     1
 91
        4
 64
     7
 65
   257
 75
     1
175
     1
 42
1.0
 92
        8
 66
     7
 43
1.0
 76
     1
 77
     6
 78
     2
 67
     7
 79
     5
170
     0
171
     0
290
     0
174
     0
 93
        1
 44
50.0
173
     0
291
     1
 45
0.0
1001
ACAD
1000
AcDbSavedByObjectVersion
1070
     0
  0
VISUALSTYLE
  5
22B0
102
{ACAD_XDICTIONARY
360
24E6
102
}
102
{ACAD_REACTORS
330
22A0
102
}
330
22A0
100
AcDbVisualStyle
  2

 70
    16
 71
     2
 72
     2
 73
     3
 90
        0
 40
-0.6
 41
-30.0
 62
     5
 63
     8
 74
     1
 91
        4
 64
     7
 65
   257
 75
     1
175
     1
 42
1.0
 92
        8
 66
     8
 43
1.0
 76
     1
 77
     6
 78
     2
 67
     7
 79
     5
170
     0
171
     0
290
     0
174
     0
 93
        1
 44
0.0
173
     0
291
     1
 45
0.0
1001
ACAD
1000
AcDbSavedByObjectVersion
1070
     0
  0
VISUALSTYLE
  5
22A9
102
{ACAD_XDICTIONARY
360
24D8
102
}
102
{ACAD_REACTORS
330
22A0
102
}
330
22A0
100
AcDbVisualStyle
  2

 70
     9
 71
     3
 72
     2
 73
     0
 90
        0
 40
-0.6
 41
-30.0
 62
     5
 63
     7
 74
     2
 91
        2
 64
     7
 65
   257
 75
     1
175
     1
 42
179.0
 92
        8
 66
     7
 43
1.0
 76
     1
 77
     6
 78
     2
 67
     7
 79
     3
170
     0
171
     0
290
     0
174
     0
 93
        1
 44
0.0
173
     0
291
     0
 45
0.0
1001
ACAD
1000
AcDbSavedByObjectVersion
1070
     0
  0
VISUALSTYLE
  5
22AB
102
{ACAD_XDICTIONARY
360
24DC
102
}
102
{ACAD_REACTORS
330
22A0
102
}
330
22A0
100
AcDbVisualStyle
  2

 70
    11
 71
     2
 72
     2
 73
     0
 90
        0
 40
-0.6
 41
-30.0
 62
     5
 63
     7
 74
     1
 91
        4
 64
     7
 65
   257
 75
     1
175
     1
 42
1.0
 92
        8
 66
     7
 43
1.0
 76
     1
 77
     6
 78
     2
 67
     7
 79
     5
170
     0
171
     0
290
     0
174
     0
 93
        1
 44
-50.0
173
     0
291
     1
 45
0.0
1001
ACAD
1000
AcDbSavedByObjectVersion
1070
     0
  0
VISUALSTYLE
  5
22B8
102
{ACAD_XDICTIONARY
360
24F6
102
}
102
{ACAD_REACTORS
330
22A0
102
}
330
22A0
100
AcDbVisualStyle
  2

 70
    22
 71
     2
 72
     2
 73
     0
 90
        0
 40
-0.6
 41
-30.0
 62
     5
 63
     7
 74
     1
 91
        4
 64
     7
 65
   257
 75
     1
175
     1
 42
1.0
 92
        8
 66
     7
 43
1.0
 76
     1
 77
     6
 78
     2
 67
     7
 79
     5
170
     0
171
     0
290
     0
174
     0
 93
        1
 44
0.0
173
     0
291
     1
 45
0.0
1001
ACAD
1000
AcDbSavedByObjectVersion
1070
     0
  0
VISUALSTYLE
  5
22AF
102
{ACAD_XDICTIONARY
360
24E4
102
}
102
{ACAD_REACTORS
330
22A0
102
}
330
22A0
100
AcDbVisualStyle
  2

 70
    15
 71
     2
 72
     2
 73
     0
 90
        0
 40
-0.6
 41
-30.0
 62
     5
 63
     7
 74
     1
 91
        4
 64
     7
 65
   257
 75
     1
175
     1
 42
1.0
 92
        8
 66
     7
 43
1.0
 76
     1
 77
     6
 78
     2
 67
     7
 79
     5
170
     0
171
     0
290
     0
174
     0
 93
        1
 44
0.0
173
     0
291
     1
 45
0.0
1001
ACAD
1000
AcDbSavedByObjectVersion
1070
     0
  0
VISUALSTYLE
  5
22A1
102
{ACAD_XDICTIONARY
360
24C8
102
}
102
{ACAD_REACTORS
330
22A0
102
}
330
22A0
100
AcDbVisualStyle
  2

 70
     0
 71
     2
 72
     1
 73
     1
 90
        2
 40
-0.6
 41
30.0
 62
     5
 63
     7
 74
     0
 91
        0
 64
     7
 65
   257
 75
     1
175
     1
 42
1.0
 92
        8
 66
     7
 43
1.0
 76
     1
 77
     6
 78
     2
 67
     7
 79
     5
170
     0
171
     0
290
     0
174
     0
 93
       13
 44
0.0
173
     0
291
     1
 45
0.0
1001
ACAD
1000
AcDbSavedByObjectVersion
1070
     0
  0
VISUALSTYLE
  5
22A2
102
{ACAD_XDICTIONARY
360
24CA
102
}
102
{ACAD_REACTORS
330
22A0
102
}
330
22A0
100
AcDbVisualStyle
  2

 70
     1
 71
     2
 72
     1
 73
     1
 90
        2
 40
-0.6
 41
30.0
 62
     5
 63
     7
 74
     1
 91
        0
 64
     7
 65
   257
 75
     1
175
     1
 42
1.0
 92
        0
 66
   257
 43
1.0
 76
     1
 77
     6
 78
     2
 67
     7
 79
     5
170
     0
171
     0
290
     0
174
     0
 93
       13
 44
0.0
173
     0
291
     1
 45
0.0
1001
ACAD
1000
AcDbSavedByObjectVersion
1070
     0
  0
VISUALSTYLE
  5
22A3
102
{ACAD_XDICTIONARY
360
24CC
102
}
102
{ACAD_REACTORS
330
22A0
102
}
330
22A0
100
AcDbVisualStyle
  2

 70
     2
 71
     2
 72
     2
 73
     1
 90
        2
 40
-0.6
 41
30.0
 62
     5
 63
     7
 74
     0
 91
        0
 64
     7
 65
   257
 75
     1
175
     1
 42
1.0
 92
        0
 66
     7
 43
1.0
 76
     1
 77
     6
 78
     2
 67
     7
 79
     5
170
     0
171
     0
290
     0
174
     0
 93
       13
 44
0.0
173
     0
291
     1
 45
0.0
1001
ACAD
1000
AcDbSavedByObjectVersion
1070
     0
  0
VISUALSTYLE
  5
22A4
102
{ACAD_XDICTIONARY
360
24CE
102
}
102
{ACAD_REACTORS
330
22A0
102
}
330
22A0
100
AcDbVisualStyle
  2

 70
     3
 71
     2
 72
     2
 73
     1
 90
        2
 40
-0.6
 41
30.0
 62
     5
 63
     7
 74
     1
 91
        0
 64
     7
 65
   257
 75
     1
175
     1
 42
1.0
 92
        0
 66
   257
 43
1.0
 76
     1
 77
     6
 78
     2
 67
     7
 79
     5
170
     0
171
     0
290
     0
174
     0
 93
       13
 44
0.0
173
     0
291
     1
 45
0.0
1001
ACAD
1000
AcDbSavedByObjectVersion
1070
     0
  0
VISUALSTYLE
  5
22A8
102
{ACAD_XDICTIONARY
360
24D6
102
}
102
{ACAD_REACTORS
330
22A0
102
}
330
22A0
100
AcDbVisualStyle
  2

 70
     6
 71
     1
 72
     2
 73
     2
 90
        0
 40
-0.6
 41
-30.0
 62
     5
 63
     7
 74
     2
 91
        2
 64
     7
 65
   257
 75
     2
175
     1
 42
40.0
 92
        0
 66
   257
 43
1.0
 76
     1
 77
     6
 78
     2
 67
     7
 79
     3
170
     0
171
     0
290
     0
174
     0
 93
        1
 44
0.0
173
     0
291
     0
 45
0.0
1001
ACAD
1000
AcDbSavedByObjectVersion
1070
     0
  0
VISUALSTYLE
  5
22B6
102
{ACAD_XDICTIONARY
360
24F2
102
}
102
{ACAD_REACTORS
330
22A0
102
}
330
22A0
100
AcDbVisualStyle
  2

 70
    20
 71
     2
 72
     2
 73
     0
 90
        0
 40
-0.6
 41
-30.0
 62
     5
 63
     7
 74
     1
 91
        4
 64
     7
 65
   257
 75
     1
175
     1
 42
1.0
 92
       10
 66
     7
 43
1.0
 76
     1
 77
     6
 78
     2
 67
     7
 79
     5
170
     0
171
     0
290
     0
174
     0
 93
        1
 44
0.0
173
     0
291
     1
 45
0.0
1001
ACAD
1000
AcDbSavedByObjectVersion
1070
     0
  0
VISUALSTYLE
  5
22AE
102
{ACAD_XDICTIONARY
360
24E2
102
}
102
{ACAD_REACTORS
330
22A0
102
}
330
22A0
100
AcDbVisualStyle
  2

 70
    14
 71
     2
 72
     2
 73
     0
 90
        0
 40
-0.6
 41
-30.0
 62
     5
 63
     7
 74
     1
 91
        4
 64
     7
 65
   257
 75
     7
175
     7
 42
1.0
 92
        8
 66
     7
 43
1.0
 76
     1
 77
     6
 78
     2
 67
     7
 79
     5
170
     0
171
     0
290
     0
174
     0
 93
        1
 44
0.0
173
     0
291
     1
 45
0.0
1001
ACAD
1000
AcDbSavedByObjectVersion
1070
     0
  0
VISUALSTYLE
  5
22B7
102
{ACAD_XDICTIONARY
360
24F4
102
}
102
{ACAD_REACTORS
330
22A0
102
}
330
22A0
100
AcDbVisualStyle
  2

 70
    21
 71
     2
 72
     2
 73
     0
 90
        0
 40
-0.6
 41
-30.0
 62
     5
 63
     7
 74
     1
 91
        4
 64
     7
 65
   257
 75
     1
175
     1
 42
1.0
 92
        9
 66
     7
 43
1.0
 76
     1
 77
     6
 78
     2
 67
     7
 79
     5
170
     0
171
     0
290
     0
174
     0
 93
        1
 44
0.0
173
     0
291
     1
 45
0.0
1001
ACAD
1000
AcDbSavedByObjectVersion
1070
     0
  0
VISUALSTYLE
  5
22AA
102
{ACAD_XDICTIONARY
360
24DA
102
}
102
{ACAD_REACTORS
330
22A0
102
}
330
22A0
100
AcDbVisualStyle
  2

 70
     8
 71
     2
 72
     3
 73
     0
 90
        2
 40
-0.6
 41
30.0
 62
     5
 63
     7
 74
     0
 91
        0
 64
     7
 65
   257
 75
     1
175
     1
 42
1.0
 92
        8
 66
   257
 43
1.0
 76
     1
 77
     6
 78
     2
 67
     7
 79
     3
170
     0
171
     0
290
     0
174
     0
 93
       13
 44
0.0
173
     0
291
     0
 45
0.0
1001
ACAD
1000
AcDbSavedByObjectVersion
1070
     0
  0
VISUALSTYLE
  5
22B5
102
{ACAD_XDICTIONARY
360
24F0
102
}
102
{ACAD_REACTORS
330
22A0
102
}
330
22A0
100
AcDbVisualStyle
  2

 70
    27
 71
     2
 72
     2
 73
     1
 90
        2
 40
-0.6
 41
30.0
 62
     5
 63
     7
 74
     0
 91
        4
 64
     7
 65
   257
 75
     1
175
     1
 42
1.0
 92
        8
 66
   257
 43
1.0
 76
     1
 77
     6
 78
     2
 67
     8
 79
     3
170
     0
171
     0
290
     0
174
     0
 93
        5
 44
0.0
173
     0
291
     0
 45
0.0
1001
ACAD
1000
AcDbSavedByObjectVersion
1070
     0
  0
VISUALSTYLE
  5
22B4
102
{ACAD_XDICTIONARY
360
24EE
102
}
102
{ACAD_REACTORS
330
22A0
102
}
330
22A0
100
AcDbVisualStyle
  2

 70
    26
 71
     2
 72
     2
 73
     1
 90
        2
 40
-0.6
 41
30.0
 62
     5
 63
     7
 74
     1
 91
        2
 64
     7
 65
   257
 75
     2
175
     1
 42
1.0
 92
        8
 66
   257
 43
1.0
 76
     1
 77
     6
 78
     2
 67
     7
 79
     3
170
     0
171
     0
290
     0
174
     0
 93
        5
 44
0.0
173
     0
291
     0
 45
0.0
1001
ACAD
1000
AcDbSavedByObjectVersion
1070
     0
  0
VISUALSTYLE
  5
22B1
102
{ACAD_XDICTIONARY
360
24E8
102
}
102
{ACAD_REACTORS
330
22A0
102
}
330
22A0
100
AcDbVisualStyle
  2

 70
    23
 71
     2
 72
     2
 73
     3
 90
        0
 40
-0.6
 41
-30.0
 62
     5
 63
     7
 74
     2
 91
        2
 64
     7
 65
     7
 75
     1
175
     1
 42
40.0
 92
        8
 66
     7
 43
1.0
 76
     1
 77
     6
 78
     2
 67
     7
 79
     3
170
     0
171
     0
290
     0
174
     0
 93
        1
 44
0.0
173
     0
291
     0
 45
0.0
1001
ACAD
1000
AcDbSavedByObjectVersion
1070
     0
  0
VISUALSTYLE
  5
22B2
102
{ACAD_XDICTIONARY
360
24EA
102
}
102
{ACAD_REACTORS
330
22A0
102
}
330
22A0
100
AcDbVisualStyle
  2

 70
    24
 71
     1
 72
     2
 73
     2
 90
        0
 40
-0.6
 41
-30.0
 62
     5
 63
     7
 74
     2
 91
        2
 64
     7
 65
     7
 75
     1
175
     1
 42
40.0
 92
       11
 66
     7
 43
1.0
 76
     1
 77
     6
 78
     2
 67
     7
 79
     6
170
     0
171
     0
290
     0
174
     0
 93
        1
 44
0.0
173
     0
291
     0
 45
0.0
1001
ACAD
1000
AcDbSavedByObjectVersion
1070
     0
  0
VISUALSTYLE
  5
22AD
102
{ACAD_XDICTIONARY
360
24E0
102
}
102
{ACAD_REACTORS
330
22A0
102
}
330
22A0
100
AcDbVisualStyle
  2

 70
    13
 71
     2
 72
     2
 73
     0
 90
        0
 40
-0.6
 41
-30.0
 62
     5
 63
     7
 74
     1
 91
        4
 64
     7
 65
   257
 75
     1
175
     1
 42
1.0
 92
       12
 66
     7
 43
1.0
 76
     1
 77
     6
 78
     2
 67
     7
 79
     5
170
     0
171
     0
290
     0
174
     0
 93
        1
 44
0.0
173
     0
291
     1
 45
0.0
1001
ACAD
1000
AcDbSavedByObjectVersion
1070
     0
  0
VISUALSTYLE
  5
22A7
102
{ACAD_XDICTIONARY
360
24D4
102
}
102
{ACAD_REACTORS
330
22A0
102
}
330
22A0
100
AcDbVisualStyle
  2

 70
     5
 71
     0
 72
     2
 73
     0
 90
        0
 40
-0.6
 41
-30.0
 62
     5
 63
     7
 74
     1
 91
        4
 64
     7
 65
   257
 75
     1
175
     1
 42
1.0
 92
        0
 66
   257
 43
1.0
 76
     1
 77
     6
 78
     2
 67
     7
 79
     3
170
     0
171
     0
290
     0
174
     0
 93
        1
 44
0.0
173
     0
291
     0
 45
0.0
1001
ACAD
1000
AcDbSavedByObjectVersion
1070
     0
  0
VISUALSTYLE
  5
22B3
102
{ACAD_XDICTIONARY
360
24EC
102
}
102
{ACAD_REACTORS
330
22A0
102
}
330
22A0
100
AcDbVisualStyle
  2

 70
    25
 71
     2
 72
     2
 73
     1
 90
        1
 40
0.5
 41
-30.0
 62
     5
 63
     7
 74
     1
 91
        0
 64
     7
 65
   257
 75
     1
175
     1
 42
1.0
 92
        8
 66
     7
 43
1.0
 76
     1
 77
     6
 78
     2
 67
     7
 79
     3
170
     0
171
     0
290
     0
174
     0
 93
       13
 44
0.0
173
     0
291
     0
 45
0.0
1001
ACAD
1000
AcDbSavedByObjectVersion
1070
     0
  0
DICTIONARYVAR
  5
2376
102
{ACAD_REACTORS
330
2371
102
}
330
2371
100
DictionaryVariables
280
     0
  1
1:1
  0
DICTIONARYVAR
  5
2373
102
{ACAD_REACTORS
330
2371
102
}
330
2371
100
DictionaryVariables
280
     0
  1
STANDARD
  0
DICTIONARYVAR
  5
2372
102
{ACAD_REACTORS
330
2371
102
}
330
2371
100
DictionaryVariables
280
     0
  1
STANDARD
  0
DICTIONARYVAR
  5
2374
102
{ACAD_REACTORS
330
2371
102
}
330
2371
100
DictionaryVariables
280
     0
  1
Imperial24
  0
DICTIONARYVAR
  5
2375
102
{ACAD_REACTORS
330
2371
102
}
330
2371
100
DictionaryVariables
280
     0
  1
Imperial24
  0
DICTIONARYVAR
  5
2379
102
{ACAD_REACTORS
330
2371
102
}
330
2371
100
DictionaryVariables
280
     0
  1
1
  0
DICTIONARYVAR
  5
2378
102
{ACAD_REACTORS
330
2371
102
}
330
2371
100
DictionaryVariables
280
     0
  1
0
  0
DICTIONARYVAR
  5
241F
102
{ACAD_REACTORS
330
2371
102
}
330
2371
100
DictionaryVariables
280
     0
  1
1
  0
DICTIONARYVAR
  5
2420
102
{ACAD_REACTORS
330
2371
102
}
330
2371
100
DictionaryVariables
280
     0
  1
15
  0
DICTIONARYVAR
  5
241E
102
{ACAD_REACTORS
330
2371
102
}
330
2371
100
DictionaryVariables
280
     0
  1
0
  0
DICTIONARYVAR
  5
24BC
102
{ACAD_REACTORS
330
2371
102
}
330
2371
100
DictionaryVariables
280
     0
  1
1.570796
  0
DICTIONARYVAR
  5
24BD
102
{ACAD_REACTORS
330
2371
102
}
330
2371
100
DictionaryVariables
280
     0
  1
1.570796
  0
DICTIONARYVAR
  5
24BE
102
{ACAD_REACTORS
330
2371
102
}
330
2371
100
DictionaryVariables
280
     0
  1
-122.394000
  0
DICTIONARYVAR
  5
241D
102
{ACAD_REACTORS
330
2371
102
}
330
2371
100
DictionaryVariables
280
     0
  1
0
  0
DICTIONARYVAR
  5
2377
102
{ACAD_REACTORS
330
2371
102
}
330
2371
100
DictionaryVariables
280
     0
  1
127
  0
DICTIONARYVAR
  5
24BF
102
{ACAD_REACTORS
330
2371
102
}
330
2371
100
DictionaryVariables
280
     0
  1
2
  0
DICTIONARY
  5
230B
102
{ACAD_REACTORS
330
2304
102
}
330
2304
100
AcDbDictionary
281
     1
  0
DICTIONARY
  5
24FB
330
22D3
100
AcDbDictionary
280
     1
281
     1
  3
ACAD_XREC_ROUNDTRIP
360
24FC
  0
DICTIONARY
  5
24FD
330
22D4
100
AcDbDictionary
280
     1
281
     1
  3
ACAD_XREC_ROUNDTRIP
360
24FE
  0
DICTIONARY
  5
24FF
330
22D5
100
AcDbDictionary
280
     1
281
     1
  3
ACAD_XREC_ROUNDTRIP
360
2500
  0
DICTIONARY
  5
2291
330
2290
100
AcDbDictionary
280
     1
281
     1
  3
ACAD_XREC_ROUNDTRIP
360
2380
  3
BUMPTILE
360
2293
  3
DIFFUSETILE
360
2292
  3
OPACITYTILE
360
2296
  3
REFLECTIONTILE
360
2295
  3
REFRACTIONTILE
360
2297
  3
SPECULARTILE
360
2294
  0
DICTIONARY
  5
2289
330
2288
100
AcDbDictionary
280
     1
281
     1
  3
ACAD_XREC_ROUNDTRIP
360
237F
  3
BUMPTILE
360
228B
  3
DIFFUSETILE
360
228A
  3
OPACITYTILE
360
228E
  3
REFLECTIONTILE
360
228D
  3
REFRACTIONTILE
360
228F
  3
SPECULARTILE
360
228C
  0
DICTIONARY
  5
2299
330
2298
100
AcDbDictionary
280
     1
281
     1
  3
ACAD_XREC_ROUNDTRIP
360
2381
  3
BUMPTILE
360
229B
  3
DIFFUSETILE
360
229A
  3
OPACITYTILE
360
229E
  3
REFLECTIONTILE
360
229D
  3
REFRACTIONTILE
360
229F
  3
SPECULARTILE
360
229C
  0
DICTIONARY
  5
24F9
330
22D1
100
AcDbDictionary
280
     1
281
     1
  3
ACAD_XREC_ROUNDTRIP
360
24FA
  0
DICTIONARY
  5
237B
330
22BB
100
AcDbDictionary
280
     1
281
     1
  3
ACAD_ROUNDTRIP_2008_TABLESTYLE_CELLSTYLEMAP
360
24C0
  3
ACAD_XREC_ROUNDTRIP
360
24F8
  0
DICTIONARY
  5
24D2
330
22A6
100
AcDbDictionary
280
     1
281
     1
  3
ACAD_XREC_ROUNDTRIP
360
24D3
  0
DICTIONARY
  5
24D0
330
22A5
100
AcDbDictionary
280
     1
281
     1
  3
ACAD_XREC_ROUNDTRIP
360
24D1
  0
DICTIONARY
  5
24DE
330
22AC
100
AcDbDictionary
280
     1
281
     1
  3
ACAD_XREC_ROUNDTRIP
360
24DF
  0
DICTIONARY
  5
24E6
330
22B0
100
AcDbDictionary
280
     1
281
     1
  3
ACAD_XREC_ROUNDTRIP
360
24E7
  0
DICTIONARY
  5
24D8
330
22A9
100
AcDbDictionary
280
     1
281
     1
  3
ACAD_XREC_ROUNDTRIP
360
24D9
  0
DICTIONARY
  5
24DC
330
22AB
100
AcDbDictionary
280
     1
281
     1
  3
ACAD_XREC_ROUNDTRIP
360
24DD
  0
DICTIONARY
  5
24F6
330
22B8
100
AcDbDictionary
280
     1
281
     1
  3
ACAD_XREC_ROUNDTRIP
360
24F7
  0
DICTIONARY
  5
24E4
330
22AF
100
AcDbDictionary
280
     1
281
     1
  3
ACAD_XREC_ROUNDTRIP
360
24E5
  0
DICTIONARY
  5
24C8
330
22A1
100
AcDbDictionary
280
     1
281
     1
  3
ACAD_XREC_ROUNDTRIP
360
24C9
  0
DICTIONARY
  5
24CA
330
22A2
100
AcDbDictionary
280
     1
281
     1
  3
ACAD_XREC_ROUNDTRIP
360
24CB
  0
DICTIONARY
  5
24CC
330
22A3
100
AcDbDictionary
280
     1
281
     1
  3
ACAD_XREC_ROUNDTRIP
360
24CD
  0
DICTIONARY
  5
24CE
330
22A4
100
AcDbDictionary
280
     1
281
     1
  3
ACAD_XREC_ROUNDTRIP
360
24CF
  0
DICTIONARY
  5
24D6
330
22A8
100
AcDbDictionary
280
     1
281
     1
  3
ACAD_XREC_ROUNDTRIP
360
24D7
  0
DICTIONARY
  5
24F2
330
22B6
100
AcDbDictionary
280
     1
281
     1
  3
ACAD_XREC_ROUNDTRIP
360
24F3
  0
DICTIONARY
  5
24E2
330
22AE
100
AcDbDictionary
280
     1
281
     1
  3
ACAD_XREC_ROUNDTRIP
360
24E3
  0
DICTIONARY
  5
24F4
330
22B7
100
AcDbDictionary
280
     1
281
     1
  3
ACAD_XREC_ROUNDTRIP
360
24F5
  0
DICTIONARY
  5
24DA
330
22AA
100
AcDbDictionary
280
     1
281
     1
  3
ACAD_XREC_ROUNDTRIP
360
24DB
  0
DICTIONARY
  5
24F0
330
22B5
100
AcDbDictionary
280
     1
281
     1
  3
ACAD_XREC_ROUNDTRIP
360
24F1
  0
DICTIONARY
  5
24EE
330
22B4
100
AcDbDictionary
280
     1
281
     1
  3
ACAD_XREC_ROUNDTRIP
360
24EF
  0
DICTIONARY
  5
24E8
330
22B1
100
AcDbDictionary
280
     1
281
     1
  3
ACAD_XREC_ROUNDTRIP
360
24E9
  0
DICTIONARY
  5
24EA
330
22B2
100
AcDbDictionary
280
     1
281
     1
  3
ACAD_XREC_ROUNDTRIP
360
24EB
  0
DICTIONARY
  5
24E0
330
22AD
100
AcDbDictionary
280
     1
281
     1
  3
ACAD_XREC_ROUNDTRIP
360
24E1
  0
DICTIONARY
  5
24D4
330
22A7
100
AcDbDictionary
280
     1
281
     1
  3
ACAD_XREC_ROUNDTRIP
360
24D5
  0
DICTIONARY
  5
24EC
330
22B3
100
AcDbDictionary
280
     1
281
     1
  3
ACAD_XREC_ROUNDTRIP
360
24ED
  0
XRECORD
  5
24FC
102
{ACAD_REACTORS
330
24FB
102
}
330
24FB
100
AcDbXrecord
280
     1
102
DISPLAYNAME
  1
Imperial24
102
FLAGS
 90
        0
  0
XRECORD
  5
24FE
102
{ACAD_REACTORS
330
24FD
102
}
330
24FD
100
AcDbXrecord
280
     1
102
SHADEPLOT
 70
     0
102
SHADEPLOTRESLEVEL
 70
     2
102
SHADEPLOTCUSTOMDPI
 70
   300
  0
XRECORD
  5
2500
102
{ACAD_REACTORS
330
24FF
102
}
330
24FF
100
AcDbXrecord
280
     1
102
SHADEPLOT
 70
     0
102
SHADEPLOTRESLEVEL
 70
     2
102
SHADEPLOTCUSTOMDPI
 70
   300
  0
XRECORD
  5
2380
102
{ACAD_REACTORS
330
2291
102
}
330
2291
100
AcDbXrecord
280
     1
102
MATERIAL
148
0.0
149
0.0
149
0.0
 93
        0
 94
      127
282
     0
 72
     0
 77
     0
171
     0
175
     0
179
     0
273
     0
  0
XRECORD
  5
2293
102
{ACAD_REACTORS
330
2291
102
}
330
2291
100
AcDbXrecord
280
     1
270
     1
271
     1
  0
XRECORD
  5
2292
102
{ACAD_REACTORS
330
2291
102
}
330
2291
100
AcDbXrecord
280
     1
270
     1
271
     1
  0
XRECORD
  5
2296
102
{ACAD_REACTORS
330
2291
102
}
330
2291
100
AcDbXrecord
280
     1
270
     1
271
     1
  0
XRECORD
  5
2295
102
{ACAD_REACTORS
330
2291
102
}
330
2291
100
AcDbXrecord
280
     1
270
     1
271
     1
  0
XRECORD
  5
2297
102
{ACAD_REACTORS
330
2291
102
}
330
2291
100
AcDbXrecord
280
     1
270
     1
271
     1
  0
XRECORD
  5
2294
102
{ACAD_REACTORS
330
2291
102
}
330
2291
100
AcDbXrecord
280
     1
270
     1
271
     1
  0
XRECORD
  5
237F
102
{ACAD_REACTORS
330
2289
102
}
330
2289
100
AcDbXrecord
280
     1
102
MATERIAL
148
0.0
149
0.0
149
0.0
 93
        0
 94
      127
282
     0
 72
     0
 77
     0
171
     0
175
     0
179
     0
273
     0
  0
XRECORD
  5
228B
102
{ACAD_REACTORS
330
2289
102
}
330
2289
100
AcDbXrecord
280
     1
270
     1
271
     1
  0
XRECORD
  5
228A
102
{ACAD_REACTORS
330
2289
102
}
330
2289
100
AcDbXrecord
280
     1
270
     1
271
     1
  0
XRECORD
  5
228E
102
{ACAD_REACTORS
330
2289
102
}
330
2289
100
AcDbXrecord
280
     1
270
     1
271
     1
  0
XRECORD
  5
228D
102
{ACAD_REACTORS
330
2289
102
}
330
2289
100
AcDbXrecord
280
     1
270
     1
271
     1
  0
XRECORD
  5
228F
102
{ACAD_REACTORS
330
2289
102
}
330
2289
100
AcDbXrecord
280
     1
270
     1
271
     1
  0
XRECORD
  5
228C
102
{ACAD_REACTORS
330
2289
102
}
330
2289
100
AcDbXrecord
280
     1
270
     1
271
     1
  0
XRECORD
  5
2381
102
{ACAD_REACTORS
330
2299
102
}
330
2299
100
AcDbXrecord
280
     1
102
MATERIAL
148
0.0
149
0.0
149
0.0
 93
        0
 94
      127
282
     0
 72
     0
 77
     0
171
     0
175
     0
179
     0
273
     0
  0
XRECORD
  5
229B
102
{ACAD_REACTORS
330
2299
102
}
330
2299
100
AcDbXrecord
280
     1
270
     1
271
     1
  0
XRECORD
  5
229A
102
{ACAD_REACTORS
330
2299
102
}
330
2299
100
AcDbXrecord
280
     1
270
     1
271
     1
  0
XRECORD
  5
229E
102
{ACAD_REACTORS
330
2299
102
}
330
2299
100
AcDbXrecord
280
     1
270
     1
271
     1
  0
XRECORD
  5
229D
102
{ACAD_REACTORS
330
2299
102
}
330
2299
100
AcDbXrecord
280
     1
270
     1
271
     1
  0
XRECORD
  5
229F
102
{ACAD_REACTORS
330
2299
102
}
330
2299
100
AcDbXrecord
280
     1
270
     1
271
     1
  0
XRECORD
  5
229C
102
{ACAD_REACTORS
330
2299
102
}
330
2299
100
AcDbXrecord
280
     1
270
     1
271
     1
  0
XRECORD
  5
24FA
102
{ACAD_REACTORS
330
24F9
102
}
330
24F9
100
AcDbXrecord
280
     1
102
DISPLAYNAME
  1
Imperial24
102
FLAGS
 90
        0
  0
CELLSTYLEMAP
  5
24C0
102
{ACAD_REACTORS
330
237B
102
}
330
237B
100
AcDbCellStyleMap
 90
        3
300
CELLSTYLE
  1
TABLEFORMAT_BEGIN
 90
        5
170
     1
 91
        0
 92
    32768
 62
   257
 93
        1
300
CONTENTFORMAT
  1
CONTENTFORMAT_BEGIN
 90
        0
 91
        0
 92
      512
 93
        0
300

 40
0.0
140
1.0
 94
        5
 62
     0
340
1D1
144
0.25
309
CONTENTFORMAT_END
171
     1
301
MARGIN
  1
CELLMARGIN_BEGIN
 40
0.06
 40
0.06
 40
0.06
 40
0.06
 40
0.18
 40
0.18
309
CELLMARGIN_END
 94
        6
 95
        1
302
GRIDFORMAT
  1
GRIDFORMAT_BEGIN
 90
        0
 91
        1
 62
     0
 92
       -2
340
0
 93
        0
 40
0.045
309
GRIDFORMAT_END
 95
        2
302
GRIDFORMAT
  1
GRIDFORMAT_BEGIN
 90
        0
 91
        1
 62
     0
 92
       -2
340
0
 93
        0
 40
0.045
309
GRIDFORMAT_END
 95
        4
302
GRIDFORMAT
  1
GRIDFORMAT_BEGIN
 90
        0
 91
        1
 62
     0
 92
       -2
340
0
 93
        0
 40
0.045
309
GRIDFORMAT_END
 95
        8
302
GRIDFORMAT
  1
GRIDFORMAT_BEGIN
 90
        0
 91
        1
 62
     0
 92
       -2
340
0
 93
        0
 40
0.045
309
GRIDFORMAT_END
 95
       16
302
GRIDFORMAT
  1
GRIDFORMAT_BEGIN
 90
        0
 91
        1
 62
     0
 92
       -2
340
0
 93
        0
 40
0.045
309
GRIDFORMAT_END
 95
       32
302
GRIDFORMAT
  1
GRIDFORMAT_BEGIN
 90
        0
 91
        1
 62
     0
 92
       -2
340
0
 93
        0
 40
0.045
309
GRIDFORMAT_END
309
TABLEFORMAT_END
  1
CELLSTYLE_BEGIN
 90
        1
 91
        1
300
_TITLE
309
CELLSTYLE_END
300
CELLSTYLE
  1
TABLEFORMAT_BEGIN
 90
        5
170
     1
 91
        0
 92
        0
 62
   257
 93
        1
300
CONTENTFORMAT
  1
CONTENTFORMAT_BEGIN
 90
        0
 91
        0
 92
      512
 93
        0
300

 40
0.0
140
1.0
 94
        5
 62
     0
340
1D1
144
0.18
309
CONTENTFORMAT_END
171
     1
301
MARGIN
  1
CELLMARGIN_BEGIN
 40
0.06
 40
0.06
 40
0.06
 40
0.06
 40
0.18
 40
0.18
309
CELLMARGIN_END
 94
        6
 95
        1
302
GRIDFORMAT
  1
GRIDFORMAT_BEGIN
 90
        0
 91
        1
 62
     0
 92
       -2
340
0
 93
        0
 40
0.045
309
GRIDFORMAT_END
 95
        2
302
GRIDFORMAT
  1
GRIDFORMAT_BEGIN
 90
        0
 91
        1
 62
     0
 92
       -2
340
0
 93
        0
 40
0.045
309
GRIDFORMAT_END
 95
        4
302
GRIDFORMAT
  1
GRIDFORMAT_BEGIN
 90
        0
 91
        1
 62
     0
 92
       -2
340
0
 93
        0
 40
0.045
309
GRIDFORMAT_END
 95
        8
302
GRIDFORMAT
  1
GRIDFORMAT_BEGIN
 90
        0
 91
        1
 62
     0
 92
       -2
340
0
 93
        0
 40
0.045
309
GRIDFORMAT_END
 95
       16
302
GRIDFORMAT
  1
GRIDFORMAT_BEGIN
 90
        0
 91
        1
 62
     0
 92
       -2
340
0
 93
        0
 40
0.045
309
GRIDFORMAT_END
 95
       32
302
GRIDFORMAT
  1
GRIDFORMAT_BEGIN
 90
        0
 91
        1
 62
     0
 92
       -2
340
0
 93
        0
 40
0.045
309
GRIDFORMAT_END
309
TABLEFORMAT_END
  1
CELLSTYLE_BEGIN
 90
        2
 91
        1
300
_HEADER
309
CELLSTYLE_END
300
CELLSTYLE
  1
TABLEFORMAT_BEGIN
 90
        5
170
     1
 91
        0
 92
        0
 62
   257
 93
        1
300
CONTENTFORMAT
  1
CONTENTFORMAT_BEGIN
 90
        0
 91
        0
 92
      512
 93
        0
300

 40
0.0
140
1.0
 94
        2
 62
     0
340
1D1
144
0.18
309
CONTENTFORMAT_END
171
     1
301
MARGIN
  1
CELLMARGIN_BEGIN
 40
0.06
 40
0.06
 40
0.06
 40
0.06
 40
0.18
 40
0.18
309
CELLMARGIN_END
 94
        6
 95
        1
302
GRIDFORMAT
  1
GRIDFORMAT_BEGIN
 90
        0
 91
        1
 62
     0
 92
       -2
340
0
 93
        0
 40
0.045
309
GRIDFORMAT_END
 95
        2
302
GRIDFORMAT
  1
GRIDFORMAT_BEGIN
 90
        0
 91
        1
 62
     0
 92
       -2
340
0
 93
        0
 40
0.045
309
GRIDFORMAT_END
 95
        4
302
GRIDFORMAT
  1
GRIDFORMAT_BEGIN
 90
        0
 91
        1
 62
     0
 92
       -2
340
0
 93
        0
 40
0.045
309
GRIDFORMAT_END
 95
        8
302
GRIDFORMAT
  1
GRIDFORMAT_BEGIN
 90
        0
 91
        1
 62
     0
 92
       -2
340
0
 93
        0
 40
0.045
309
GRIDFORMAT_END
 95
       16
302
GRIDFORMAT
  1
GRIDFORMAT_BEGIN
 90
        0
 91
        1
 62
     0
 92
       -2
340
0
 93
        0
 40
0.045
309
GRIDFORMAT_END
 95
       32
302
GRIDFORMAT
  1
GRIDFORMAT_BEGIN
 90
        0
 91
        1
 62
     0
 92
       -2
340
0
 93
        0
 40
0.045
309
GRIDFORMAT_END
309
TABLEFORMAT_END
  1
CELLSTYLE_BEGIN
 90
        3
 91
        2
300
_DATA
309
CELLSTYLE_END
  0
XRECORD
  5
24F8
102
{ACAD_REACTORS
330
237B
102
}
330
237B
100
AcDbXrecord
280
     1
102
ACAD_ROUNDTRIP_PRE2007_TABLESTYLE
 90
      512
 91
        0
  1

 92
      512
 93
        0
  2

 94
      512
 95
        0
  3

  0
XRECORD
  5
24D3
102
{ACAD_REACTORS
330
24D2
102
}
330
24D2
100
AcDbXrecord
280
     1
102
RTVSPost2010Prop28
280
     1
102
RTVSPost2010PropOp28
 70
     1
102
RTVSPost2010Prop29
280
     1
102
RTVSPost2010PropOp29
 70
     1
102
RTVSPost2010Prop30
280
     0
102
RTVSPost2010PropOp30
 70
     1
102
RTVSPost2010Prop31
280
     0
102
RTVSPost2010PropOp31
 70
     1
102
RTVSPost2010Prop32
280
     0
102
RTVSPost2010PropOp32
 70
     1
102
RTVSPost2010Prop33
280
     0
102
RTVSPost2010PropOp33
 70
     1
102
RTVSPost2010Prop34
280
     0
102
RTVSPost2010PropOp34
 70
     1
102
RTVSPost2010Prop35
280
     0
102
RTVSPost2010PropOp35
 70
     1
102
RTVSPost2010Prop36
280
     0
102
RTVSPost2010PropOp36
 70
     1
102
RTVSPost2010Prop37
 90
       50
102
RTVSPost2010PropOp37
 70
     1
102
RTVSPost2010Prop38
140
0.0
102
RTVSPost2010PropOp38
 70
     1
102
RTVSPost2010Prop39
140
1.0
102
RTVSPost2010PropOp39
 70
     1
102
RTVSPost2010Prop40
 90
        0
102
RTVSPost2010PropOp40
 70
     1
102
RTVSPost2010Prop41ColorIndex
 90
       18
102
RTVSPost2010Prop41ColorRGB
 90
        0
102
RTVSPost2010PropOp41
 70
     1
102
RTVSPost2010Prop42
 90
       50
102
RTVSPost2010PropOp42
 70
     1
102
RTVSPost2010Prop43
 90
        3
102
RTVSPost2010PropOp43
 70
     1
102
RTVSPost2010Prop44ColorIndex
 90
        5
102
RTVSPost2010Prop44ColorRGB
 90
      255
102
RTVSPost2010PropOp44
 70
     1
102
RTVSPost2010Prop45
280
     0
102
RTVSPost2010PropOp45
 70
     1
102
RTVSPost2010Prop46
 90
       50
102
RTVSPost2010PropOp46
 70
     1
102
RTVSPost2010Prop47
 90
       50
102
RTVSPost2010PropOp47
 70
     1
102
RTVSPost2010Prop48
 90
       50
102
RTVSPost2010PropOp48
 70
     1
102
RTVSPost2010Prop49
280
     0
102
RTVSPost2010PropOp49
 70
     1
102
RTVSPost2010Prop50
 90
       50
102
RTVSPost2010PropOp50
 70
     1
102
RTVSPost2010Prop51ColorIndex
 90
      256
102
RTVSPost2010Prop51ColorRGB
 90
-16777216
102
RTVSPost2010PropOp51
 70
     0
102
RTVSPost2010Prop52
140
1.0
102
RTVSPost2010PropOp52
 70
     0
102
RTVSPost2010Prop53
 90
        2
102
RTVSPost2010PropOp53
 70
     1
102
RTVSPost2010Prop54
  1
strokes_ogs.tif
102
RTVSPost2010PropOp54
 70
     1
102
RTVSPost2010Prop55
280
     0
102
RTVSPost2010PropOp55
 70
     1
102
RTVSPost2010Prop56
140
1.0
102
RTVSPost2010PropOp56
 70
     1
102
RTVSPost2010Prop57
140
1.0
102
RTVSPost2010PropOp57
 70
     1
102
RTVSPropertyOp0
 70
     1
102
RTVSPropertyOp1
 70
     1
102
RTVSPropertyOp2
 70
     1
102
RTVSPropertyOp3
 70
     1
102
RTVSPropertyOp4
 70
     1
102
RTVSPropertyOp5
 70
     1
102
RTVSPropertyOp6
 70
     1
102
RTVSPropertyOp7
 70
     1
102
RTVSPropertyOp8
 70
     1
102
RTVSPropertyOp9
 70
     1
102
RTVSPropertyOp10
 70
     1
102
RTVSPropertyOp11
 70
     1
102
RTVSPropertyOp12
 70
     1
102
RTVSPropertyOp13
 70
     1
102
RTVSPropertyOp14
 70
     1
102
RTVSPropertyOp15
 70
     1
102
RTVSPropertyOp16
 70
     1
102
RTVSPropertyOp17
 70
     1
102
RTVSPropertyOp18
 70
     1
102
RTVSPropertyOp19
 70
     1
102
RTVSPropertyOp20
 70
     1
102
RTVSPropertyOp21
 70
     1
102
RTVSPropertyOp22
 70
     1
102
RTVSPropertyOp23
 70
     1
102
RTVSPropertyOp24
 70
     1
102
RTVSPropertyOp25
 70
     1
102
RTVSPropertyOp26
 70
     1
102
RTVSPropertyOp27
 70
     1
102
RTVSPropertyOp28
 70
     1
102
RTVSPropertyOp29
 70
     1
102
RTVSPropertyOp30
 70
     1
102
RTVSPropertyOp31
 70
     1
102
RTVSPropertyOp32
 70
     1
102
RTVSPropertyOp33
 70
     1
102
RTVSPropertyOp34
 70
     1
102
RTVSPropertyOp35
 70
     1
102
RTVSPropertyOp36
 70
     1
102
RTVSPropertyOp37
 70
     1
102
RTVSPropertyOp38
 70
     1
102
RTVSPropertyOp39
 70
     1
102
RTVSPropertyOp40
 70
     1
102
RTVSPropertyOp41
 70
     1
102
RTVSPropertyOp42
 70
     1
102
RTVSPropertyOp43
 70
     1
102
RTVSPropertyOp44
 70
     1
102
RTVSPropertyOp45
 70
     1
102
RTVSPropertyOp46
 70
     1
102
RTVSPropertyOp47
 70
     1
102
RTVSPropertyOp48
 70
     1
102
RTVSPropertyOp49
 70
     1
102
RTVSPropertyOp50
 70
     1
102
RTVSPropertyOp51
 70
     0
102
RTVSPropertyOp52
 70
     0
102
RTVSPropertyOp53
 70
     1
102
RTVSPropertyOp54
 70
     1
102
RTVSPropertyOp55
 70
     1
102
RTVSPropertyOp56
 70
     1
102
RTVSPropertyOp57
 70
     1
102
RTVSPropertyOp58
 70
     1
102
RTVSPropertyOp59
 70
     1
102
RTVSPropertyOp60
 70
     1
102
RTVSPropertyOp61
 70
     1
102
RTVSPropertyOp62
 70
     1
  0
XRECORD
  5
24D1
102
{ACAD_REACTORS
330
24D0
102
}
330
24D0
100
AcDbXrecord
280
     1
102
RTVSPost2010Prop28
280
     0
102
RTVSPost2010PropOp28
 70
     1
102
RTVSPost2010Prop29
280
     1
102
RTVSPost2010PropOp29
 70
     1
102
RTVSPost2010Prop30
280
     1
102
RTVSPost2010PropOp30
 70
     1
102
RTVSPost2010Prop31
280
     0
102
RTVSPost2010PropOp31
 70
     1
102
RTVSPost2010Prop32
280
     0
102
RTVSPost2010PropOp32
 70
     1
102
RTVSPost2010Prop33
280
     0
102
RTVSPost2010PropOp33
 70
     1
102
RTVSPost2010Prop34
280
     0
102
RTVSPost2010PropOp34
 70
     1
102
RTVSPost2010Prop35
280
     0
102
RTVSPost2010PropOp35
 70
     1
102
RTVSPost2010Prop36
280
     0
102
RTVSPost2010PropOp36
 70
     1
102
RTVSPost2010Prop37
 90
       50
102
RTVSPost2010PropOp37
 70
     1
102
RTVSPost2010Prop38
140
0.0
102
RTVSPost2010PropOp38
 70
     1
102
RTVSPost2010Prop39
140
1.0
102
RTVSPost2010PropOp39
 70
     1
102
RTVSPost2010Prop40
 90
        0
102
RTVSPost2010PropOp40
 70
     1
102
RTVSPost2010Prop41ColorIndex
 90
       18
102
RTVSPost2010Prop41ColorRGB
 90
        0
102
RTVSPost2010PropOp41
 70
     1
102
RTVSPost2010Prop42
 90
       50
102
RTVSPost2010PropOp42
 70
     1
102
RTVSPost2010Prop43
 90
        3
102
RTVSPost2010PropOp43
 70
     1
102
RTVSPost2010Prop44ColorIndex
 90
        5
102
RTVSPost2010Prop44ColorRGB
 90
      255
102
RTVSPost2010PropOp44
 70
     1
102
RTVSPost2010Prop45
280
     0
102
RTVSPost2010PropOp45
 70
     1
102
RTVSPost2010Prop46
 90
       50
102
RTVSPost2010PropOp46
 70
     1
102
RTVSPost2010Prop47
 90
       50
102
RTVSPost2010PropOp47
 70
     1
102
RTVSPost2010Prop48
 90
       50
102
RTVSPost2010PropOp48
 70
     1
102
RTVSPost2010Prop49
280
     0
102
RTVSPost2010PropOp49
 70
     1
102
RTVSPost2010Prop50
 90
       50
102
RTVSPost2010PropOp50
 70
     1
102
RTVSPost2010Prop51ColorIndex
 90
      256
102
RTVSPost2010Prop51ColorRGB
 90
-16777216
102
RTVSPost2010PropOp51
 70
     0
102
RTVSPost2010Prop52
140
1.0
102
RTVSPost2010PropOp52
 70
     0
102
RTVSPost2010Prop53
 90
        2
102
RTVSPost2010PropOp53
 70
     1
102
RTVSPost2010Prop54
  1
strokes_ogs.tif
102
RTVSPost2010PropOp54
 70
     1
102
RTVSPost2010Prop55
280
     0
102
RTVSPost2010PropOp55
 70
     1
102
RTVSPost2010Prop56
140
1.0
102
RTVSPost2010PropOp56
 70
     1
102
RTVSPost2010Prop57
140
1.0
102
RTVSPost2010PropOp57
 70
     1
102
RTVSPropertyOp0
 70
     1
102
RTVSPropertyOp1
 70
     1
102
RTVSPropertyOp2
 70
     1
102
RTVSPropertyOp3
 70
     1
102
RTVSPropertyOp4
 70
     1
102
RTVSPropertyOp5
 70
     1
102
RTVSPropertyOp6
 70
     1
102
RTVSPropertyOp7
 70
     1
102
RTVSPropertyOp8
 70
     1
102
RTVSPropertyOp9
 70
     1
102
RTVSPropertyOp10
 70
     1
102
RTVSPropertyOp11
 70
     1
102
RTVSPropertyOp12
 70
     1
102
RTVSPropertyOp13
 70
     1
102
RTVSPropertyOp14
 70
     1
102
RTVSPropertyOp15
 70
     1
102
RTVSPropertyOp16
 70
     1
102
RTVSPropertyOp17
 70
     1
102
RTVSPropertyOp18
 70
     1
102
RTVSPropertyOp19
 70
     1
102
RTVSPropertyOp20
 70
     1
102
RTVSPropertyOp21
 70
     1
102
RTVSPropertyOp22
 70
     1
102
RTVSPropertyOp23
 70
     1
102
RTVSPropertyOp24
 70
     1
102
RTVSPropertyOp25
 70
     1
102
RTVSPropertyOp26
 70
     1
102
RTVSPropertyOp27
 70
     1
102
RTVSPropertyOp28
 70
     1
102
RTVSPropertyOp29
 70
     1
102
RTVSPropertyOp30
 70
     1
102
RTVSPropertyOp31
 70
     1
102
RTVSPropertyOp32
 70
     1
102
RTVSPropertyOp33
 70
     1
102
RTVSPropertyOp34
 70
     1
102
RTVSPropertyOp35
 70
     1
102
RTVSPropertyOp36
 70
     1
102
RTVSPropertyOp37
 70
     1
102
RTVSPropertyOp38
 70
     1
102
RTVSPropertyOp39
 70
     1
102
RTVSPropertyOp40
 70
     1
102
RTVSPropertyOp41
 70
     1
102
RTVSPropertyOp42
 70
     1
102
RTVSPropertyOp43
 70
     1
102
RTVSPropertyOp44
 70
     1
102
RTVSPropertyOp45
 70
     1
102
RTVSPropertyOp46
 70
     1
102
RTVSPropertyOp47
 70
     1
102
RTVSPropertyOp48
 70
     1
102
RTVSPropertyOp49
 70
     1
102
RTVSPropertyOp50
 70
     1
102
RTVSPropertyOp51
 70
     0
102
RTVSPropertyOp52
 70
     0
102
RTVSPropertyOp53
 70
     1
102
RTVSPropertyOp54
 70
     1
102
RTVSPropertyOp55
 70
     1
102
RTVSPropertyOp56
 70
     1
102
RTVSPropertyOp57
 70
     1
102
RTVSPropertyOp58
 70
     1
102
RTVSPropertyOp59
 70
     1
102
RTVSPropertyOp60
 70
     1
102
RTVSPropertyOp61
 70
     1
102
RTVSPropertyOp62
 70
     1
  0
XRECORD
  5
24DF
102
{ACAD_REACTORS
330
24DE
102
}
330
24DE
100
AcDbXrecord
280
     1
102
RTVSPost2010Prop28
280
     0
102
RTVSPost2010PropOp28
 70
     1
102
RTVSPost2010Prop29
280
     1
102
RTVSPost2010PropOp29
 70
     1
102
RTVSPost2010Prop30
280
     1
102
RTVSPost2010PropOp30
 70
     1
102
RTVSPost2010Prop31
280
     0
102
RTVSPost2010PropOp31
 70
     1
102
RTVSPost2010Prop32
280
     0
102
RTVSPost2010PropOp32
 70
     1
102
RTVSPost2010Prop33
280
     0
102
RTVSPost2010PropOp33
 70
     1
102
RTVSPost2010Prop34
280
     0
102
RTVSPost2010PropOp34
 70
     1
102
RTVSPost2010Prop35
280
     0
102
RTVSPost2010PropOp35
 70
     1
102
RTVSPost2010Prop36
280
     0
102
RTVSPost2010PropOp36
 70
     1
102
RTVSPost2010Prop37
 90
       50
102
RTVSPost2010PropOp37
 70
     1
102
RTVSPost2010Prop38
140
0.0
102
RTVSPost2010PropOp38
 70
     1
102
RTVSPost2010Prop39
140
1.0
102
RTVSPost2010PropOp39
 70
     1
102
RTVSPost2010Prop40
 90
        0
102
RTVSPost2010PropOp40
 70
     1
102
RTVSPost2010Prop41ColorIndex
 90
       18
102
RTVSPost2010Prop41ColorRGB
 90
        0
102
RTVSPost2010PropOp41
 70
     1
102
RTVSPost2010Prop42
 90
       50
102
RTVSPost2010PropOp42
 70
     1
102
RTVSPost2010Prop43
 90
        3
102
RTVSPost2010PropOp43
 70
     1
102
RTVSPost2010Prop44ColorIndex
 90
        5
102
RTVSPost2010Prop44ColorRGB
 90
      255
102
RTVSPost2010PropOp44
 70
     1
102
RTVSPost2010Prop45
280
     0
102
RTVSPost2010PropOp45
 70
     1
102
RTVSPost2010Prop46
 90
       50
102
RTVSPost2010PropOp46
 70
     1
102
RTVSPost2010Prop47
 90
       50
102
RTVSPost2010PropOp47
 70
     1
102
RTVSPost2010Prop48
 90
       50
102
RTVSPost2010PropOp48
 70
     1
102
RTVSPost2010Prop49
280
     0
102
RTVSPost2010PropOp49
 70
     1
102
RTVSPost2010Prop50
 90
       50
102
RTVSPost2010PropOp50
 70
     1
102
RTVSPost2010Prop51ColorIndex
 90
      256
102
RTVSPost2010Prop51ColorRGB
 90
-16777216
102
RTVSPost2010PropOp51
 70
     0
102
RTVSPost2010Prop52
140
1.0
102
RTVSPost2010PropOp52
 70
     0
102
RTVSPost2010Prop53
 90
        2
102
RTVSPost2010PropOp53
 70
     1
102
RTVSPost2010Prop54
  1
strokes_ogs.tif
102
RTVSPost2010PropOp54
 70
     1
102
RTVSPost2010Prop55
280
     0
102
RTVSPost2010PropOp55
 70
     1
102
RTVSPost2010Prop56
140
1.0
102
RTVSPost2010PropOp56
 70
     1
102
RTVSPost2010Prop57
140
1.0
102
RTVSPost2010PropOp57
 70
     1
102
RTVSPropertyOp0
 70
     1
102
RTVSPropertyOp1
 70
     1
102
RTVSPropertyOp2
 70
     1
102
RTVSPropertyOp3
 70
     1
102
RTVSPropertyOp4
 70
     1
102
RTVSPropertyOp5
 70
     1
102
RTVSPropertyOp6
 70
     1
102
RTVSPropertyOp7
 70
     1
102
RTVSPropertyOp8
 70
     1
102
RTVSPropertyOp9
 70
     1
102
RTVSPropertyOp10
 70
     1
102
RTVSPropertyOp11
 70
     1
102
RTVSPropertyOp12
 70
     1
102
RTVSPropertyOp13
 70
     1
102
RTVSPropertyOp14
 70
     1
102
RTVSPropertyOp15
 70
     1
102
RTVSPropertyOp16
 70
     1
102
RTVSPropertyOp17
 70
     1
102
RTVSPropertyOp18
 70
     1
102
RTVSPropertyOp19
 70
     1
102
RTVSPropertyOp20
 70
     1
102
RTVSPropertyOp21
 70
     1
102
RTVSPropertyOp22
 70
     1
102
RTVSPropertyOp23
 70
     1
102
RTVSPropertyOp24
 70
     1
102
RTVSPropertyOp25
 70
     1
102
RTVSPropertyOp26
 70
     1
102
RTVSPropertyOp27
 70
     1
102
RTVSPropertyOp28
 70
     1
102
RTVSPropertyOp29
 70
     1
102
RTVSPropertyOp30
 70
     1
102
RTVSPropertyOp31
 70
     1
102
RTVSPropertyOp32
 70
     1
102
RTVSPropertyOp33
 70
     1
102
RTVSPropertyOp34
 70
     1
102
RTVSPropertyOp35
 70
     1
102
RTVSPropertyOp36
 70
     1
102
RTVSPropertyOp37
 70
     1
102
RTVSPropertyOp38
 70
     1
102
RTVSPropertyOp39
 70
     1
102
RTVSPropertyOp40
 70
     1
102
RTVSPropertyOp41
 70
     1
102
RTVSPropertyOp42
 70
     1
102
RTVSPropertyOp43
 70
     1
102
RTVSPropertyOp44
 70
     1
102
RTVSPropertyOp45
 70
     1
102
RTVSPropertyOp46
 70
     1
102
RTVSPropertyOp47
 70
     1
102
RTVSPropertyOp48
 70
     1
102
RTVSPropertyOp49
 70
     1
102
RTVSPropertyOp50
 70
     1
102
RTVSPropertyOp51
 70
     0
102
RTVSPropertyOp52
 70
     0
102
RTVSPropertyOp53
 70
     1
102
RTVSPropertyOp54
 70
     1
102
RTVSPropertyOp55
 70
     1
102
RTVSPropertyOp56
 70
     1
102
RTVSPropertyOp57
 70
     1
102
RTVSPropertyOp58
 70
     1
102
RTVSPropertyOp59
 70
     1
102
RTVSPropertyOp60
 70
     1
102
RTVSPropertyOp61
 70
     1
102
RTVSPropertyOp62
 70
     1
  0
XRECORD
  5
24E7
102
{ACAD_REACTORS
330
24E6
102
}
330
24E6
100
AcDbXrecord
280
     1
102
RTVSPost2010Prop28
280
     0
102
RTVSPost2010PropOp28
 70
     1
102
RTVSPost2010Prop29
280
     1
102
RTVSPost2010PropOp29
 70
     1
102
RTVSPost2010Prop30
280
     1
102
RTVSPost2010PropOp30
 70
     1
102
RTVSPost2010Prop31
280
     0
102
RTVSPost2010PropOp31
 70
     1
102
RTVSPost2010Prop32
280
     0
102
RTVSPost2010PropOp32
 70
     1
102
RTVSPost2010Prop33
280
     0
102
RTVSPost2010PropOp33
 70
     1
102
RTVSPost2010Prop34
280
     0
102
RTVSPost2010PropOp34
 70
     1
102
RTVSPost2010Prop35
280
     0
102
RTVSPost2010PropOp35
 70
     1
102
RTVSPost2010Prop36
280
     0
102
RTVSPost2010PropOp36
 70
     1
102
RTVSPost2010Prop37
 90
       50
102
RTVSPost2010PropOp37
 70
     1
102
RTVSPost2010Prop38
140
0.0
102
RTVSPost2010PropOp38
 70
     1
102
RTVSPost2010Prop39
140
1.0
102
RTVSPost2010PropOp39
 70
     1
102
RTVSPost2010Prop40
 90
        0
102
RTVSPost2010PropOp40
 70
     1
102
RTVSPost2010Prop41ColorIndex
 90
       18
102
RTVSPost2010Prop41ColorRGB
 90
        0
102
RTVSPost2010PropOp41
 70
     1
102
RTVSPost2010Prop42
 90
       50
102
RTVSPost2010PropOp42
 70
     1
102
RTVSPost2010Prop43
 90
        3
102
RTVSPost2010PropOp43
 70
     1
102
RTVSPost2010Prop44ColorIndex
 90
        5
102
RTVSPost2010Prop44ColorRGB
 90
      255
102
RTVSPost2010PropOp44
 70
     1
102
RTVSPost2010Prop45
280
     0
102
RTVSPost2010PropOp45
 70
     1
102
RTVSPost2010Prop46
 90
       50
102
RTVSPost2010PropOp46
 70
     1
102
RTVSPost2010Prop47
 90
       50
102
RTVSPost2010PropOp47
 70
     1
102
RTVSPost2010Prop48
 90
       50
102
RTVSPost2010PropOp48
 70
     1
102
RTVSPost2010Prop49
280
     0
102
RTVSPost2010PropOp49
 70
     1
102
RTVSPost2010Prop50
 90
       50
102
RTVSPost2010PropOp50
 70
     1
102
RTVSPost2010Prop51ColorIndex
 90
      256
102
RTVSPost2010Prop51ColorRGB
 90
-16777216
102
RTVSPost2010PropOp51
 70
     0
102
RTVSPost2010Prop52
140
1.0
102
RTVSPost2010PropOp52
 70
     0
102
RTVSPost2010Prop53
 90
        2
102
RTVSPost2010PropOp53
 70
     1
102
RTVSPost2010Prop54
  1
strokes_ogs.tif
102
RTVSPost2010PropOp54
 70
     1
102
RTVSPost2010Prop55
280
     0
102
RTVSPost2010PropOp55
 70
     1
102
RTVSPost2010Prop56
140
1.0
102
RTVSPost2010PropOp56
 70
     1
102
RTVSPost2010Prop57
140
1.0
102
RTVSPost2010PropOp57
 70
     1
102
RTVSPropertyOp0
 70
     1
102
RTVSPropertyOp1
 70
     1
102
RTVSPropertyOp2
 70
     1
102
RTVSPropertyOp3
 70
     1
102
RTVSPropertyOp4
 70
     1
102
RTVSPropertyOp5
 70
     1
102
RTVSPropertyOp6
 70
     1
102
RTVSPropertyOp7
 70
     1
102
RTVSPropertyOp8
 70
     1
102
RTVSPropertyOp9
 70
     1
102
RTVSPropertyOp10
 70
     1
102
RTVSPropertyOp11
 70
     1
102
RTVSPropertyOp12
 70
     1
102
RTVSPropertyOp13
 70
     1
102
RTVSPropertyOp14
 70
     1
102
RTVSPropertyOp15
 70
     1
102
RTVSPropertyOp16
 70
     1
102
RTVSPropertyOp17
 70
     1
102
RTVSPropertyOp18
 70
     1
102
RTVSPropertyOp19
 70
     1
102
RTVSPropertyOp20
 70
     1
102
RTVSPropertyOp21
 70
     1
102
RTVSPropertyOp22
 70
     1
102
RTVSPropertyOp23
 70
     1
102
RTVSPropertyOp24
 70
     1
102
RTVSPropertyOp25
 70
     1
102
RTVSPropertyOp26
 70
     1
102
RTVSPropertyOp27
 70
     1
102
RTVSPropertyOp28
 70
     1
102
RTVSPropertyOp29
 70
     1
102
RTVSPropertyOp30
 70
     1
102
RTVSPropertyOp31
 70
     1
102
RTVSPropertyOp32
 70
     1
102
RTVSPropertyOp33
 70
     1
102
RTVSPropertyOp34
 70
     1
102
RTVSPropertyOp35
 70
     1
102
RTVSPropertyOp36
 70
     1
102
RTVSPropertyOp37
 70
     1
102
RTVSPropertyOp38
 70
     1
102
RTVSPropertyOp39
 70
     1
102
RTVSPropertyOp40
 70
     1
102
RTVSPropertyOp41
 70
     1
102
RTVSPropertyOp42
 70
     1
102
RTVSPropertyOp43
 70
     1
102
RTVSPropertyOp44
 70
     1
102
RTVSPropertyOp45
 70
     1
102
RTVSPropertyOp46
 70
     1
102
RTVSPropertyOp47
 70
     1
102
RTVSPropertyOp48
 70
     1
102
RTVSPropertyOp49
 70
     1
102
RTVSPropertyOp50
 70
     1
102
RTVSPropertyOp51
 70
     0
102
RTVSPropertyOp52
 70
     0
102
RTVSPropertyOp53
 70
     1
102
RTVSPropertyOp54
 70
     1
102
RTVSPropertyOp55
 70
     1
102
RTVSPropertyOp56
 70
     1
102
RTVSPropertyOp57
 70
     1
102
RTVSPropertyOp58
 70
     1
102
RTVSPropertyOp59
 70
     1
102
RTVSPropertyOp60
 70
     1
102
RTVSPropertyOp61
 70
     1
102
RTVSPropertyOp62
 70
     1
  0
XRECORD
  5
24D9
102
{ACAD_REACTORS
330
24D8
102
}
330
24D8
100
AcDbXrecord
280
     1
102
RTVSPost2010Prop28
280
     0
102
RTVSPost2010PropOp28
 70
     1
102
RTVSPost2010Prop29
280
     1
102
RTVSPost2010PropOp29
 70
     1
102
RTVSPost2010Prop30
280
     1
102
RTVSPost2010PropOp30
 70
     1
102
RTVSPost2010Prop31
280
     0
102
RTVSPost2010PropOp31
 70
     1
102
RTVSPost2010Prop32
280
     0
102
RTVSPost2010PropOp32
 70
     1
102
RTVSPost2010Prop33
280
     0
102
RTVSPost2010PropOp33
 70
     1
102
RTVSPost2010Prop34
280
     0
102
RTVSPost2010PropOp34
 70
     1
102
RTVSPost2010Prop35
280
     0
102
RTVSPost2010PropOp35
 70
     1
102
RTVSPost2010Prop36
280
     0
102
RTVSPost2010PropOp36
 70
     1
102
RTVSPost2010Prop37
 90
       50
102
RTVSPost2010PropOp37
 70
     1
102
RTVSPost2010Prop38
140
0.0
102
RTVSPost2010PropOp38
 70
     1
102
RTVSPost2010Prop39
140
1.0
102
RTVSPost2010PropOp39
 70
     1
102
RTVSPost2010Prop40
 90
        0
102
RTVSPost2010PropOp40
 70
     1
102
RTVSPost2010Prop41ColorIndex
 90
       18
102
RTVSPost2010Prop41ColorRGB
 90
        0
102
RTVSPost2010PropOp41
 70
     1
102
RTVSPost2010Prop42
 90
       50
102
RTVSPost2010PropOp42
 70
     1
102
RTVSPost2010Prop43
 90
        3
102
RTVSPost2010PropOp43
 70
     1
102
RTVSPost2010Prop44ColorIndex
 90
        5
102
RTVSPost2010Prop44ColorRGB
 90
      255
102
RTVSPost2010PropOp44
 70
     1
102
RTVSPost2010Prop45
280
     0
102
RTVSPost2010PropOp45
 70
     1
102
RTVSPost2010Prop46
 90
       50
102
RTVSPost2010PropOp46
 70
     1
102
RTVSPost2010Prop47
 90
       50
102
RTVSPost2010PropOp47
 70
     1
102
RTVSPost2010Prop48
 90
       50
102
RTVSPost2010PropOp48
 70
     1
102
RTVSPost2010Prop49
280
     0
102
RTVSPost2010PropOp49
 70
     1
102
RTVSPost2010Prop50
 90
       50
102
RTVSPost2010PropOp50
 70
     1
102
RTVSPost2010Prop51ColorIndex
 90
      256
102
RTVSPost2010Prop51ColorRGB
 90
-16777216
102
RTVSPost2010PropOp51
 70
     0
102
RTVSPost2010Prop52
140
1.0
102
RTVSPost2010PropOp52
 70
     0
102
RTVSPost2010Prop53
 90
        2
102
RTVSPost2010PropOp53
 70
     1
102
RTVSPost2010Prop54
  1
strokes_ogs.tif
102
RTVSPost2010PropOp54
 70
     1
102
RTVSPost2010Prop55
280
     0
102
RTVSPost2010PropOp55
 70
     1
102
RTVSPost2010Prop56
140
1.0
102
RTVSPost2010PropOp56
 70
     1
102
RTVSPost2010Prop57
140
1.0
102
RTVSPost2010PropOp57
 70
     1
102
RTVSPropertyOp0
 70
     1
102
RTVSPropertyOp1
 70
     1
102
RTVSPropertyOp2
 70
     1
102
RTVSPropertyOp3
 70
     1
102
RTVSPropertyOp4
 70
     1
102
RTVSPropertyOp5
 70
     1
102
RTVSPropertyOp6
 70
     1
102
RTVSPropertyOp7
 70
     1
102
RTVSPropertyOp8
 70
     1
102
RTVSPropertyOp9
 70
     1
102
RTVSPropertyOp10
 70
     1
102
RTVSPropertyOp11
 70
     1
102
RTVSPropertyOp12
 70
     1
102
RTVSPropertyOp13
 70
     1
102
RTVSPropertyOp14
 70
     1
102
RTVSPropertyOp15
 70
     1
102
RTVSPropertyOp16
 70
     1
102
RTVSPropertyOp17
 70
     1
102
RTVSPropertyOp18
 70
     1
102
RTVSPropertyOp19
 70
     1
102
RTVSPropertyOp20
 70
     1
102
RTVSPropertyOp21
 70
     1
102
RTVSPropertyOp22
 70
     1
102
RTVSPropertyOp23
 70
     1
102
RTVSPropertyOp24
 70
     1
102
RTVSPropertyOp25
 70
     1
102
RTVSPropertyOp26
 70
     1
102
RTVSPropertyOp27
 70
     1
102
RTVSPropertyOp28
 70
     1
102
RTVSPropertyOp29
 70
     1
102
RTVSPropertyOp30
 70
     1
102
RTVSPropertyOp31
 70
     1
102
RTVSPropertyOp32
 70
     1
102
RTVSPropertyOp33
 70
     1
102
RTVSPropertyOp34
 70
     1
102
RTVSPropertyOp35
 70
     1
102
RTVSPropertyOp36
 70
     1
102
RTVSPropertyOp37
 70
     1
102
RTVSPropertyOp38
 70
     1
102
RTVSPropertyOp39
 70
     1
102
RTVSPropertyOp40
 70
     1
102
RTVSPropertyOp41
 70
     1
102
RTVSPropertyOp42
 70
     1
102
RTVSPropertyOp43
 70
     1
102
RTVSPropertyOp44
 70
     1
102
RTVSPropertyOp45
 70
     1
102
RTVSPropertyOp46
 70
     1
102
RTVSPropertyOp47
 70
     1
102
RTVSPropertyOp48
 70
     1
102
RTVSPropertyOp49
 70
     1
102
RTVSPropertyOp50
 70
     1
102
RTVSPropertyOp51
 70
     0
102
RTVSPropertyOp52
 70
     0
102
RTVSPropertyOp53
 70
     1
102
RTVSPropertyOp54
 70
     1
102
RTVSPropertyOp55
 70
     1
102
RTVSPropertyOp56
 70
     1
102
RTVSPropertyOp57
 70
     1
102
RTVSPropertyOp58
 70
     1
102
RTVSPropertyOp59
 70
     1
102
RTVSPropertyOp60
 70
     1
102
RTVSPropertyOp61
 70
     1
102
RTVSPropertyOp62
 70
     1
  0
XRECORD
  5
24DD
102
{ACAD_REACTORS
330
24DC
102
}
330
24DC
100
AcDbXrecord
280
     1
102
RTVSPost2010Prop28
280
     0
102
RTVSPost2010PropOp28
 70
     1
102
RTVSPost2010Prop29
280
     1
102
RTVSPost2010PropOp29
 70
     1
102
RTVSPost2010Prop30
280
     1
102
RTVSPost2010PropOp30
 70
     1
102
RTVSPost2010Prop31
280
     0
102
RTVSPost2010PropOp31
 70
     1
102
RTVSPost2010Prop32
280
     0
102
RTVSPost2010PropOp32
 70
     1
102
RTVSPost2010Prop33
280
     0
102
RTVSPost2010PropOp33
 70
     1
102
RTVSPost2010Prop34
280
     0
102
RTVSPost2010PropOp34
 70
     1
102
RTVSPost2010Prop35
280
     0
102
RTVSPost2010PropOp35
 70
     1
102
RTVSPost2010Prop36
280
     0
102
RTVSPost2010PropOp36
 70
     1
102
RTVSPost2010Prop37
 90
       50
102
RTVSPost2010PropOp37
 70
     1
102
RTVSPost2010Prop38
140
0.0
102
RTVSPost2010PropOp38
 70
     1
102
RTVSPost2010Prop39
140
1.0
102
RTVSPost2010PropOp39
 70
     1
102
RTVSPost2010Prop40
 90
        0
102
RTVSPost2010PropOp40
 70
     1
102
RTVSPost2010Prop41ColorIndex
 90
       18
102
RTVSPost2010Prop41ColorRGB
 90
        0
102
RTVSPost2010PropOp41
 70
     1
102
RTVSPost2010Prop42
 90
       50
102
RTVSPost2010PropOp42
 70
     1
102
RTVSPost2010Prop43
 90
        3
102
RTVSPost2010PropOp43
 70
     1
102
RTVSPost2010Prop44ColorIndex
 90
        5
102
RTVSPost2010Prop44ColorRGB
 90
      255
102
RTVSPost2010PropOp44
 70
     1
102
RTVSPost2010Prop45
280
     0
102
RTVSPost2010PropOp45
 70
     1
102
RTVSPost2010Prop46
 90
       50
102
RTVSPost2010PropOp46
 70
     1
102
RTVSPost2010Prop47
 90
       50
102
RTVSPost2010PropOp47
 70
     1
102
RTVSPost2010Prop48
 90
       50
102
RTVSPost2010PropOp48
 70
     1
102
RTVSPost2010Prop49
280
     0
102
RTVSPost2010PropOp49
 70
     1
102
RTVSPost2010Prop50
 90
       50
102
RTVSPost2010PropOp50
 70
     1
102
RTVSPost2010Prop51ColorIndex
 90
      256
102
RTVSPost2010Prop51ColorRGB
 90
-16777216
102
RTVSPost2010PropOp51
 70
     0
102
RTVSPost2010Prop52
140
1.0
102
RTVSPost2010PropOp52
 70
     0
102
RTVSPost2010Prop53
 90
        2
102
RTVSPost2010PropOp53
 70
     1
102
RTVSPost2010Prop54
  1
strokes_ogs.tif
102
RTVSPost2010PropOp54
 70
     1
102
RTVSPost2010Prop55
280
     0
102
RTVSPost2010PropOp55
 70
     1
102
RTVSPost2010Prop56
140
1.0
102
RTVSPost2010PropOp56
 70
     1
102
RTVSPost2010Prop57
140
1.0
102
RTVSPost2010PropOp57
 70
     1
102
RTVSPropertyOp0
 70
     1
102
RTVSPropertyOp1
 70
     1
102
RTVSPropertyOp2
 70
     1
102
RTVSPropertyOp3
 70
     1
102
RTVSPropertyOp4
 70
     1
102
RTVSPropertyOp5
 70
     1
102
RTVSPropertyOp6
 70
     1
102
RTVSPropertyOp7
 70
     1
102
RTVSPropertyOp8
 70
     1
102
RTVSPropertyOp9
 70
     1
102
RTVSPropertyOp10
 70
     1
102
RTVSPropertyOp11
 70
     1
102
RTVSPropertyOp12
 70
     1
102
RTVSPropertyOp13
 70
     1
102
RTVSPropertyOp14
 70
     1
102
RTVSPropertyOp15
 70
     1
102
RTVSPropertyOp16
 70
     1
102
RTVSPropertyOp17
 70
     1
102
RTVSPropertyOp18
 70
     1
102
RTVSPropertyOp19
 70
     1
102
RTVSPropertyOp20
 70
     1
102
RTVSPropertyOp21
 70
     1
102
RTVSPropertyOp22
 70
     1
102
RTVSPropertyOp23
 70
     1
102
RTVSPropertyOp24
 70
     1
102
RTVSPropertyOp25
 70
     1
102
RTVSPropertyOp26
 70
     1
102
RTVSPropertyOp27
 70
     1
102
RTVSPropertyOp28
 70
     1
102
RTVSPropertyOp29
 70
     1
102
RTVSPropertyOp30
 70
     1
102
RTVSPropertyOp31
 70
     1
102
RTVSPropertyOp32
 70
     1
102
RTVSPropertyOp33
 70
     1
102
RTVSPropertyOp34
 70
     1
102
RTVSPropertyOp35
 70
     1
102
RTVSPropertyOp36
 70
     1
102
RTVSPropertyOp37
 70
     1
102
RTVSPropertyOp38
 70
     1
102
RTVSPropertyOp39
 70
     1
102
RTVSPropertyOp40
 70
     1
102
RTVSPropertyOp41
 70
     1
102
RTVSPropertyOp42
 70
     1
102
RTVSPropertyOp43
 70
     1
102
RTVSPropertyOp44
 70
     1
102
RTVSPropertyOp45
 70
     1
102
RTVSPropertyOp46
 70
     1
102
RTVSPropertyOp47
 70
     1
102
RTVSPropertyOp48
 70
     1
102
RTVSPropertyOp49
 70
     1
102
RTVSPropertyOp50
 70
     1
102
RTVSPropertyOp51
 70
     0
102
RTVSPropertyOp52
 70
     0
102
RTVSPropertyOp53
 70
     1
102
RTVSPropertyOp54
 70
     1
102
RTVSPropertyOp55
 70
     1
102
RTVSPropertyOp56
 70
     1
102
RTVSPropertyOp57
 70
     1
102
RTVSPropertyOp58
 70
     1
102
RTVSPropertyOp59
 70
     1
102
RTVSPropertyOp60
 70
     1
102
RTVSPropertyOp61
 70
     1
102
RTVSPropertyOp62
 70
     1
  0
XRECORD
  5
24F7
102
{ACAD_REACTORS
330
24F6
102
}
330
24F6
100
AcDbXrecord
280
     1
102
RTVSPost2010Prop28
280
     0
102
RTVSPost2010PropOp28
 70
     1
102
RTVSPost2010Prop29
280
     1
102
RTVSPost2010PropOp29
 70
     1
102
RTVSPost2010Prop30
280
     1
102
RTVSPost2010PropOp30
 70
     1
102
RTVSPost2010Prop31
280
     0
102
RTVSPost2010PropOp31
 70
     1
102
RTVSPost2010Prop32
280
     0
102
RTVSPost2010PropOp32
 70
     1
102
RTVSPost2010Prop33
280
     0
102
RTVSPost2010PropOp33
 70
     1
102
RTVSPost2010Prop34
280
     0
102
RTVSPost2010PropOp34
 70
     1
102
RTVSPost2010Prop35
280
     0
102
RTVSPost2010PropOp35
 70
     1
102
RTVSPost2010Prop36
280
     0
102
RTVSPost2010PropOp36
 70
     1
102
RTVSPost2010Prop37
 90
       50
102
RTVSPost2010PropOp37
 70
     0
102
RTVSPost2010Prop38
140
0.0
102
RTVSPost2010PropOp38
 70
     0
102
RTVSPost2010Prop39
140
1.0
102
RTVSPost2010PropOp39
 70
     0
102
RTVSPost2010Prop40
 90
        0
102
RTVSPost2010PropOp40
 70
     0
102
RTVSPost2010Prop41ColorIndex
 90
       18
102
RTVSPost2010Prop41ColorRGB
 90
        0
102
RTVSPost2010PropOp41
 70
     0
102
RTVSPost2010Prop42
 90
       50
102
RTVSPost2010PropOp42
 70
     0
102
RTVSPost2010Prop43
 90
        3
102
RTVSPost2010PropOp43
 70
     0
102
RTVSPost2010Prop44ColorIndex
 90
        5
102
RTVSPost2010Prop44ColorRGB
 90
      255
102
RTVSPost2010PropOp44
 70
     0
102
RTVSPost2010Prop45
280
     0
102
RTVSPost2010PropOp45
 70
     1
102
RTVSPost2010Prop46
 90
       50
102
RTVSPost2010PropOp46
 70
     0
102
RTVSPost2010Prop47
 90
       50
102
RTVSPost2010PropOp47
 70
     0
102
RTVSPost2010Prop48
 90
       50
102
RTVSPost2010PropOp48
 70
     0
102
RTVSPost2010Prop49
280
     0
102
RTVSPost2010PropOp49
 70
     1
102
RTVSPost2010Prop50
 90
       50
102
RTVSPost2010PropOp50
 70
     0
102
RTVSPost2010Prop51ColorIndex
 90
      256
102
RTVSPost2010Prop51ColorRGB
 90
-16777216
102
RTVSPost2010PropOp51
 70
     0
102
RTVSPost2010Prop52
140
1.0
102
RTVSPost2010PropOp52
 70
     0
102
RTVSPost2010Prop53
 90
        2
102
RTVSPost2010PropOp53
 70
     0
102
RTVSPost2010Prop54
  1
strokes_ogs.tif
102
RTVSPost2010PropOp54
 70
     0
102
RTVSPost2010Prop55
280
     0
102
RTVSPost2010PropOp55
 70
     1
102
RTVSPost2010Prop56
140
1.0
102
RTVSPost2010PropOp56
 70
     0
102
RTVSPost2010Prop57
140
1.0
102
RTVSPost2010PropOp57
 70
     0
102
RTVSPropertyOp0
 70
     0
102
RTVSPropertyOp1
 70
     0
102
RTVSPropertyOp2
 70
     0
102
RTVSPropertyOp3
 70
     0
102
RTVSPropertyOp4
 70
     0
102
RTVSPropertyOp5
 70
     0
102
RTVSPropertyOp6
 70
     0
102
RTVSPropertyOp7
 70
     0
102
RTVSPropertyOp8
 70
     0
102
RTVSPropertyOp9
 70
     0
102
RTVSPropertyOp10
 70
     0
102
RTVSPropertyOp11
 70
     0
102
RTVSPropertyOp12
 70
     0
102
RTVSPropertyOp13
 70
     0
102
RTVSPropertyOp14
 70
     2
102
RTVSPropertyOp15
 70
     0
102
RTVSPropertyOp16
 70
     0
102
RTVSPropertyOp17
 70
     0
102
RTVSPropertyOp18
 70
     0
102
RTVSPropertyOp19
 70
     0
102
RTVSPropertyOp20
 70
     0
102
RTVSPropertyOp21
 70
     0
102
RTVSPropertyOp22
 70
     0
102
RTVSPropertyOp23
 70
     0
102
RTVSPropertyOp24
 70
     0
102
RTVSPropertyOp25
 70
     0
102
RTVSPropertyOp26
 70
     0
102
RTVSPropertyOp27
 70
     0
102
RTVSPropertyOp28
 70
     1
102
RTVSPropertyOp29
 70
     1
102
RTVSPropertyOp30
 70
     1
102
RTVSPropertyOp31
 70
     1
102
RTVSPropertyOp32
 70
     1
102
RTVSPropertyOp33
 70
     1
102
RTVSPropertyOp34
 70
     1
102
RTVSPropertyOp35
 70
     1
102
RTVSPropertyOp36
 70
     1
102
RTVSPropertyOp37
 70
     0
102
RTVSPropertyOp38
 70
     0
102
RTVSPropertyOp39
 70
     0
102
RTVSPropertyOp40
 70
     0
102
RTVSPropertyOp41
 70
     0
102
RTVSPropertyOp42
 70
     0
102
RTVSPropertyOp43
 70
     0
102
RTVSPropertyOp44
 70
     0
102
RTVSPropertyOp45
 70
     1
102
RTVSPropertyOp46
 70
     0
102
RTVSPropertyOp47
 70
     0
102
RTVSPropertyOp48
 70
     0
102
RTVSPropertyOp49
 70
     1
102
RTVSPropertyOp50
 70
     0
102
RTVSPropertyOp51
 70
     0
102
RTVSPropertyOp52
 70
     0
102
RTVSPropertyOp53
 70
     0
102
RTVSPropertyOp54
 70
     0
102
RTVSPropertyOp55
 70
     1
102
RTVSPropertyOp56
 70
     0
102
RTVSPropertyOp57
 70
     0
102
RTVSPropertyOp58
 70
     0
102
RTVSPropertyOp59
 70
     0
102
RTVSPropertyOp60
 70
     0
102
RTVSPropertyOp61
 70
     0
102
RTVSPropertyOp62
 70
     0
  0
XRECORD
  5
24E5
102
{ACAD_REACTORS
330
24E4
102
}
330
24E4
100
AcDbXrecord
280
     1
102
RTVSPost2010Prop28
280
     0
102
RTVSPost2010PropOp28
 70
     1
102
RTVSPost2010Prop29
280
     1
102
RTVSPost2010PropOp29
 70
     1
102
RTVSPost2010Prop30
280
     1
102
RTVSPost2010PropOp30
 70
     1
102
RTVSPost2010Prop31
280
     0
102
RTVSPost2010PropOp31
 70
     1
102
RTVSPost2010Prop32
280
     0
102
RTVSPost2010PropOp32
 70
     1
102
RTVSPost2010Prop33
280
     0
102
RTVSPost2010PropOp33
 70
     1
102
RTVSPost2010Prop34
280
     0
102
RTVSPost2010PropOp34
 70
     1
102
RTVSPost2010Prop35
280
     0
102
RTVSPost2010PropOp35
 70
     1
102
RTVSPost2010Prop36
280
     0
102
RTVSPost2010PropOp36
 70
     1
102
RTVSPost2010Prop37
 90
       50
102
RTVSPost2010PropOp37
 70
     1
102
RTVSPost2010Prop38
140
0.0
102
RTVSPost2010PropOp38
 70
     1
102
RTVSPost2010Prop39
140
1.0
102
RTVSPost2010PropOp39
 70
     1
102
RTVSPost2010Prop40
 90
        0
102
RTVSPost2010PropOp40
 70
     1
102
RTVSPost2010Prop41ColorIndex
 90
       18
102
RTVSPost2010Prop41ColorRGB
 90
        0
102
RTVSPost2010PropOp41
 70
     1
102
RTVSPost2010Prop42
 90
       50
102
RTVSPost2010PropOp42
 70
     1
102
RTVSPost2010Prop43
 90
        3
102
RTVSPost2010PropOp43
 70
     1
102
RTVSPost2010Prop44ColorIndex
 90
        5
102
RTVSPost2010Prop44ColorRGB
 90
      255
102
RTVSPost2010PropOp44
 70
     1
102
RTVSPost2010Prop45
280
     0
102
RTVSPost2010PropOp45
 70
     1
102
RTVSPost2010Prop46
 90
       50
102
RTVSPost2010PropOp46
 70
     1
102
RTVSPost2010Prop47
 90
       50
102
RTVSPost2010PropOp47
 70
     1
102
RTVSPost2010Prop48
 90
       50
102
RTVSPost2010PropOp48
 70
     1
102
RTVSPost2010Prop49
280
     0
102
RTVSPost2010PropOp49
 70
     1
102
RTVSPost2010Prop50
 90
       50
102
RTVSPost2010PropOp50
 70
     1
102
RTVSPost2010Prop51ColorIndex
 90
      256
102
RTVSPost2010Prop51ColorRGB
 90
-16777216
102
RTVSPost2010PropOp51
 70
     0
102
RTVSPost2010Prop52
140
1.0
102
RTVSPost2010PropOp52
 70
     0
102
RTVSPost2010Prop53
 90
        2
102
RTVSPost2010PropOp53
 70
     1
102
RTVSPost2010Prop54
  1
strokes_ogs.tif
102
RTVSPost2010PropOp54
 70
     1
102
RTVSPost2010Prop55
280
     0
102
RTVSPost2010PropOp55
 70
     1
102
RTVSPost2010Prop56
140
1.0
102
RTVSPost2010PropOp56
 70
     1
102
RTVSPost2010Prop57
140
1.0
102
RTVSPost2010PropOp57
 70
     1
102
RTVSPropertyOp0
 70
     1
102
RTVSPropertyOp1
 70
     1
102
RTVSPropertyOp2
 70
     1
102
RTVSPropertyOp3
 70
     1
102
RTVSPropertyOp4
 70
     1
102
RTVSPropertyOp5
 70
     1
102
RTVSPropertyOp6
 70
     1
102
RTVSPropertyOp7
 70
     1
102
RTVSPropertyOp8
 70
     1
102
RTVSPropertyOp9
 70
     1
102
RTVSPropertyOp10
 70
     1
102
RTVSPropertyOp11
 70
     1
102
RTVSPropertyOp12
 70
     1
102
RTVSPropertyOp13
 70
     1
102
RTVSPropertyOp14
 70
     1
102
RTVSPropertyOp15
 70
     1
102
RTVSPropertyOp16
 70
     1
102
RTVSPropertyOp17
 70
     1
102
RTVSPropertyOp18
 70
     1
102
RTVSPropertyOp19
 70
     1
102
RTVSPropertyOp20
 70
     1
102
RTVSPropertyOp21
 70
     1
102
RTVSPropertyOp22
 70
     1
102
RTVSPropertyOp23
 70
     1
102
RTVSPropertyOp24
 70
     1
102
RTVSPropertyOp25
 70
     1
102
RTVSPropertyOp26
 70
     1
102
RTVSPropertyOp27
 70
     1
102
RTVSPropertyOp28
 70
     1
102
RTVSPropertyOp29
 70
     1
102
RTVSPropertyOp30
 70
     1
102
RTVSPropertyOp31
 70
     1
102
RTVSPropertyOp32
 70
     1
102
RTVSPropertyOp33
 70
     1
102
RTVSPropertyOp34
 70
     1
102
RTVSPropertyOp35
 70
     1
102
RTVSPropertyOp36
 70
     1
102
RTVSPropertyOp37
 70
     1
102
RTVSPropertyOp38
 70
     1
102
RTVSPropertyOp39
 70
     1
102
RTVSPropertyOp40
 70
     1
102
RTVSPropertyOp41
 70
     1
102
RTVSPropertyOp42
 70
     1
102
RTVSPropertyOp43
 70
     1
102
RTVSPropertyOp44
 70
     1
102
RTVSPropertyOp45
 70
     1
102
RTVSPropertyOp46
 70
     1
102
RTVSPropertyOp47
 70
     1
102
RTVSPropertyOp48
 70
     1
102
RTVSPropertyOp49
 70
     1
102
RTVSPropertyOp50
 70
     1
102
RTVSPropertyOp51
 70
     0
102
RTVSPropertyOp52
 70
     0
102
RTVSPropertyOp53
 70
     1
102
RTVSPropertyOp54
 70
     1
102
RTVSPropertyOp55
 70
     1
102
RTVSPropertyOp56
 70
     1
102
RTVSPropertyOp57
 70
     1
102
RTVSPropertyOp58
 70
     1
102
RTVSPropertyOp59
 70
     1
102
RTVSPropertyOp60
 70
     1
102
RTVSPropertyOp61
 70
     1
102
RTVSPropertyOp62
 70
     1
  0
XRECORD
  5
24C9
102
{ACAD_REACTORS
330
24C8
102
}
330
24C8
100
AcDbXrecord
280
     1
102
RTVSPost2010Prop28
280
     0
102
RTVSPost2010PropOp28
 70
     1
102
RTVSPost2010Prop29
280
     1
102
RTVSPost2010PropOp29
 70
     1
102
RTVSPost2010Prop30
280
     1
102
RTVSPost2010PropOp30
 70
     1
102
RTVSPost2010Prop31
280
     0
102
RTVSPost2010PropOp31
 70
     1
102
RTVSPost2010Prop32
280
     0
102
RTVSPost2010PropOp32
 70
     1
102
RTVSPost2010Prop33
280
     0
102
RTVSPost2010PropOp33
 70
     1
102
RTVSPost2010Prop34
280
     0
102
RTVSPost2010PropOp34
 70
     1
102
RTVSPost2010Prop35
280
     0
102
RTVSPost2010PropOp35
 70
     1
102
RTVSPost2010Prop36
280
     0
102
RTVSPost2010PropOp36
 70
     1
102
RTVSPost2010Prop37
 90
       50
102
RTVSPost2010PropOp37
 70
     1
102
RTVSPost2010Prop38
140
0.0
102
RTVSPost2010PropOp38
 70
     1
102
RTVSPost2010Prop39
140
1.0
102
RTVSPost2010PropOp39
 70
     1
102
RTVSPost2010Prop40
 90
        0
102
RTVSPost2010PropOp40
 70
     1
102
RTVSPost2010Prop41ColorIndex
 90
       18
102
RTVSPost2010Prop41ColorRGB
 90
        0
102
RTVSPost2010PropOp41
 70
     1
102
RTVSPost2010Prop42
 90
       50
102
RTVSPost2010PropOp42
 70
     1
102
RTVSPost2010Prop43
 90
        3
102
RTVSPost2010PropOp43
 70
     1
102
RTVSPost2010Prop44ColorIndex
 90
        5
102
RTVSPost2010Prop44ColorRGB
 90
      255
102
RTVSPost2010PropOp44
 70
     1
102
RTVSPost2010Prop45
280
     0
102
RTVSPost2010PropOp45
 70
     1
102
RTVSPost2010Prop46
 90
       50
102
RTVSPost2010PropOp46
 70
     1
102
RTVSPost2010Prop47
 90
       50
102
RTVSPost2010PropOp47
 70
     1
102
RTVSPost2010Prop48
 90
       50
102
RTVSPost2010PropOp48
 70
     1
102
RTVSPost2010Prop49
280
     0
102
RTVSPost2010PropOp49
 70
     1
102
RTVSPost2010Prop50
 90
       50
102
RTVSPost2010PropOp50
 70
     1
102
RTVSPost2010Prop51ColorIndex
 90
      256
102
RTVSPost2010Prop51ColorRGB
 90
-16777216
102
RTVSPost2010PropOp51
 70
     0
102
RTVSPost2010Prop52
140
1.0
102
RTVSPost2010PropOp52
 70
     0
102
RTVSPost2010Prop53
 90
        2
102
RTVSPost2010PropOp53
 70
     1
102
RTVSPost2010Prop54
  1
strokes_ogs.tif
102
RTVSPost2010PropOp54
 70
     1
102
RTVSPost2010Prop55
280
     0
102
RTVSPost2010PropOp55
 70
     1
102
RTVSPost2010Prop56
140
1.0
102
RTVSPost2010PropOp56
 70
     1
102
RTVSPost2010Prop57
140
1.0
102
RTVSPost2010PropOp57
 70
     1
102
RTVSPropertyOp0
 70
     1
102
RTVSPropertyOp1
 70
     1
102
RTVSPropertyOp2
 70
     1
102
RTVSPropertyOp3
 70
     1
102
RTVSPropertyOp4
 70
     1
102
RTVSPropertyOp5
 70
     1
102
RTVSPropertyOp6
 70
     1
102
RTVSPropertyOp7
 70
     1
102
RTVSPropertyOp8
 70
     1
102
RTVSPropertyOp9
 70
     1
102
RTVSPropertyOp10
 70
     1
102
RTVSPropertyOp11
 70
     1
102
RTVSPropertyOp12
 70
     1
102
RTVSPropertyOp13
 70
     1
102
RTVSPropertyOp14
 70
     1
102
RTVSPropertyOp15
 70
     1
102
RTVSPropertyOp16
 70
     1
102
RTVSPropertyOp17
 70
     1
102
RTVSPropertyOp18
 70
     1
102
RTVSPropertyOp19
 70
     1
102
RTVSPropertyOp20
 70
     1
102
RTVSPropertyOp21
 70
     1
102
RTVSPropertyOp22
 70
     1
102
RTVSPropertyOp23
 70
     1
102
RTVSPropertyOp24
 70
     1
102
RTVSPropertyOp25
 70
     1
102
RTVSPropertyOp26
 70
     1
102
RTVSPropertyOp27
 70
     1
102
RTVSPropertyOp28
 70
     1
102
RTVSPropertyOp29
 70
     1
102
RTVSPropertyOp30
 70
     1
102
RTVSPropertyOp31
 70
     1
102
RTVSPropertyOp32
 70
     1
102
RTVSPropertyOp33
 70
     1
102
RTVSPropertyOp34
 70
     1
102
RTVSPropertyOp35
 70
     1
102
RTVSPropertyOp36
 70
     1
102
RTVSPropertyOp37
 70
     1
102
RTVSPropertyOp38
 70
     1
102
RTVSPropertyOp39
 70
     1
102
RTVSPropertyOp40
 70
     1
102
RTVSPropertyOp41
 70
     1
102
RTVSPropertyOp42
 70
     1
102
RTVSPropertyOp43
 70
     1
102
RTVSPropertyOp44
 70
     1
102
RTVSPropertyOp45
 70
     1
102
RTVSPropertyOp46
 70
     1
102
RTVSPropertyOp47
 70
     1
102
RTVSPropertyOp48
 70
     1
102
RTVSPropertyOp49
 70
     1
102
RTVSPropertyOp50
 70
     1
102
RTVSPropertyOp51
 70
     0
102
RTVSPropertyOp52
 70
     0
102
RTVSPropertyOp53
 70
     1
102
RTVSPropertyOp54
 70
     1
102
RTVSPropertyOp55
 70
     1
102
RTVSPropertyOp56
 70
     1
102
RTVSPropertyOp57
 70
     1
102
RTVSPropertyOp58
 70
     1
102
RTVSPropertyOp59
 70
     1
102
RTVSPropertyOp60
 70
     1
102
RTVSPropertyOp61
 70
     1
102
RTVSPropertyOp62
 70
     1
  0
XRECORD
  5
24CB
102
{ACAD_REACTORS
330
24CA
102
}
330
24CA
100
AcDbXrecord
280
     1
102
RTVSPost2010Prop28
280
     0
102
RTVSPost2010PropOp28
 70
     1
102
RTVSPost2010Prop29
280
     1
102
RTVSPost2010PropOp29
 70
     1
102
RTVSPost2010Prop30
280
     1
102
RTVSPost2010PropOp30
 70
     1
102
RTVSPost2010Prop31
280
     0
102
RTVSPost2010PropOp31
 70
     1
102
RTVSPost2010Prop32
280
     0
102
RTVSPost2010PropOp32
 70
     1
102
RTVSPost2010Prop33
280
     0
102
RTVSPost2010PropOp33
 70
     1
102
RTVSPost2010Prop34
280
     0
102
RTVSPost2010PropOp34
 70
     1
102
RTVSPost2010Prop35
280
     0
102
RTVSPost2010PropOp35
 70
     1
102
RTVSPost2010Prop36
280
     0
102
RTVSPost2010PropOp36
 70
     1
102
RTVSPost2010Prop37
 90
       50
102
RTVSPost2010PropOp37
 70
     1
102
RTVSPost2010Prop38
140
0.0
102
RTVSPost2010PropOp38
 70
     1
102
RTVSPost2010Prop39
140
1.0
102
RTVSPost2010PropOp39
 70
     1
102
RTVSPost2010Prop40
 90
        0
102
RTVSPost2010PropOp40
 70
     1
102
RTVSPost2010Prop41ColorIndex
 90
       18
102
RTVSPost2010Prop41ColorRGB
 90
        0
102
RTVSPost2010PropOp41
 70
     1
102
RTVSPost2010Prop42
 90
       50
102
RTVSPost2010PropOp42
 70
     1
102
RTVSPost2010Prop43
 90
        3
102
RTVSPost2010PropOp43
 70
     1
102
RTVSPost2010Prop44ColorIndex
 90
        5
102
RTVSPost2010Prop44ColorRGB
 90
      255
102
RTVSPost2010PropOp44
 70
     1
102
RTVSPost2010Prop45
280
     0
102
RTVSPost2010PropOp45
 70
     1
102
RTVSPost2010Prop46
 90
       50
102
RTVSPost2010PropOp46
 70
     1
102
RTVSPost2010Prop47
 90
       50
102
RTVSPost2010PropOp47
 70
     1
102
RTVSPost2010Prop48
 90
       50
102
RTVSPost2010PropOp48
 70
     1
102
RTVSPost2010Prop49
280
     0
102
RTVSPost2010PropOp49
 70
     1
102
RTVSPost2010Prop50
 90
       50
102
RTVSPost2010PropOp50
 70
     1
102
RTVSPost2010Prop51ColorIndex
 90
      256
102
RTVSPost2010Prop51ColorRGB
 90
-16777216
102
RTVSPost2010PropOp51
 70
     0
102
RTVSPost2010Prop52
140
1.0
102
RTVSPost2010PropOp52
 70
     0
102
RTVSPost2010Prop53
 90
        2
102
RTVSPost2010PropOp53
 70
     1
102
RTVSPost2010Prop54
  1
strokes_ogs.tif
102
RTVSPost2010PropOp54
 70
     1
102
RTVSPost2010Prop55
280
     0
102
RTVSPost2010PropOp55
 70
     1
102
RTVSPost2010Prop56
140
1.0
102
RTVSPost2010PropOp56
 70
     1
102
RTVSPost2010Prop57
140
1.0
102
RTVSPost2010PropOp57
 70
     1
102
RTVSPropertyOp0
 70
     1
102
RTVSPropertyOp1
 70
     1
102
RTVSPropertyOp2
 70
     1
102
RTVSPropertyOp3
 70
     1
102
RTVSPropertyOp4
 70
     1
102
RTVSPropertyOp5
 70
     1
102
RTVSPropertyOp6
 70
     1
102
RTVSPropertyOp7
 70
     1
102
RTVSPropertyOp8
 70
     1
102
RTVSPropertyOp9
 70
     1
102
RTVSPropertyOp10
 70
     1
102
RTVSPropertyOp11
 70
     1
102
RTVSPropertyOp12
 70
     1
102
RTVSPropertyOp13
 70
     1
102
RTVSPropertyOp14
 70
     1
102
RTVSPropertyOp15
 70
     1
102
RTVSPropertyOp16
 70
     1
102
RTVSPropertyOp17
 70
     1
102
RTVSPropertyOp18
 70
     1
102
RTVSPropertyOp19
 70
     1
102
RTVSPropertyOp20
 70
     1
102
RTVSPropertyOp21
 70
     1
102
RTVSPropertyOp22
 70
     1
102
RTVSPropertyOp23
 70
     1
102
RTVSPropertyOp24
 70
     1
102
RTVSPropertyOp25
 70
     1
102
RTVSPropertyOp26
 70
     1
102
RTVSPropertyOp27
 70
     1
102
RTVSPropertyOp28
 70
     1
102
RTVSPropertyOp29
 70
     1
102
RTVSPropertyOp30
 70
     1
102
RTVSPropertyOp31
 70
     1
102
RTVSPropertyOp32
 70
     1
102
RTVSPropertyOp33
 70
     1
102
RTVSPropertyOp34
 70
     1
102
RTVSPropertyOp35
 70
     1
102
RTVSPropertyOp36
 70
     1
102
RTVSPropertyOp37
 70
     1
102
RTVSPropertyOp38
 70
     1
102
RTVSPropertyOp39
 70
     1
102
RTVSPropertyOp40
 70
     1
102
RTVSPropertyOp41
 70
     1
102
RTVSPropertyOp42
 70
     1
102
RTVSPropertyOp43
 70
     1
102
RTVSPropertyOp44
 70
     1
102
RTVSPropertyOp45
 70
     1
102
RTVSPropertyOp46
 70
     1
102
RTVSPropertyOp47
 70
     1
102
RTVSPropertyOp48
 70
     1
102
RTVSPropertyOp49
 70
     1
102
RTVSPropertyOp50
 70
     1
102
RTVSPropertyOp51
 70
     0
102
RTVSPropertyOp52
 70
     0
102
RTVSPropertyOp53
 70
     1
102
RTVSPropertyOp54
 70
     1
102
RTVSPropertyOp55
 70
     1
102
RTVSPropertyOp56
 70
     1
102
RTVSPropertyOp57
 70
     1
102
RTVSPropertyOp58
 70
     1
102
RTVSPropertyOp59
 70
     1
102
RTVSPropertyOp60
 70
     1
102
RTVSPropertyOp61
 70
     1
102
RTVSPropertyOp62
 70
     1
  0
XRECORD
  5
24CD
102
{ACAD_REACTORS
330
24CC
102
}
330
24CC
100
AcDbXrecord
280
     1
102
RTVSPost2010Prop28
280
     0
102
RTVSPost2010PropOp28
 70
     1
102
RTVSPost2010Prop29
280
     1
102
RTVSPost2010PropOp29
 70
     1
102
RTVSPost2010Prop30
280
     1
102
RTVSPost2010PropOp30
 70
     1
102
RTVSPost2010Prop31
280
     0
102
RTVSPost2010PropOp31
 70
     1
102
RTVSPost2010Prop32
280
     0
102
RTVSPost2010PropOp32
 70
     1
102
RTVSPost2010Prop33
280
     0
102
RTVSPost2010PropOp33
 70
     1
102
RTVSPost2010Prop34
280
     0
102
RTVSPost2010PropOp34
 70
     1
102
RTVSPost2010Prop35
280
     0
102
RTVSPost2010PropOp35
 70
     1
102
RTVSPost2010Prop36
280
     0
102
RTVSPost2010PropOp36
 70
     1
102
RTVSPost2010Prop37
 90
       50
102
RTVSPost2010PropOp37
 70
     1
102
RTVSPost2010Prop38
140
0.0
102
RTVSPost2010PropOp38
 70
     1
102
RTVSPost2010Prop39
140
1.0
102
RTVSPost2010PropOp39
 70
     1
102
RTVSPost2010Prop40
 90
        0
102
RTVSPost2010PropOp40
 70
     1
102
RTVSPost2010Prop41ColorIndex
 90
       18
102
RTVSPost2010Prop41ColorRGB
 90
        0
102
RTVSPost2010PropOp41
 70
     1
102
RTVSPost2010Prop42
 90
       50
102
RTVSPost2010PropOp42
 70
     1
102
RTVSPost2010Prop43
 90
        3
102
RTVSPost2010PropOp43
 70
     1
102
RTVSPost2010Prop44ColorIndex
 90
        5
102
RTVSPost2010Prop44ColorRGB
 90
      255
102
RTVSPost2010PropOp44
 70
     1
102
RTVSPost2010Prop45
280
     0
102
RTVSPost2010PropOp45
 70
     1
102
RTVSPost2010Prop46
 90
       50
102
RTVSPost2010PropOp46
 70
     1
102
RTVSPost2010Prop47
 90
       50
102
RTVSPost2010PropOp47
 70
     1
102
RTVSPost2010Prop48
 90
       50
102
RTVSPost2010PropOp48
 70
     1
102
RTVSPost2010Prop49
280
     0
102
RTVSPost2010PropOp49
 70
     1
102
RTVSPost2010Prop50
 90
       50
102
RTVSPost2010PropOp50
 70
     1
102
RTVSPost2010Prop51ColorIndex
 90
      256
102
RTVSPost2010Prop51ColorRGB
 90
-16777216
102
RTVSPost2010PropOp51
 70
     0
102
RTVSPost2010Prop52
140
1.0
102
RTVSPost2010PropOp52
 70
     0
102
RTVSPost2010Prop53
 90
        2
102
RTVSPost2010PropOp53
 70
     1
102
RTVSPost2010Prop54
  1
strokes_ogs.tif
102
RTVSPost2010PropOp54
 70
     1
102
RTVSPost2010Prop55
280
     0
102
RTVSPost2010PropOp55
 70
     1
102
RTVSPost2010Prop56
140
1.0
102
RTVSPost2010PropOp56
 70
     1
102
RTVSPost2010Prop57
140
1.0
102
RTVSPost2010PropOp57
 70
     1
102
RTVSPropertyOp0
 70
     1
102
RTVSPropertyOp1
 70
     1
102
RTVSPropertyOp2
 70
     1
102
RTVSPropertyOp3
 70
     1
102
RTVSPropertyOp4
 70
     1
102
RTVSPropertyOp5
 70
     1
102
RTVSPropertyOp6
 70
     1
102
RTVSPropertyOp7
 70
     1
102
RTVSPropertyOp8
 70
     1
102
RTVSPropertyOp9
 70
     1
102
RTVSPropertyOp10
 70
     1
102
RTVSPropertyOp11
 70
     1
102
RTVSPropertyOp12
 70
     1
102
RTVSPropertyOp13
 70
     1
102
RTVSPropertyOp14
 70
     1
102
RTVSPropertyOp15
 70
     1
102
RTVSPropertyOp16
 70
     1
102
RTVSPropertyOp17
 70
     1
102
RTVSPropertyOp18
 70
     1
102
RTVSPropertyOp19
 70
     1
102
RTVSPropertyOp20
 70
     1
102
RTVSPropertyOp21
 70
     1
102
RTVSPropertyOp22
 70
     1
102
RTVSPropertyOp23
 70
     1
102
RTVSPropertyOp24
 70
     1
102
RTVSPropertyOp25
 70
     1
102
RTVSPropertyOp26
 70
     1
102
RTVSPropertyOp27
 70
     1
102
RTVSPropertyOp28
 70
     1
102
RTVSPropertyOp29
 70
     1
102
RTVSPropertyOp30
 70
     1
102
RTVSPropertyOp31
 70
     1
102
RTVSPropertyOp32
 70
     1
102
RTVSPropertyOp33
 70
     1
102
RTVSPropertyOp34
 70
     1
102
RTVSPropertyOp35
 70
     1
102
RTVSPropertyOp36
 70
     1
102
RTVSPropertyOp37
 70
     1
102
RTVSPropertyOp38
 70
     1
102
RTVSPropertyOp39
 70
     1
102
RTVSPropertyOp40
 70
     1
102
RTVSPropertyOp41
 70
     1
102
RTVSPropertyOp42
 70
     1
102
RTVSPropertyOp43
 70
     1
102
RTVSPropertyOp44
 70
     1
102
RTVSPropertyOp45
 70
     1
102
RTVSPropertyOp46
 70
     1
102
RTVSPropertyOp47
 70
     1
102
RTVSPropertyOp48
 70
     1
102
RTVSPropertyOp49
 70
     1
102
RTVSPropertyOp50
 70
     1
102
RTVSPropertyOp51
 70
     0
102
RTVSPropertyOp52
 70
     0
102
RTVSPropertyOp53
 70
     1
102
RTVSPropertyOp54
 70
     1
102
RTVSPropertyOp55
 70
     1
102
RTVSPropertyOp56
 70
     1
102
RTVSPropertyOp57
 70
     1
102
RTVSPropertyOp58
 70
     1
102
RTVSPropertyOp59
 70
     1
102
RTVSPropertyOp60
 70
     1
102
RTVSPropertyOp61
 70
     1
102
RTVSPropertyOp62
 70
     1
  0
XRECORD
  5
24CF
102
{ACAD_REACTORS
330
24CE
102
}
330
24CE
100
AcDbXrecord
280
     1
102
RTVSPost2010Prop28
280
     0
102
RTVSPost2010PropOp28
 70
     1
102
RTVSPost2010Prop29
280
     1
102
RTVSPost2010PropOp29
 70
     1
102
RTVSPost2010Prop30
280
     1
102
RTVSPost2010PropOp30
 70
     1
102
RTVSPost2010Prop31
280
     0
102
RTVSPost2010PropOp31
 70
     1
102
RTVSPost2010Prop32
280
     0
102
RTVSPost2010PropOp32
 70
     1
102
RTVSPost2010Prop33
280
     0
102
RTVSPost2010PropOp33
 70
     1
102
RTVSPost2010Prop34
280
     0
102
RTVSPost2010PropOp34
 70
     1
102
RTVSPost2010Prop35
280
     0
102
RTVSPost2010PropOp35
 70
     1
102
RTVSPost2010Prop36
280
     0
102
RTVSPost2010PropOp36
 70
     1
102
RTVSPost2010Prop37
 90
       50
102
RTVSPost2010PropOp37
 70
     1
102
RTVSPost2010Prop38
140
0.0
102
RTVSPost2010PropOp38
 70
     1
102
RTVSPost2010Prop39
140
1.0
102
RTVSPost2010PropOp39
 70
     1
102
RTVSPost2010Prop40
 90
        0
102
RTVSPost2010PropOp40
 70
     1
102
RTVSPost2010Prop41ColorIndex
 90
       18
102
RTVSPost2010Prop41ColorRGB
 90
        0
102
RTVSPost2010PropOp41
 70
     1
102
RTVSPost2010Prop42
 90
       50
102
RTVSPost2010PropOp42
 70
     1
102
RTVSPost2010Prop43
 90
        3
102
RTVSPost2010PropOp43
 70
     1
102
RTVSPost2010Prop44ColorIndex
 90
        5
102
RTVSPost2010Prop44ColorRGB
 90
      255
102
RTVSPost2010PropOp44
 70
     1
102
RTVSPost2010Prop45
280
     0
102
RTVSPost2010PropOp45
 70
     1
102
RTVSPost2010Prop46
 90
       50
102
RTVSPost2010PropOp46
 70
     1
102
RTVSPost2010Prop47
 90
       50
102
RTVSPost2010PropOp47
 70
     1
102
RTVSPost2010Prop48
 90
       50
102
RTVSPost2010PropOp48
 70
     1
102
RTVSPost2010Prop49
280
     0
102
RTVSPost2010PropOp49
 70
     1
102
RTVSPost2010Prop50
 90
       50
102
RTVSPost2010PropOp50
 70
     1
102
RTVSPost2010Prop51ColorIndex
 90
      256
102
RTVSPost2010Prop51ColorRGB
 90
-16777216
102
RTVSPost2010PropOp51
 70
     0
102
RTVSPost2010Prop52
140
1.0
102
RTVSPost2010PropOp52
 70
     0
102
RTVSPost2010Prop53
 90
        2
102
RTVSPost2010PropOp53
 70
     1
102
RTVSPost2010Prop54
  1
strokes_ogs.tif
102
RTVSPost2010PropOp54
 70
     1
102
RTVSPost2010Prop55
280
     0
102
RTVSPost2010PropOp55
 70
     1
102
RTVSPost2010Prop56
140
1.0
102
RTVSPost2010PropOp56
 70
     1
102
RTVSPost2010Prop57
140
1.0
102
RTVSPost2010PropOp57
 70
     1
102
RTVSPropertyOp0
 70
     1
102
RTVSPropertyOp1
 70
     1
102
RTVSPropertyOp2
 70
     1
102
RTVSPropertyOp3
 70
     1
102
RTVSPropertyOp4
 70
     1
102
RTVSPropertyOp5
 70
     1
102
RTVSPropertyOp6
 70
     1
102
RTVSPropertyOp7
 70
     1
102
RTVSPropertyOp8
 70
     1
102
RTVSPropertyOp9
 70
     1
102
RTVSPropertyOp10
 70
     1
102
RTVSPropertyOp11
 70
     1
102
RTVSPropertyOp12
 70
     1
102
RTVSPropertyOp13
 70
     1
102
RTVSPropertyOp14
 70
     1
102
RTVSPropertyOp15
 70
     1
102
RTVSPropertyOp16
 70
     1
102
RTVSPropertyOp17
 70
     1
102
RTVSPropertyOp18
 70
     1
102
RTVSPropertyOp19
 70
     1
102
RTVSPropertyOp20
 70
     1
102
RTVSPropertyOp21
 70
     1
102
RTVSPropertyOp22
 70
     1
102
RTVSPropertyOp23
 70
     1
102
RTVSPropertyOp24
 70
     1
102
RTVSPropertyOp25
 70
     1
102
RTVSPropertyOp26
 70
     1
102
RTVSPropertyOp27
 70
     1
102
RTVSPropertyOp28
 70
     1
102
RTVSPropertyOp29
 70
     1
102
RTVSPropertyOp30
 70
     1
102
RTVSPropertyOp31
 70
     1
102
RTVSPropertyOp32
 70
     1
102
RTVSPropertyOp33
 70
     1
102
RTVSPropertyOp34
 70
     1
102
RTVSPropertyOp35
 70
     1
102
RTVSPropertyOp36
 70
     1
102
RTVSPropertyOp37
 70
     1
102
RTVSPropertyOp38
 70
     1
102
RTVSPropertyOp39
 70
     1
102
RTVSPropertyOp40
 70
     1
102
RTVSPropertyOp41
 70
     1
102
RTVSPropertyOp42
 70
     1
102
RTVSPropertyOp43
 70
     1
102
RTVSPropertyOp44
 70
     1
102
RTVSPropertyOp45
 70
     1
102
RTVSPropertyOp46
 70
     1
102
RTVSPropertyOp47
 70
     1
102
RTVSPropertyOp48
 70
     1
102
RTVSPropertyOp49
 70
     1
102
RTVSPropertyOp50
 70
     1
102
RTVSPropertyOp51
 70
     0
102
RTVSPropertyOp52
 70
     0
102
RTVSPropertyOp53
 70
     1
102
RTVSPropertyOp54
 70
     1
102
RTVSPropertyOp55
 70
     1
102
RTVSPropertyOp56
 70
     1
102
RTVSPropertyOp57
 70
     1
102
RTVSPropertyOp58
 70
     1
102
RTVSPropertyOp59
 70
     1
102
RTVSPropertyOp60
 70
     1
102
RTVSPropertyOp61
 70
     1
102
RTVSPropertyOp62
 70
     1
  0
XRECORD
  5
24D7
102
{ACAD_REACTORS
330
24D6
102
}
330
24D6
100
AcDbXrecord
280
     1
102
RTVSPost2010Prop28
280
     0
102
RTVSPost2010PropOp28
 70
     1
102
RTVSPost2010Prop29
280
     1
102
RTVSPost2010PropOp29
 70
     1
102
RTVSPost2010Prop30
280
     1
102
RTVSPost2010PropOp30
 70
     1
102
RTVSPost2010Prop31
280
     0
102
RTVSPost2010PropOp31
 70
     1
102
RTVSPost2010Prop32
280
     0
102
RTVSPost2010PropOp32
 70
     1
102
RTVSPost2010Prop33
280
     0
102
RTVSPost2010PropOp33
 70
     1
102
RTVSPost2010Prop34
280
     0
102
RTVSPost2010PropOp34
 70
     1
102
RTVSPost2010Prop35
280
     0
102
RTVSPost2010PropOp35
 70
     1
102
RTVSPost2010Prop36
280
     0
102
RTVSPost2010PropOp36
 70
     1
102
RTVSPost2010Prop37
 90
       50
102
RTVSPost2010PropOp37
 70
     1
102
RTVSPost2010Prop38
140
0.0
102
RTVSPost2010PropOp38
 70
     1
102
RTVSPost2010Prop39
140
1.0
102
RTVSPost2010PropOp39
 70
     1
102
RTVSPost2010Prop40
 90
        0
102
RTVSPost2010PropOp40
 70
     1
102
RTVSPost2010Prop41ColorIndex
 90
       18
102
RTVSPost2010Prop41ColorRGB
 90
        0
102
RTVSPost2010PropOp41
 70
     1
102
RTVSPost2010Prop42
 90
       50
102
RTVSPost2010PropOp42
 70
     1
102
RTVSPost2010Prop43
 90
        3
102
RTVSPost2010PropOp43
 70
     1
102
RTVSPost2010Prop44ColorIndex
 90
        5
102
RTVSPost2010Prop44ColorRGB
 90
      255
102
RTVSPost2010PropOp44
 70
     1
102
RTVSPost2010Prop45
280
     0
102
RTVSPost2010PropOp45
 70
     1
102
RTVSPost2010Prop46
 90
       50
102
RTVSPost2010PropOp46
 70
     1
102
RTVSPost2010Prop47
 90
       50
102
RTVSPost2010PropOp47
 70
     1
102
RTVSPost2010Prop48
 90
       50
102
RTVSPost2010PropOp48
 70
     1
102
RTVSPost2010Prop49
280
     0
102
RTVSPost2010PropOp49
 70
     1
102
RTVSPost2010Prop50
 90
       50
102
RTVSPost2010PropOp50
 70
     1
102
RTVSPost2010Prop51ColorIndex
 90
      256
102
RTVSPost2010Prop51ColorRGB
 90
-16777216
102
RTVSPost2010PropOp51
 70
     0
102
RTVSPost2010Prop52
140
1.0
102
RTVSPost2010PropOp52
 70
     0
102
RTVSPost2010Prop53
 90
        2
102
RTVSPost2010PropOp53
 70
     1
102
RTVSPost2010Prop54
  1
strokes_ogs.tif
102
RTVSPost2010PropOp54
 70
     1
102
RTVSPost2010Prop55
280
     0
102
RTVSPost2010PropOp55
 70
     1
102
RTVSPost2010Prop56
140
1.0
102
RTVSPost2010PropOp56
 70
     1
102
RTVSPost2010Prop57
140
1.0
102
RTVSPost2010PropOp57
 70
     1
102
RTVSPropertyOp0
 70
     1
102
RTVSPropertyOp1
 70
     1
102
RTVSPropertyOp2
 70
     1
102
RTVSPropertyOp3
 70
     1
102
RTVSPropertyOp4
 70
     1
102
RTVSPropertyOp5
 70
     1
102
RTVSPropertyOp6
 70
     1
102
RTVSPropertyOp7
 70
     1
102
RTVSPropertyOp8
 70
     1
102
RTVSPropertyOp9
 70
     1
102
RTVSPropertyOp10
 70
     1
102
RTVSPropertyOp11
 70
     1
102
RTVSPropertyOp12
 70
     1
102
RTVSPropertyOp13
 70
     1
102
RTVSPropertyOp14
 70
     1
102
RTVSPropertyOp15
 70
     1
102
RTVSPropertyOp16
 70
     1
102
RTVSPropertyOp17
 70
     1
102
RTVSPropertyOp18
 70
     1
102
RTVSPropertyOp19
 70
     1
102
RTVSPropertyOp20
 70
     1
102
RTVSPropertyOp21
 70
     1
102
RTVSPropertyOp22
 70
     1
102
RTVSPropertyOp23
 70
     1
102
RTVSPropertyOp24
 70
     1
102
RTVSPropertyOp25
 70
     1
102
RTVSPropertyOp26
 70
     1
102
RTVSPropertyOp27
 70
     1
102
RTVSPropertyOp28
 70
     1
102
RTVSPropertyOp29
 70
     1
102
RTVSPropertyOp30
 70
     1
102
RTVSPropertyOp31
 70
     1
102
RTVSPropertyOp32
 70
     1
102
RTVSPropertyOp33
 70
     1
102
RTVSPropertyOp34
 70
     1
102
RTVSPropertyOp35
 70
     1
102
RTVSPropertyOp36
 70
     1
102
RTVSPropertyOp37
 70
     1
102
RTVSPropertyOp38
 70
     1
102
RTVSPropertyOp39
 70
     1
102
RTVSPropertyOp40
 70
     1
102
RTVSPropertyOp41
 70
     1
102
RTVSPropertyOp42
 70
     1
102
RTVSPropertyOp43
 70
     1
102
RTVSPropertyOp44
 70
     1
102
RTVSPropertyOp45
 70
     1
102
RTVSPropertyOp46
 70
     1
102
RTVSPropertyOp47
 70
     1
102
RTVSPropertyOp48
 70
     1
102
RTVSPropertyOp49
 70
     1
102
RTVSPropertyOp50
 70
     1
102
RTVSPropertyOp51
 70
     0
102
RTVSPropertyOp52
 70
     0
102
RTVSPropertyOp53
 70
     1
102
RTVSPropertyOp54
 70
     1
102
RTVSPropertyOp55
 70
     1
102
RTVSPropertyOp56
 70
     1
102
RTVSPropertyOp57
 70
     1
102
RTVSPropertyOp58
 70
     1
102
RTVSPropertyOp59
 70
     1
102
RTVSPropertyOp60
 70
     1
102
RTVSPropertyOp61
 70
     1
102
RTVSPropertyOp62
 70
     1
  0
XRECORD
  5
24F3
102
{ACAD_REACTORS
330
24F2
102
}
330
24F2
100
AcDbXrecord
280
     1
102
RTVSPost2010Prop28
280
     0
102
RTVSPost2010PropOp28
 70
     1
102
RTVSPost2010Prop29
280
     1
102
RTVSPost2010PropOp29
 70
     1
102
RTVSPost2010Prop30
280
     1
102
RTVSPost2010PropOp30
 70
     1
102
RTVSPost2010Prop31
280
     0
102
RTVSPost2010PropOp31
 70
     1
102
RTVSPost2010Prop32
280
     0
102
RTVSPost2010PropOp32
 70
     1
102
RTVSPost2010Prop33
280
     0
102
RTVSPost2010PropOp33
 70
     1
102
RTVSPost2010Prop34
280
     0
102
RTVSPost2010PropOp34
 70
     1
102
RTVSPost2010Prop35
280
     0
102
RTVSPost2010PropOp35
 70
     1
102
RTVSPost2010Prop36
280
     0
102
RTVSPost2010PropOp36
 70
     1
102
RTVSPost2010Prop37
 90
       50
102
RTVSPost2010PropOp37
 70
     0
102
RTVSPost2010Prop38
140
0.0
102
RTVSPost2010PropOp38
 70
     0
102
RTVSPost2010Prop39
140
1.0
102
RTVSPost2010PropOp39
 70
     0
102
RTVSPost2010Prop40
 90
        0
102
RTVSPost2010PropOp40
 70
     0
102
RTVSPost2010Prop41ColorIndex
 90
       18
102
RTVSPost2010Prop41ColorRGB
 90
        0
102
RTVSPost2010PropOp41
 70
     0
102
RTVSPost2010Prop42
 90
       50
102
RTVSPost2010PropOp42
 70
     0
102
RTVSPost2010Prop43
 90
        3
102
RTVSPost2010PropOp43
 70
     0
102
RTVSPost2010Prop44ColorIndex
 90
        5
102
RTVSPost2010Prop44ColorRGB
 90
      255
102
RTVSPost2010PropOp44
 70
     0
102
RTVSPost2010Prop45
280
     0
102
RTVSPost2010PropOp45
 70
     1
102
RTVSPost2010Prop46
 90
       50
102
RTVSPost2010PropOp46
 70
     0
102
RTVSPost2010Prop47
 90
       50
102
RTVSPost2010PropOp47
 70
     0
102
RTVSPost2010Prop48
 90
       50
102
RTVSPost2010PropOp48
 70
     0
102
RTVSPost2010Prop49
280
     0
102
RTVSPost2010PropOp49
 70
     1
102
RTVSPost2010Prop50
 90
       50
102
RTVSPost2010PropOp50
 70
     0
102
RTVSPost2010Prop51ColorIndex
 90
      256
102
RTVSPost2010Prop51ColorRGB
 90
-16777216
102
RTVSPost2010PropOp51
 70
     0
102
RTVSPost2010Prop52
140
1.0
102
RTVSPost2010PropOp52
 70
     0
102
RTVSPost2010Prop53
 90
        2
102
RTVSPost2010PropOp53
 70
     0
102
RTVSPost2010Prop54
  1
strokes_ogs.tif
102
RTVSPost2010PropOp54
 70
     0
102
RTVSPost2010Prop55
280
     0
102
RTVSPost2010PropOp55
 70
     1
102
RTVSPost2010Prop56
140
1.0
102
RTVSPost2010PropOp56
 70
     0
102
RTVSPost2010Prop57
140
1.0
102
RTVSPost2010PropOp57
 70
     0
102
RTVSPropertyOp0
 70
     0
102
RTVSPropertyOp1
 70
     0
102
RTVSPropertyOp2
 70
     0
102
RTVSPropertyOp3
 70
     0
102
RTVSPropertyOp4
 70
     0
102
RTVSPropertyOp5
 70
     0
102
RTVSPropertyOp6
 70
     0
102
RTVSPropertyOp7
 70
     0
102
RTVSPropertyOp8
 70
     0
102
RTVSPropertyOp9
 70
     0
102
RTVSPropertyOp10
 70
     0
102
RTVSPropertyOp11
 70
     0
102
RTVSPropertyOp12
 70
     0
102
RTVSPropertyOp13
 70
     0
102
RTVSPropertyOp14
 70
     2
102
RTVSPropertyOp15
 70
     0
102
RTVSPropertyOp16
 70
     0
102
RTVSPropertyOp17
 70
     0
102
RTVSPropertyOp18
 70
     0
102
RTVSPropertyOp19
 70
     0
102
RTVSPropertyOp20
 70
     0
102
RTVSPropertyOp21
 70
     0
102
RTVSPropertyOp22
 70
     0
102
RTVSPropertyOp23
 70
     0
102
RTVSPropertyOp24
 70
     0
102
RTVSPropertyOp25
 70
     0
102
RTVSPropertyOp26
 70
     0
102
RTVSPropertyOp27
 70
     0
102
RTVSPropertyOp28
 70
     1
102
RTVSPropertyOp29
 70
     1
102
RTVSPropertyOp30
 70
     1
102
RTVSPropertyOp31
 70
     1
102
RTVSPropertyOp32
 70
     1
102
RTVSPropertyOp33
 70
     1
102
RTVSPropertyOp34
 70
     1
102
RTVSPropertyOp35
 70
     1
102
RTVSPropertyOp36
 70
     1
102
RTVSPropertyOp37
 70
     0
102
RTVSPropertyOp38
 70
     0
102
RTVSPropertyOp39
 70
     0
102
RTVSPropertyOp40
 70
     0
102
RTVSPropertyOp41
 70
     0
102
RTVSPropertyOp42
 70
     0
102
RTVSPropertyOp43
 70
     0
102
RTVSPropertyOp44
 70
     0
102
RTVSPropertyOp45
 70
     1
102
RTVSPropertyOp46
 70
     0
102
RTVSPropertyOp47
 70
     0
102
RTVSPropertyOp48
 70
     0
102
RTVSPropertyOp49
 70
     1
102
RTVSPropertyOp50
 70
     0
102
RTVSPropertyOp51
 70
     0
102
RTVSPropertyOp52
 70
     0
102
RTVSPropertyOp53
 70
     0
102
RTVSPropertyOp54
 70
     0
102
RTVSPropertyOp55
 70
     1
102
RTVSPropertyOp56
 70
     0
102
RTVSPropertyOp57
 70
     0
102
RTVSPropertyOp58
 70
     0
102
RTVSPropertyOp59
 70
     0
102
RTVSPropertyOp60
 70
     0
102
RTVSPropertyOp61
 70
     0
102
RTVSPropertyOp62
 70
     0
  0
XRECORD
  5
24E3
102
{ACAD_REACTORS
330
24E2
102
}
330
24E2
100
AcDbXrecord
280
     1
102
RTVSPost2010Prop28
280
     0
102
RTVSPost2010PropOp28
 70
     1
102
RTVSPost2010Prop29
280
     1
102
RTVSPost2010PropOp29
 70
     1
102
RTVSPost2010Prop30
280
     1
102
RTVSPost2010PropOp30
 70
     1
102
RTVSPost2010Prop31
280
     0
102
RTVSPost2010PropOp31
 70
     1
102
RTVSPost2010Prop32
280
     0
102
RTVSPost2010PropOp32
 70
     1
102
RTVSPost2010Prop33
280
     0
102
RTVSPost2010PropOp33
 70
     1
102
RTVSPost2010Prop34
280
     0
102
RTVSPost2010PropOp34
 70
     1
102
RTVSPost2010Prop35
280
     0
102
RTVSPost2010PropOp35
 70
     1
102
RTVSPost2010Prop36
280
     0
102
RTVSPost2010PropOp36
 70
     1
102
RTVSPost2010Prop37
 90
       50
102
RTVSPost2010PropOp37
 70
     1
102
RTVSPost2010Prop38
140
0.0
102
RTVSPost2010PropOp38
 70
     1
102
RTVSPost2010Prop39
140
1.0
102
RTVSPost2010PropOp39
 70
     1
102
RTVSPost2010Prop40
 90
        0
102
RTVSPost2010PropOp40
 70
     1
102
RTVSPost2010Prop41ColorIndex
 90
       18
102
RTVSPost2010Prop41ColorRGB
 90
        0
102
RTVSPost2010PropOp41
 70
     1
102
RTVSPost2010Prop42
 90
       50
102
RTVSPost2010PropOp42
 70
     1
102
RTVSPost2010Prop43
 90
        3
102
RTVSPost2010PropOp43
 70
     1
102
RTVSPost2010Prop44ColorIndex
 90
        5
102
RTVSPost2010Prop44ColorRGB
 90
      255
102
RTVSPost2010PropOp44
 70
     1
102
RTVSPost2010Prop45
280
     0
102
RTVSPost2010PropOp45
 70
     1
102
RTVSPost2010Prop46
 90
       50
102
RTVSPost2010PropOp46
 70
     1
102
RTVSPost2010Prop47
 90
       50
102
RTVSPost2010PropOp47
 70
     1
102
RTVSPost2010Prop48
 90
       50
102
RTVSPost2010PropOp48
 70
     1
102
RTVSPost2010Prop49
280
     0
102
RTVSPost2010PropOp49
 70
     1
102
RTVSPost2010Prop50
 90
       50
102
RTVSPost2010PropOp50
 70
     1
102
RTVSPost2010Prop51ColorIndex
 90
      256
102
RTVSPost2010Prop51ColorRGB
 90
-16777216
102
RTVSPost2010PropOp51
 70
     0
102
RTVSPost2010Prop52
140
1.0
102
RTVSPost2010PropOp52
 70
     0
102
RTVSPost2010Prop53
 90
        2
102
RTVSPost2010PropOp53
 70
     1
102
RTVSPost2010Prop54
  1
strokes_ogs.tif
102
RTVSPost2010PropOp54
 70
     1
102
RTVSPost2010Prop55
280
     0
102
RTVSPost2010PropOp55
 70
     1
102
RTVSPost2010Prop56
140
1.0
102
RTVSPost2010PropOp56
 70
     1
102
RTVSPost2010Prop57
140
1.0
102
RTVSPost2010PropOp57
 70
     1
102
RTVSPropertyOp0
 70
     1
102
RTVSPropertyOp1
 70
     1
102
RTVSPropertyOp2
 70
     1
102
RTVSPropertyOp3
 70
     1
102
RTVSPropertyOp4
 70
     1
102
RTVSPropertyOp5
 70
     1
102
RTVSPropertyOp6
 70
     1
102
RTVSPropertyOp7
 70
     1
102
RTVSPropertyOp8
 70
     1
102
RTVSPropertyOp9
 70
     1
102
RTVSPropertyOp10
 70
     1
102
RTVSPropertyOp11
 70
     1
102
RTVSPropertyOp12
 70
     1
102
RTVSPropertyOp13
 70
     1
102
RTVSPropertyOp14
 70
     1
102
RTVSPropertyOp15
 70
     1
102
RTVSPropertyOp16
 70
     1
102
RTVSPropertyOp17
 70
     1
102
RTVSPropertyOp18
 70
     1
102
RTVSPropertyOp19
 70
     1
102
RTVSPropertyOp20
 70
     1
102
RTVSPropertyOp21
 70
     1
102
RTVSPropertyOp22
 70
     1
102
RTVSPropertyOp23
 70
     1
102
RTVSPropertyOp24
 70
     1
102
RTVSPropertyOp25
 70
     1
102
RTVSPropertyOp26
 70
     1
102
RTVSPropertyOp27
 70
     1
102
RTVSPropertyOp28
 70
     1
102
RTVSPropertyOp29
 70
     1
102
RTVSPropertyOp30
 70
     1
102
RTVSPropertyOp31
 70
     1
102
RTVSPropertyOp32
 70
     1
102
RTVSPropertyOp33
 70
     1
102
RTVSPropertyOp34
 70
     1
102
RTVSPropertyOp35
 70
     1
102
RTVSPropertyOp36
 70
     1
102
RTVSPropertyOp37
 70
     1
102
RTVSPropertyOp38
 70
     1
102
RTVSPropertyOp39
 70
     1
102
RTVSPropertyOp40
 70
     1
102
RTVSPropertyOp41
 70
     1
102
RTVSPropertyOp42
 70
     1
102
RTVSPropertyOp43
 70
     1
102
RTVSPropertyOp44
 70
     1
102
RTVSPropertyOp45
 70
     1
102
RTVSPropertyOp46
 70
     1
102
RTVSPropertyOp47
 70
     1
102
RTVSPropertyOp48
 70
     1
102
RTVSPropertyOp49
 70
     1
102
RTVSPropertyOp50
 70
     1
102
RTVSPropertyOp51
 70
     0
102
RTVSPropertyOp52
 70
     0
102
RTVSPropertyOp53
 70
     1
102
RTVSPropertyOp54
 70
     1
102
RTVSPropertyOp55
 70
     1
102
RTVSPropertyOp56
 70
     1
102
RTVSPropertyOp57
 70
     1
102
RTVSPropertyOp58
 70
     1
102
RTVSPropertyOp59
 70
     1
102
RTVSPropertyOp60
 70
     1
102
RTVSPropertyOp61
 70
     1
102
RTVSPropertyOp62
 70
     1
  0
XRECORD
  5
24F5
102
{ACAD_REACTORS
330
24F4
102
}
330
24F4
100
AcDbXrecord
280
     1
102
RTVSPost2010Prop28
280
     0
102
RTVSPost2010PropOp28
 70
     1
102
RTVSPost2010Prop29
280
     1
102
RTVSPost2010PropOp29
 70
     1
102
RTVSPost2010Prop30
280
     1
102
RTVSPost2010PropOp30
 70
     1
102
RTVSPost2010Prop31
280
     0
102
RTVSPost2010PropOp31
 70
     1
102
RTVSPost2010Prop32
280
     0
102
RTVSPost2010PropOp32
 70
     1
102
RTVSPost2010Prop33
280
     0
102
RTVSPost2010PropOp33
 70
     1
102
RTVSPost2010Prop34
280
     0
102
RTVSPost2010PropOp34
 70
     1
102
RTVSPost2010Prop35
280
     0
102
RTVSPost2010PropOp35
 70
     1
102
RTVSPost2010Prop36
280
     0
102
RTVSPost2010PropOp36
 70
     1
102
RTVSPost2010Prop37
 90
       50
102
RTVSPost2010PropOp37
 70
     0
102
RTVSPost2010Prop38
140
0.0
102
RTVSPost2010PropOp38
 70
     0
102
RTVSPost2010Prop39
140
1.0
102
RTVSPost2010PropOp39
 70
     0
102
RTVSPost2010Prop40
 90
        0
102
RTVSPost2010PropOp40
 70
     0
102
RTVSPost2010Prop41ColorIndex
 90
       18
102
RTVSPost2010Prop41ColorRGB
 90
        0
102
RTVSPost2010PropOp41
 70
     0
102
RTVSPost2010Prop42
 90
       50
102
RTVSPost2010PropOp42
 70
     0
102
RTVSPost2010Prop43
 90
        3
102
RTVSPost2010PropOp43
 70
     0
102
RTVSPost2010Prop44ColorIndex
 90
        5
102
RTVSPost2010Prop44ColorRGB
 90
      255
102
RTVSPost2010PropOp44
 70
     0
102
RTVSPost2010Prop45
280
     0
102
RTVSPost2010PropOp45
 70
     1
102
RTVSPost2010Prop46
 90
       50
102
RTVSPost2010PropOp46
 70
     0
102
RTVSPost2010Prop47
 90
       50
102
RTVSPost2010PropOp47
 70
     0
102
RTVSPost2010Prop48
 90
       50
102
RTVSPost2010PropOp48
 70
     0
102
RTVSPost2010Prop49
280
     0
102
RTVSPost2010PropOp49
 70
     1
102
RTVSPost2010Prop50
 90
       50
102
RTVSPost2010PropOp50
 70
     0
102
RTVSPost2010Prop51ColorIndex
 90
      256
102
RTVSPost2010Prop51ColorRGB
 90
-16777216
102
RTVSPost2010PropOp51
 70
     0
102
RTVSPost2010Prop52
140
1.0
102
RTVSPost2010PropOp52
 70
     0
102
RTVSPost2010Prop53
 90
        2
102
RTVSPost2010PropOp53
 70
     0
102
RTVSPost2010Prop54
  1
strokes_ogs.tif
102
RTVSPost2010PropOp54
 70
     0
102
RTVSPost2010Prop55
280
     0
102
RTVSPost2010PropOp55
 70
     1
102
RTVSPost2010Prop56
140
1.0
102
RTVSPost2010PropOp56
 70
     0
102
RTVSPost2010Prop57
140
1.0
102
RTVSPost2010PropOp57
 70
     0
102
RTVSPropertyOp0
 70
     0
102
RTVSPropertyOp1
 70
     0
102
RTVSPropertyOp2
 70
     0
102
RTVSPropertyOp3
 70
     0
102
RTVSPropertyOp4
 70
     0
102
RTVSPropertyOp5
 70
     0
102
RTVSPropertyOp6
 70
     0
102
RTVSPropertyOp7
 70
     0
102
RTVSPropertyOp8
 70
     0
102
RTVSPropertyOp9
 70
     0
102
RTVSPropertyOp10
 70
     0
102
RTVSPropertyOp11
 70
     0
102
RTVSPropertyOp12
 70
     0
102
RTVSPropertyOp13
 70
     0
102
RTVSPropertyOp14
 70
     2
102
RTVSPropertyOp15
 70
     0
102
RTVSPropertyOp16
 70
     0
102
RTVSPropertyOp17
 70
     0
102
RTVSPropertyOp18
 70
     0
102
RTVSPropertyOp19
 70
     0
102
RTVSPropertyOp20
 70
     0
102
RTVSPropertyOp21
 70
     0
102
RTVSPropertyOp22
 70
     0
102
RTVSPropertyOp23
 70
     0
102
RTVSPropertyOp24
 70
     0
102
RTVSPropertyOp25
 70
     0
102
RTVSPropertyOp26
 70
     0
102
RTVSPropertyOp27
 70
     0
102
RTVSPropertyOp28
 70
     1
102
RTVSPropertyOp29
 70
     1
102
RTVSPropertyOp30
 70
     1
102
RTVSPropertyOp31
 70
     1
102
RTVSPropertyOp32
 70
     1
102
RTVSPropertyOp33
 70
     1
102
RTVSPropertyOp34
 70
     1
102
RTVSPropertyOp35
 70
     1
102
RTVSPropertyOp36
 70
     1
102
RTVSPropertyOp37
 70
     0
102
RTVSPropertyOp38
 70
     0
102
RTVSPropertyOp39
 70
     0
102
RTVSPropertyOp40
 70
     0
102
RTVSPropertyOp41
 70
     0
102
RTVSPropertyOp42
 70
     0
102
RTVSPropertyOp43
 70
     0
102
RTVSPropertyOp44
 70
     0
102
RTVSPropertyOp45
 70
     1
102
RTVSPropertyOp46
 70
     0
102
RTVSPropertyOp47
 70
     0
102
RTVSPropertyOp48
 70
     0
102
RTVSPropertyOp49
 70
     1
102
RTVSPropertyOp50
 70
     0
102
RTVSPropertyOp51
 70
     0
102
RTVSPropertyOp52
 70
     0
102
RTVSPropertyOp53
 70
     0
102
RTVSPropertyOp54
 70
     0
102
RTVSPropertyOp55
 70
     1
102
RTVSPropertyOp56
 70
     0
102
RTVSPropertyOp57
 70
     0
102
RTVSPropertyOp58
 70
     0
102
RTVSPropertyOp59
 70
     0
102
RTVSPropertyOp60
 70
     0
102
RTVSPropertyOp61
 70
     0
102
RTVSPropertyOp62
 70
     0
  0
XRECORD
  5
24DB
102
{ACAD_REACTORS
330
24DA
102
}
330
24DA
100
AcDbXrecord
280
     1
102
RTVSPost2010Prop28
280
     0
102
RTVSPost2010PropOp28
 70
     1
102
RTVSPost2010Prop29
280
     1
102
RTVSPost2010PropOp29
 70
     1
102
RTVSPost2010Prop30
280
     1
102
RTVSPost2010PropOp30
 70
     1
102
RTVSPost2010Prop31
280
     0
102
RTVSPost2010PropOp31
 70
     1
102
RTVSPost2010Prop32
280
     0
102
RTVSPost2010PropOp32
 70
     1
102
RTVSPost2010Prop33
280
     0
102
RTVSPost2010PropOp33
 70
     1
102
RTVSPost2010Prop34
280
     0
102
RTVSPost2010PropOp34
 70
     1
102
RTVSPost2010Prop35
280
     0
102
RTVSPost2010PropOp35
 70
     1
102
RTVSPost2010Prop36
280
     0
102
RTVSPost2010PropOp36
 70
     1
102
RTVSPost2010Prop37
 90
       50
102
RTVSPost2010PropOp37
 70
     1
102
RTVSPost2010Prop38
140
0.0
102
RTVSPost2010PropOp38
 70
     1
102
RTVSPost2010Prop39
140
1.0
102
RTVSPost2010PropOp39
 70
     1
102
RTVSPost2010Prop40
 90
        0
102
RTVSPost2010PropOp40
 70
     1
102
RTVSPost2010Prop41ColorIndex
 90
       18
102
RTVSPost2010Prop41ColorRGB
 90
        0
102
RTVSPost2010PropOp41
 70
     1
102
RTVSPost2010Prop42
 90
       50
102
RTVSPost2010PropOp42
 70
     1
102
RTVSPost2010Prop43
 90
        3
102
RTVSPost2010PropOp43
 70
     1
102
RTVSPost2010Prop44ColorIndex
 90
        5
102
RTVSPost2010Prop44ColorRGB
 90
      255
102
RTVSPost2010PropOp44
 70
     1
102
RTVSPost2010Prop45
280
     0
102
RTVSPost2010PropOp45
 70
     1
102
RTVSPost2010Prop46
 90
       50
102
RTVSPost2010PropOp46
 70
     1
102
RTVSPost2010Prop47
 90
       50
102
RTVSPost2010PropOp47
 70
     1
102
RTVSPost2010Prop48
 90
       50
102
RTVSPost2010PropOp48
 70
     1
102
RTVSPost2010Prop49
280
     0
102
RTVSPost2010PropOp49
 70
     1
102
RTVSPost2010Prop50
 90
       50
102
RTVSPost2010PropOp50
 70
     1
102
RTVSPost2010Prop51ColorIndex
 90
      256
102
RTVSPost2010Prop51ColorRGB
 90
-16777216
102
RTVSPost2010PropOp51
 70
     0
102
RTVSPost2010Prop52
140
1.0
102
RTVSPost2010PropOp52
 70
     0
102
RTVSPost2010Prop53
 90
        2
102
RTVSPost2010PropOp53
 70
     1
102
RTVSPost2010Prop54
  1
strokes_ogs.tif
102
RTVSPost2010PropOp54
 70
     1
102
RTVSPost2010Prop55
280
     0
102
RTVSPost2010PropOp55
 70
     1
102
RTVSPost2010Prop56
140
1.0
102
RTVSPost2010PropOp56
 70
     1
102
RTVSPost2010Prop57
140
1.0
102
RTVSPost2010PropOp57
 70
     1
102
RTVSPropertyOp0
 70
     1
102
RTVSPropertyOp1
 70
     1
102
RTVSPropertyOp2
 70
     1
102
RTVSPropertyOp3
 70
     1
102
RTVSPropertyOp4
 70
     1
102
RTVSPropertyOp5
 70
     1
102
RTVSPropertyOp6
 70
     1
102
RTVSPropertyOp7
 70
     1
102
RTVSPropertyOp8
 70
     1
102
RTVSPropertyOp9
 70
     1
102
RTVSPropertyOp10
 70
     1
102
RTVSPropertyOp11
 70
     1
102
RTVSPropertyOp12
 70
     1
102
RTVSPropertyOp13
 70
     1
102
RTVSPropertyOp14
 70
     1
102
RTVSPropertyOp15
 70
     1
102
RTVSPropertyOp16
 70
     1
102
RTVSPropertyOp17
 70
     1
102
RTVSPropertyOp18
 70
     1
102
RTVSPropertyOp19
 70
     1
102
RTVSPropertyOp20
 70
     1
102
RTVSPropertyOp21
 70
     1
102
RTVSPropertyOp22
 70
     1
102
RTVSPropertyOp23
 70
     1
102
RTVSPropertyOp24
 70
     1
102
RTVSPropertyOp25
 70
     1
102
RTVSPropertyOp26
 70
     1
102
RTVSPropertyOp27
 70
     1
102
RTVSPropertyOp28
 70
     1
102
RTVSPropertyOp29
 70
     1
102
RTVSPropertyOp30
 70
     1
102
RTVSPropertyOp31
 70
     1
102
RTVSPropertyOp32
 70
     1
102
RTVSPropertyOp33
 70
     1
102
RTVSPropertyOp34
 70
     1
102
RTVSPropertyOp35
 70
     1
102
RTVSPropertyOp36
 70
     1
102
RTVSPropertyOp37
 70
     1
102
RTVSPropertyOp38
 70
     1
102
RTVSPropertyOp39
 70
     1
102
RTVSPropertyOp40
 70
     1
102
RTVSPropertyOp41
 70
     1
102
RTVSPropertyOp42
 70
     1
102
RTVSPropertyOp43
 70
     1
102
RTVSPropertyOp44
 70
     1
102
RTVSPropertyOp45
 70
     1
102
RTVSPropertyOp46
 70
     1
102
RTVSPropertyOp47
 70
     1
102
RTVSPropertyOp48
 70
     1
102
RTVSPropertyOp49
 70
     1
102
RTVSPropertyOp50
 70
     1
102
RTVSPropertyOp51
 70
     0
102
RTVSPropertyOp52
 70
     0
102
RTVSPropertyOp53
 70
     1
102
RTVSPropertyOp54
 70
     1
102
RTVSPropertyOp55
 70
     1
102
RTVSPropertyOp56
 70
     1
102
RTVSPropertyOp57
 70
     1
102
RTVSPropertyOp58
 70
     1
102
RTVSPropertyOp59
 70
     1
102
RTVSPropertyOp60
 70
     1
102
RTVSPropertyOp61
 70
     1
102
RTVSPropertyOp62
 70
     1
  0
XRECORD
  5
24F1
102
{ACAD_REACTORS
330
24F0
102
}
330
24F0
100
AcDbXrecord
280
     1
102
RTVSPost2010Prop28
280
     0
102
RTVSPost2010PropOp28
 70
     1
102
RTVSPost2010Prop29
280
     1
102
RTVSPost2010PropOp29
 70
     1
102
RTVSPost2010Prop30
280
     1
102
RTVSPost2010PropOp30
 70
     1
102
RTVSPost2010Prop31
280
     0
102
RTVSPost2010PropOp31
 70
     1
102
RTVSPost2010Prop32
280
     0
102
RTVSPost2010PropOp32
 70
     1
102
RTVSPost2010Prop33
280
     0
102
RTVSPost2010PropOp33
 70
     1
102
RTVSPost2010Prop34
280
     0
102
RTVSPost2010PropOp34
 70
     1
102
RTVSPost2010Prop35
280
     0
102
RTVSPost2010PropOp35
 70
     1
102
RTVSPost2010Prop36
280
     0
102
RTVSPost2010PropOp36
 70
     1
102
RTVSPost2010Prop37
 90
       50
102
RTVSPost2010PropOp37
 70
     1
102
RTVSPost2010Prop38
140
0.0
102
RTVSPost2010PropOp38
 70
     1
102
RTVSPost2010Prop39
140
1.0
102
RTVSPost2010PropOp39
 70
     1
102
RTVSPost2010Prop40
 90
        0
102
RTVSPost2010PropOp40
 70
     1
102
RTVSPost2010Prop41ColorIndex
 90
       18
102
RTVSPost2010Prop41ColorRGB
 90
        0
102
RTVSPost2010PropOp41
 70
     1
102
RTVSPost2010Prop42
 90
       50
102
RTVSPost2010PropOp42
 70
     1
102
RTVSPost2010Prop43
 90
        3
102
RTVSPost2010PropOp43
 70
     1
102
RTVSPost2010Prop44ColorIndex
 90
        5
102
RTVSPost2010Prop44ColorRGB
 90
      255
102
RTVSPost2010PropOp44
 70
     1
102
RTVSPost2010Prop45
280
     0
102
RTVSPost2010PropOp45
 70
     1
102
RTVSPost2010Prop46
 90
       50
102
RTVSPost2010PropOp46
 70
     1
102
RTVSPost2010Prop47
 90
       50
102
RTVSPost2010PropOp47
 70
     1
102
RTVSPost2010Prop48
 90
       50
102
RTVSPost2010PropOp48
 70
     1
102
RTVSPost2010Prop49
280
     0
102
RTVSPost2010PropOp49
 70
     1
102
RTVSPost2010Prop50
 90
       50
102
RTVSPost2010PropOp50
 70
     1
102
RTVSPost2010Prop51ColorIndex
 90
      256
102
RTVSPost2010Prop51ColorRGB
 90
-16777216
102
RTVSPost2010PropOp51
 70
     0
102
RTVSPost2010Prop52
140
1.0
102
RTVSPost2010PropOp52
 70
     0
102
RTVSPost2010Prop53
 90
        2
102
RTVSPost2010PropOp53
 70
     1
102
RTVSPost2010Prop54
  1
strokes_ogs.tif
102
RTVSPost2010PropOp54
 70
     1
102
RTVSPost2010Prop55
280
     0
102
RTVSPost2010PropOp55
 70
     1
102
RTVSPost2010Prop56
140
1.0
102
RTVSPost2010PropOp56
 70
     1
102
RTVSPost2010Prop57
140
1.0
102
RTVSPost2010PropOp57
 70
     1
102
RTVSPropertyOp0
 70
     1
102
RTVSPropertyOp1
 70
     1
102
RTVSPropertyOp2
 70
     1
102
RTVSPropertyOp3
 70
     1
102
RTVSPropertyOp4
 70
     1
102
RTVSPropertyOp5
 70
     1
102
RTVSPropertyOp6
 70
     1
102
RTVSPropertyOp7
 70
     1
102
RTVSPropertyOp8
 70
     1
102
RTVSPropertyOp9
 70
     1
102
RTVSPropertyOp10
 70
     1
102
RTVSPropertyOp11
 70
     1
102
RTVSPropertyOp12
 70
     1
102
RTVSPropertyOp13
 70
     1
102
RTVSPropertyOp14
 70
     1
102
RTVSPropertyOp15
 70
     1
102
RTVSPropertyOp16
 70
     1
102
RTVSPropertyOp17
 70
     1
102
RTVSPropertyOp18
 70
     1
102
RTVSPropertyOp19
 70
     1
102
RTVSPropertyOp20
 70
     1
102
RTVSPropertyOp21
 70
     1
102
RTVSPropertyOp22
 70
     1
102
RTVSPropertyOp23
 70
     1
102
RTVSPropertyOp24
 70
     1
102
RTVSPropertyOp25
 70
     1
102
RTVSPropertyOp26
 70
     1
102
RTVSPropertyOp27
 70
     1
102
RTVSPropertyOp28
 70
     1
102
RTVSPropertyOp29
 70
     1
102
RTVSPropertyOp30
 70
     1
102
RTVSPropertyOp31
 70
     1
102
RTVSPropertyOp32
 70
     1
102
RTVSPropertyOp33
 70
     1
102
RTVSPropertyOp34
 70
     1
102
RTVSPropertyOp35
 70
     1
102
RTVSPropertyOp36
 70
     1
102
RTVSPropertyOp37
 70
     1
102
RTVSPropertyOp38
 70
     1
102
RTVSPropertyOp39
 70
     1
102
RTVSPropertyOp40
 70
     1
102
RTVSPropertyOp41
 70
     1
102
RTVSPropertyOp42
 70
     1
102
RTVSPropertyOp43
 70
     1
102
RTVSPropertyOp44
 70
     1
102
RTVSPropertyOp45
 70
     1
102
RTVSPropertyOp46
 70
     1
102
RTVSPropertyOp47
 70
     1
102
RTVSPropertyOp48
 70
     1
102
RTVSPropertyOp49
 70
     1
102
RTVSPropertyOp50
 70
     1
102
RTVSPropertyOp51
 70
     0
102
RTVSPropertyOp52
 70
     0
102
RTVSPropertyOp53
 70
     1
102
RTVSPropertyOp54
 70
     1
102
RTVSPropertyOp55
 70
     1
102
RTVSPropertyOp56
 70
     1
102
RTVSPropertyOp57
 70
     1
102
RTVSPropertyOp58
 70
     1
102
RTVSPropertyOp59
 70
     1
102
RTVSPropertyOp60
 70
     1
102
RTVSPropertyOp61
 70
     1
102
RTVSPropertyOp62
 70
     1
  0
XRECORD
  5
24EF
102
{ACAD_REACTORS
330
24EE
102
}
330
24EE
100
AcDbXrecord
280
     1
102
RTVSPost2010Prop28
280
     0
102
RTVSPost2010PropOp28
 70
     1
102
RTVSPost2010Prop29
280
     1
102
RTVSPost2010PropOp29
 70
     1
102
RTVSPost2010Prop30
280
     1
102
RTVSPost2010PropOp30
 70
     1
102
RTVSPost2010Prop31
280
     0
102
RTVSPost2010PropOp31
 70
     1
102
RTVSPost2010Prop32
280
     0
102
RTVSPost2010PropOp32
 70
     1
102
RTVSPost2010Prop33
280
     0
102
RTVSPost2010PropOp33
 70
     1
102
RTVSPost2010Prop34
280
     0
102
RTVSPost2010PropOp34
 70
     1
102
RTVSPost2010Prop35
280
     0
102
RTVSPost2010PropOp35
 70
     1
102
RTVSPost2010Prop36
280
     0
102
RTVSPost2010PropOp36
 70
     1
102
RTVSPost2010Prop37
 90
       50
102
RTVSPost2010PropOp37
 70
     1
102
RTVSPost2010Prop38
140
0.0
102
RTVSPost2010PropOp38
 70
     1
102
RTVSPost2010Prop39
140
1.0
102
RTVSPost2010PropOp39
 70
     1
102
RTVSPost2010Prop40
 90
        0
102
RTVSPost2010PropOp40
 70
     1
102
RTVSPost2010Prop41ColorIndex
 90
       18
102
RTVSPost2010Prop41ColorRGB
 90
        0
102
RTVSPost2010PropOp41
 70
     1
102
RTVSPost2010Prop42
 90
       50
102
RTVSPost2010PropOp42
 70
     1
102
RTVSPost2010Prop43
 90
        3
102
RTVSPost2010PropOp43
 70
     1
102
RTVSPost2010Prop44ColorIndex
 90
        5
102
RTVSPost2010Prop44ColorRGB
 90
      255
102
RTVSPost2010PropOp44
 70
     1
102
RTVSPost2010Prop45
280
     0
102
RTVSPost2010PropOp45
 70
     1
102
RTVSPost2010Prop46
 90
       50
102
RTVSPost2010PropOp46
 70
     1
102
RTVSPost2010Prop47
 90
       50
102
RTVSPost2010PropOp47
 70
     1
102
RTVSPost2010Prop48
 90
       50
102
RTVSPost2010PropOp48
 70
     1
102
RTVSPost2010Prop49
280
     0
102
RTVSPost2010PropOp49
 70
     1
102
RTVSPost2010Prop50
 90
       50
102
RTVSPost2010PropOp50
 70
     1
102
RTVSPost2010Prop51ColorIndex
 90
      256
102
RTVSPost2010Prop51ColorRGB
 90
-16777216
102
RTVSPost2010PropOp51
 70
     0
102
RTVSPost2010Prop52
140
1.0
102
RTVSPost2010PropOp52
 70
     0
102
RTVSPost2010Prop53
 90
        2
102
RTVSPost2010PropOp53
 70
     1
102
RTVSPost2010Prop54
  1
strokes_ogs.tif
102
RTVSPost2010PropOp54
 70
     1
102
RTVSPost2010Prop55
280
     0
102
RTVSPost2010PropOp55
 70
     1
102
RTVSPost2010Prop56
140
1.0
102
RTVSPost2010PropOp56
 70
     1
102
RTVSPost2010Prop57
140
1.0
102
RTVSPost2010PropOp57
 70
     1
102
RTVSPropertyOp0
 70
     1
102
RTVSPropertyOp1
 70
     1
102
RTVSPropertyOp2
 70
     1
102
RTVSPropertyOp3
 70
     1
102
RTVSPropertyOp4
 70
     1
102
RTVSPropertyOp5
 70
     1
102
RTVSPropertyOp6
 70
     1
102
RTVSPropertyOp7
 70
     1
102
RTVSPropertyOp8
 70
     1
102
RTVSPropertyOp9
 70
     1
102
RTVSPropertyOp10
 70
     1
102
RTVSPropertyOp11
 70
     1
102
RTVSPropertyOp12
 70
     1
102
RTVSPropertyOp13
 70
     1
102
RTVSPropertyOp14
 70
     1
102
RTVSPropertyOp15
 70
     1
102
RTVSPropertyOp16
 70
     1
102
RTVSPropertyOp17
 70
     1
102
RTVSPropertyOp18
 70
     1
102
RTVSPropertyOp19
 70
     1
102
RTVSPropertyOp20
 70
     1
102
RTVSPropertyOp21
 70
     1
102
RTVSPropertyOp22
 70
     1
102
RTVSPropertyOp23
 70
     1
102
RTVSPropertyOp24
 70
     1
102
RTVSPropertyOp25
 70
     1
102
RTVSPropertyOp26
 70
     1
102
RTVSPropertyOp27
 70
     1
102
RTVSPropertyOp28
 70
     1
102
RTVSPropertyOp29
 70
     1
102
RTVSPropertyOp30
 70
     1
102
RTVSPropertyOp31
 70
     1
102
RTVSPropertyOp32
 70
     1
102
RTVSPropertyOp33
 70
     1
102
RTVSPropertyOp34
 70
     1
102
RTVSPropertyOp35
 70
     1
102
RTVSPropertyOp36
 70
     1
102
RTVSPropertyOp37
 70
     1
102
RTVSPropertyOp38
 70
     1
102
RTVSPropertyOp39
 70
     1
102
RTVSPropertyOp40
 70
     1
102
RTVSPropertyOp41
 70
     1
102
RTVSPropertyOp42
 70
     1
102
RTVSPropertyOp43
 70
     1
102
RTVSPropertyOp44
 70
     1
102
RTVSPropertyOp45
 70
     1
102
RTVSPropertyOp46
 70
     1
102
RTVSPropertyOp47
 70
     1
102
RTVSPropertyOp48
 70
     1
102
RTVSPropertyOp49
 70
     1
102
RTVSPropertyOp50
 70
     1
102
RTVSPropertyOp51
 70
     0
102
RTVSPropertyOp52
 70
     0
102
RTVSPropertyOp53
 70
     1
102
RTVSPropertyOp54
 70
     1
102
RTVSPropertyOp55
 70
     1
102
RTVSPropertyOp56
 70
     1
102
RTVSPropertyOp57
 70
     1
102
RTVSPropertyOp58
 70
     1
102
RTVSPropertyOp59
 70
     1
102
RTVSPropertyOp60
 70
     1
102
RTVSPropertyOp61
 70
     1
102
RTVSPropertyOp62
 70
     1
  0
XRECORD
  5
24E9
102
{ACAD_REACTORS
330
24E8
102
}
330
24E8
100
AcDbXrecord
280
     1
102
RTVSPost2010Prop28
280
     0
102
RTVSPost2010PropOp28
 70
     1
102
RTVSPost2010Prop29
280
     1
102
RTVSPost2010PropOp29
 70
     1
102
RTVSPost2010Prop30
280
     1
102
RTVSPost2010PropOp30
 70
     1
102
RTVSPost2010Prop31
280
     0
102
RTVSPost2010PropOp31
 70
     1
102
RTVSPost2010Prop32
280
     0
102
RTVSPost2010PropOp32
 70
     1
102
RTVSPost2010Prop33
280
     0
102
RTVSPost2010PropOp33
 70
     1
102
RTVSPost2010Prop34
280
     0
102
RTVSPost2010PropOp34
 70
     1
102
RTVSPost2010Prop35
280
     0
102
RTVSPost2010PropOp35
 70
     1
102
RTVSPost2010Prop36
280
     0
102
RTVSPost2010PropOp36
 70
     1
102
RTVSPost2010Prop37
 90
       50
102
RTVSPost2010PropOp37
 70
     1
102
RTVSPost2010Prop38
140
0.0
102
RTVSPost2010PropOp38
 70
     1
102
RTVSPost2010Prop39
140
1.0
102
RTVSPost2010PropOp39
 70
     1
102
RTVSPost2010Prop40
 90
        0
102
RTVSPost2010PropOp40
 70
     1
102
RTVSPost2010Prop41ColorIndex
 90
       18
102
RTVSPost2010Prop41ColorRGB
 90
        0
102
RTVSPost2010PropOp41
 70
     1
102
RTVSPost2010Prop42
 90
       50
102
RTVSPost2010PropOp42
 70
     1
102
RTVSPost2010Prop43
 90
        3
102
RTVSPost2010PropOp43
 70
     1
102
RTVSPost2010Prop44ColorIndex
 90
        5
102
RTVSPost2010Prop44ColorRGB
 90
      255
102
RTVSPost2010PropOp44
 70
     1
102
RTVSPost2010Prop45
280
     0
102
RTVSPost2010PropOp45
 70
     1
102
RTVSPost2010Prop46
 90
       50
102
RTVSPost2010PropOp46
 70
     1
102
RTVSPost2010Prop47
 90
       50
102
RTVSPost2010PropOp47
 70
     1
102
RTVSPost2010Prop48
 90
       50
102
RTVSPost2010PropOp48
 70
     1
102
RTVSPost2010Prop49
280
     0
102
RTVSPost2010PropOp49
 70
     1
102
RTVSPost2010Prop50
 90
       50
102
RTVSPost2010PropOp50
 70
     1
102
RTVSPost2010Prop51ColorIndex
 90
      256
102
RTVSPost2010Prop51ColorRGB
 90
-16777216
102
RTVSPost2010PropOp51
 70
     0
102
RTVSPost2010Prop52
140
1.0
102
RTVSPost2010PropOp52
 70
     0
102
RTVSPost2010Prop53
 90
        2
102
RTVSPost2010PropOp53
 70
     1
102
RTVSPost2010Prop54
  1
strokes_ogs.tif
102
RTVSPost2010PropOp54
 70
     1
102
RTVSPost2010Prop55
280
     0
102
RTVSPost2010PropOp55
 70
     1
102
RTVSPost2010Prop56
140
1.0
102
RTVSPost2010PropOp56
 70
     1
102
RTVSPost2010Prop57
140
1.0
102
RTVSPost2010PropOp57
 70
     1
102
RTVSPropertyOp0
 70
     1
102
RTVSPropertyOp1
 70
     1
102
RTVSPropertyOp2
 70
     1
102
RTVSPropertyOp3
 70
     1
102
RTVSPropertyOp4
 70
     1
102
RTVSPropertyOp5
 70
     1
102
RTVSPropertyOp6
 70
     1
102
RTVSPropertyOp7
 70
     1
102
RTVSPropertyOp8
 70
     1
102
RTVSPropertyOp9
 70
     1
102
RTVSPropertyOp10
 70
     1
102
RTVSPropertyOp11
 70
     1
102
RTVSPropertyOp12
 70
     1
102
RTVSPropertyOp13
 70
     1
102
RTVSPropertyOp14
 70
     1
102
RTVSPropertyOp15
 70
     1
102
RTVSPropertyOp16
 70
     1
102
RTVSPropertyOp17
 70
     1
102
RTVSPropertyOp18
 70
     1
102
RTVSPropertyOp19
 70
     1
102
RTVSPropertyOp20
 70
     1
102
RTVSPropertyOp21
 70
     1
102
RTVSPropertyOp22
 70
     1
102
RTVSPropertyOp23
 70
     1
102
RTVSPropertyOp24
 70
     1
102
RTVSPropertyOp25
 70
     1
102
RTVSPropertyOp26
 70
     1
102
RTVSPropertyOp27
 70
     1
102
RTVSPropertyOp28
 70
     1
102
RTVSPropertyOp29
 70
     1
102
RTVSPropertyOp30
 70
     1
102
RTVSPropertyOp31
 70
     1
102
RTVSPropertyOp32
 70
     1
102
RTVSPropertyOp33
 70
     1
102
RTVSPropertyOp34
 70
     1
102
RTVSPropertyOp35
 70
     1
102
RTVSPropertyOp36
 70
     1
102
RTVSPropertyOp37
 70
     1
102
RTVSPropertyOp38
 70
     1
102
RTVSPropertyOp39
 70
     1
102
RTVSPropertyOp40
 70
     1
102
RTVSPropertyOp41
 70
     1
102
RTVSPropertyOp42
 70
     1
102
RTVSPropertyOp43
 70
     1
102
RTVSPropertyOp44
 70
     1
102
RTVSPropertyOp45
 70
     1
102
RTVSPropertyOp46
 70
     1
102
RTVSPropertyOp47
 70
     1
102
RTVSPropertyOp48
 70
     1
102
RTVSPropertyOp49
 70
     1
102
RTVSPropertyOp50
 70
     1
102
RTVSPropertyOp51
 70
     0
102
RTVSPropertyOp52
 70
     0
102
RTVSPropertyOp53
 70
     1
102
RTVSPropertyOp54
 70
     1
102
RTVSPropertyOp55
 70
     1
102
RTVSPropertyOp56
 70
     1
102
RTVSPropertyOp57
 70
     1
102
RTVSPropertyOp58
 70
     1
102
RTVSPropertyOp59
 70
     1
102
RTVSPropertyOp60
 70
     1
102
RTVSPropertyOp61
 70
     1
102
RTVSPropertyOp62
 70
     1
  0
XRECORD
  5
24EB
102
{ACAD_REACTORS
330
24EA
102
}
330
24EA
100
AcDbXrecord
280
     1
102
RTVSPost2010Prop28
280
     0
102
RTVSPost2010PropOp28
 70
     1
102
RTVSPost2010Prop29
280
     1
102
RTVSPost2010PropOp29
 70
     1
102
RTVSPost2010Prop30
280
     1
102
RTVSPost2010PropOp30
 70
     1
102
RTVSPost2010Prop31
280
     0
102
RTVSPost2010PropOp31
 70
     1
102
RTVSPost2010Prop32
280
     0
102
RTVSPost2010PropOp32
 70
     1
102
RTVSPost2010Prop33
280
     0
102
RTVSPost2010PropOp33
 70
     1
102
RTVSPost2010Prop34
280
     0
102
RTVSPost2010PropOp34
 70
     1
102
RTVSPost2010Prop35
280
     0
102
RTVSPost2010PropOp35
 70
     1
102
RTVSPost2010Prop36
280
     0
102
RTVSPost2010PropOp36
 70
     1
102
RTVSPost2010Prop37
 90
       50
102
RTVSPost2010PropOp37
 70
     1
102
RTVSPost2010Prop38
140
0.0
102
RTVSPost2010PropOp38
 70
     1
102
RTVSPost2010Prop39
140
1.0
102
RTVSPost2010PropOp39
 70
     1
102
RTVSPost2010Prop40
 90
        0
102
RTVSPost2010PropOp40
 70
     1
102
RTVSPost2010Prop41ColorIndex
 90
       18
102
RTVSPost2010Prop41ColorRGB
 90
        0
102
RTVSPost2010PropOp41
 70
     1
102
RTVSPost2010Prop42
 90
       50
102
RTVSPost2010PropOp42
 70
     1
102
RTVSPost2010Prop43
 90
        3
102
RTVSPost2010PropOp43
 70
     1
102
RTVSPost2010Prop44ColorIndex
 90
        5
102
RTVSPost2010Prop44ColorRGB
 90
      255
102
RTVSPost2010PropOp44
 70
     1
102
RTVSPost2010Prop45
280
     0
102
RTVSPost2010PropOp45
 70
     1
102
RTVSPost2010Prop46
 90
       50
102
RTVSPost2010PropOp46
 70
     1
102
RTVSPost2010Prop47
 90
       50
102
RTVSPost2010PropOp47
 70
     1
102
RTVSPost2010Prop48
 90
       50
102
RTVSPost2010PropOp48
 70
     1
102
RTVSPost2010Prop49
280
     0
102
RTVSPost2010PropOp49
 70
     1
102
RTVSPost2010Prop50
 90
       50
102
RTVSPost2010PropOp50
 70
     1
102
RTVSPost2010Prop51ColorIndex
 90
      256
102
RTVSPost2010Prop51ColorRGB
 90
-16777216
102
RTVSPost2010PropOp51
 70
     0
102
RTVSPost2010Prop52
140
1.0
102
RTVSPost2010PropOp52
 70
     0
102
RTVSPost2010Prop53
 90
        2
102
RTVSPost2010PropOp53
 70
     1
102
RTVSPost2010Prop54
  1
strokes_ogs.tif
102
RTVSPost2010PropOp54
 70
     1
102
RTVSPost2010Prop55
280
     0
102
RTVSPost2010PropOp55
 70
     1
102
RTVSPost2010Prop56
140
1.0
102
RTVSPost2010PropOp56
 70
     1
102
RTVSPost2010Prop57
140
1.0
102
RTVSPost2010PropOp57
 70
     1
102
RTVSPropertyOp0
 70
     1
102
RTVSPropertyOp1
 70
     1
102
RTVSPropertyOp2
 70
     1
102
RTVSPropertyOp3
 70
     1
102
RTVSPropertyOp4
 70
     1
102
RTVSPropertyOp5
 70
     1
102
RTVSPropertyOp6
 70
     1
102
RTVSPropertyOp7
 70
     1
102
RTVSPropertyOp8
 70
     1
102
RTVSPropertyOp9
 70
     1
102
RTVSPropertyOp10
 70
     1
102
RTVSPropertyOp11
 70
     1
102
RTVSPropertyOp12
 70
     1
102
RTVSPropertyOp13
 70
     1
102
RTVSPropertyOp14
 70
     1
102
RTVSPropertyOp15
 70
     1
102
RTVSPropertyOp16
 70
     1
102
RTVSPropertyOp17
 70
     1
102
RTVSPropertyOp18
 70
     1
102
RTVSPropertyOp19
 70
     1
102
RTVSPropertyOp20
 70
     1
102
RTVSPropertyOp21
 70
     1
102
RTVSPropertyOp22
 70
     1
102
RTVSPropertyOp23
 70
     1
102
RTVSPropertyOp24
 70
     1
102
RTVSPropertyOp25
 70
     1
102
RTVSPropertyOp26
 70
     1
102
RTVSPropertyOp27
 70
     1
102
RTVSPropertyOp28
 70
     1
102
RTVSPropertyOp29
 70
     1
102
RTVSPropertyOp30
 70
     1
102
RTVSPropertyOp31
 70
     1
102
RTVSPropertyOp32
 70
     1
102
RTVSPropertyOp33
 70
     1
102
RTVSPropertyOp34
 70
     1
102
RTVSPropertyOp35
 70
     1
102
RTVSPropertyOp36
 70
     1
102
RTVSPropertyOp37
 70
     1
102
RTVSPropertyOp38
 70
     1
102
RTVSPropertyOp39
 70
     1
102
RTVSPropertyOp40
 70
     1
102
RTVSPropertyOp41
 70
     1
102
RTVSPropertyOp42
 70
     1
102
RTVSPropertyOp43
 70
     1
102
RTVSPropertyOp44
 70
     1
102
RTVSPropertyOp45
 70
     1
102
RTVSPropertyOp46
 70
     1
102
RTVSPropertyOp47
 70
     1
102
RTVSPropertyOp48
 70
     1
102
RTVSPropertyOp49
 70
     1
102
RTVSPropertyOp50
 70
     1
102
RTVSPropertyOp51
 70
     0
102
RTVSPropertyOp52
 70
     0
102
RTVSPropertyOp53
 70
     1
102
RTVSPropertyOp54
 70
     1
102
RTVSPropertyOp55
 70
     1
102
RTVSPropertyOp56
 70
     1
102
RTVSPropertyOp57
 70
     1
102
RTVSPropertyOp58
 70
     1
102
RTVSPropertyOp59
 70
     1
102
RTVSPropertyOp60
 70
     1
102
RTVSPropertyOp61
 70
     1
102
RTVSPropertyOp62
 70
     1
  0
XRECORD
  5
24E1
102
{ACAD_REACTORS
330
24E0
102
}
330
24E0
100
AcDbXrecord
280
     1
102
RTVSPost2010Prop28
280
     0
102
RTVSPost2010PropOp28
 70
     1
102
RTVSPost2010Prop29
280
     1
102
RTVSPost2010PropOp29
 70
     1
102
RTVSPost2010Prop30
280
     1
102
RTVSPost2010PropOp30
 70
     1
102
RTVSPost2010Prop31
280
     0
102
RTVSPost2010PropOp31
 70
     1
102
RTVSPost2010Prop32
280
     0
102
RTVSPost2010PropOp32
 70
     1
102
RTVSPost2010Prop33
280
     0
102
RTVSPost2010PropOp33
 70
     1
102
RTVSPost2010Prop34
280
     0
102
RTVSPost2010PropOp34
 70
     1
102
RTVSPost2010Prop35
280
     0
102
RTVSPost2010PropOp35
 70
     1
102
RTVSPost2010Prop36
280
     0
102
RTVSPost2010PropOp36
 70
     1
102
RTVSPost2010Prop37
 90
       50
102
RTVSPost2010PropOp37
 70
     1
102
RTVSPost2010Prop38
140
0.0
102
RTVSPost2010PropOp38
 70
     1
102
RTVSPost2010Prop39
140
1.0
102
RTVSPost2010PropOp39
 70
     1
102
RTVSPost2010Prop40
 90
        0
102
RTVSPost2010PropOp40
 70
     1
102
RTVSPost2010Prop41ColorIndex
 90
       18
102
RTVSPost2010Prop41ColorRGB
 90
        0
102
RTVSPost2010PropOp41
 70
     1
102
RTVSPost2010Prop42
 90
       50
102
RTVSPost2010PropOp42
 70
     1
102
RTVSPost2010Prop43
 90
        3
102
RTVSPost2010PropOp43
 70
     1
102
RTVSPost2010Prop44ColorIndex
 90
        5
102
RTVSPost2010Prop44ColorRGB
 90
      255
102
RTVSPost2010PropOp44
 70
     1
102
RTVSPost2010Prop45
280
     0
102
RTVSPost2010PropOp45
 70
     1
102
RTVSPost2010Prop46
 90
       50
102
RTVSPost2010PropOp46
 70
     1
102
RTVSPost2010Prop47
 90
       50
102
RTVSPost2010PropOp47
 70
     1
102
RTVSPost2010Prop48
 90
       50
102
RTVSPost2010PropOp48
 70
     1
102
RTVSPost2010Prop49
280
     0
102
RTVSPost2010PropOp49
 70
     1
102
RTVSPost2010Prop50
 90
       50
102
RTVSPost2010PropOp50
 70
     1
102
RTVSPost2010Prop51ColorIndex
 90
      256
102
RTVSPost2010Prop51ColorRGB
 90
-16777216
102
RTVSPost2010PropOp51
 70
     0
102
RTVSPost2010Prop52
140
1.0
102
RTVSPost2010PropOp52
 70
     0
102
RTVSPost2010Prop53
 90
        2
102
RTVSPost2010PropOp53
 70
     1
102
RTVSPost2010Prop54
  1
strokes_ogs.tif
102
RTVSPost2010PropOp54
 70
     1
102
RTVSPost2010Prop55
280
     0
102
RTVSPost2010PropOp55
 70
     1
102
RTVSPost2010Prop56
140
1.0
102
RTVSPost2010PropOp56
 70
     1
102
RTVSPost2010Prop57
140
1.0
102
RTVSPost2010PropOp57
 70
     1
102
RTVSPropertyOp0
 70
     1
102
RTVSPropertyOp1
 70
     1
102
RTVSPropertyOp2
 70
     1
102
RTVSPropertyOp3
 70
     1
102
RTVSPropertyOp4
 70
     1
102
RTVSPropertyOp5
 70
     1
102
RTVSPropertyOp6
 70
     1
102
RTVSPropertyOp7
 70
     1
102
RTVSPropertyOp8
 70
     1
102
RTVSPropertyOp9
 70
     1
102
RTVSPropertyOp10
 70
     1
102
RTVSPropertyOp11
 70
     1
102
RTVSPropertyOp12
 70
     1
102
RTVSPropertyOp13
 70
     1
102
RTVSPropertyOp14
 70
     1
102
RTVSPropertyOp15
 70
     1
102
RTVSPropertyOp16
 70
     1
102
RTVSPropertyOp17
 70
     1
102
RTVSPropertyOp18
 70
     1
102
RTVSPropertyOp19
 70
     1
102
RTVSPropertyOp20
 70
     1
102
RTVSPropertyOp21
 70
     1
102
RTVSPropertyOp22
 70
     1
102
RTVSPropertyOp23
 70
     1
102
RTVSPropertyOp24
 70
     1
102
RTVSPropertyOp25
 70
     1
102
RTVSPropertyOp26
 70
     1
102
RTVSPropertyOp27
 70
     1
102
RTVSPropertyOp28
 70
     1
102
RTVSPropertyOp29
 70
     1
102
RTVSPropertyOp30
 70
     1
102
RTVSPropertyOp31
 70
     1
102
RTVSPropertyOp32
 70
     1
102
RTVSPropertyOp33
 70
     1
102
RTVSPropertyOp34
 70
     1
102
RTVSPropertyOp35
 70
     1
102
RTVSPropertyOp36
 70
     1
102
RTVSPropertyOp37
 70
     1
102
RTVSPropertyOp38
 70
     1
102
RTVSPropertyOp39
 70
     1
102
RTVSPropertyOp40
 70
     1
102
RTVSPropertyOp41
 70
     1
102
RTVSPropertyOp42
 70
     1
102
RTVSPropertyOp43
 70
     1
102
RTVSPropertyOp44
 70
     1
102
RTVSPropertyOp45
 70
     1
102
RTVSPropertyOp46
 70
     1
102
RTVSPropertyOp47
 70
     1
102
RTVSPropertyOp48
 70
     1
102
RTVSPropertyOp49
 70
     1
102
RTVSPropertyOp50
 70
     1
102
RTVSPropertyOp51
 70
     0
102
RTVSPropertyOp52
 70
     0
102
RTVSPropertyOp53
 70
     1
102
RTVSPropertyOp54
 70
     1
102
RTVSPropertyOp55
 70
     1
102
RTVSPropertyOp56
 70
     1
102
RTVSPropertyOp57
 70
     1
102
RTVSPropertyOp58
 70
     1
102
RTVSPropertyOp59
 70
     1
102
RTVSPropertyOp60
 70
     1
102
RTVSPropertyOp61
 70
     1
102
RTVSPropertyOp62
 70
     1
  0
XRECORD
  5
24D5
102
{ACAD_REACTORS
330
24D4
102
}
330
24D4
100
AcDbXrecord
280
     1
102
RTVSPost2010Prop28
280
     0
102
RTVSPost2010PropOp28
 70
     1
102
RTVSPost2010Prop29
280
     1
102
RTVSPost2010PropOp29
 70
     1
102
RTVSPost2010Prop30
280
     1
102
RTVSPost2010PropOp30
 70
     1
102
RTVSPost2010Prop31
280
     0
102
RTVSPost2010PropOp31
 70
     1
102
RTVSPost2010Prop32
280
     0
102
RTVSPost2010PropOp32
 70
     1
102
RTVSPost2010Prop33
280
     0
102
RTVSPost2010PropOp33
 70
     1
102
RTVSPost2010Prop34
280
     0
102
RTVSPost2010PropOp34
 70
     1
102
RTVSPost2010Prop35
280
     0
102
RTVSPost2010PropOp35
 70
     1
102
RTVSPost2010Prop36
280
     0
102
RTVSPost2010PropOp36
 70
     1
102
RTVSPost2010Prop37
 90
       50
102
RTVSPost2010PropOp37
 70
     1
102
RTVSPost2010Prop38
140
0.0
102
RTVSPost2010PropOp38
 70
     1
102
RTVSPost2010Prop39
140
1.0
102
RTVSPost2010PropOp39
 70
     1
102
RTVSPost2010Prop40
 90
        0
102
RTVSPost2010PropOp40
 70
     1
102
RTVSPost2010Prop41ColorIndex
 90
       18
102
RTVSPost2010Prop41ColorRGB
 90
        0
102
RTVSPost2010PropOp41
 70
     1
102
RTVSPost2010Prop42
 90
       50
102
RTVSPost2010PropOp42
 70
     1
102
RTVSPost2010Prop43
 90
        3
102
RTVSPost2010PropOp43
 70
     1
102
RTVSPost2010Prop44ColorIndex
 90
        5
102
RTVSPost2010Prop44ColorRGB
 90
      255
102
RTVSPost2010PropOp44
 70
     1
102
RTVSPost2010Prop45
280
     0
102
RTVSPost2010PropOp45
 70
     1
102
RTVSPost2010Prop46
 90
       50
102
RTVSPost2010PropOp46
 70
     1
102
RTVSPost2010Prop47
 90
       50
102
RTVSPost2010PropOp47
 70
     1
102
RTVSPost2010Prop48
 90
       50
102
RTVSPost2010PropOp48
 70
     1
102
RTVSPost2010Prop49
280
     0
102
RTVSPost2010PropOp49
 70
     1
102
RTVSPost2010Prop50
 90
       50
102
RTVSPost2010PropOp50
 70
     1
102
RTVSPost2010Prop51ColorIndex
 90
      256
102
RTVSPost2010Prop51ColorRGB
 90
-16777216
102
RTVSPost2010PropOp51
 70
     0
102
RTVSPost2010Prop52
140
1.0
102
RTVSPost2010PropOp52
 70
     0
102
RTVSPost2010Prop53
 90
        2
102
RTVSPost2010PropOp53
 70
     1
102
RTVSPost2010Prop54
  1
strokes_ogs.tif
102
RTVSPost2010PropOp54
 70
     1
102
RTVSPost2010Prop55
280
     0
102
RTVSPost2010PropOp55
 70
     1
102
RTVSPost2010Prop56
140
1.0
102
RTVSPost2010PropOp56
 70
     1
102
RTVSPost2010Prop57
140
1.0
102
RTVSPost2010PropOp57
 70
     1
102
RTVSPropertyOp0
 70
     1
102
RTVSPropertyOp1
 70
     1
102
RTVSPropertyOp2
 70
     1
102
RTVSPropertyOp3
 70
     1
102
RTVSPropertyOp4
 70
     1
102
RTVSPropertyOp5
 70
     1
102
RTVSPropertyOp6
 70
     1
102
RTVSPropertyOp7
 70
     1
102
RTVSPropertyOp8
 70
     1
102
RTVSPropertyOp9
 70
     1
102
RTVSPropertyOp10
 70
     1
102
RTVSPropertyOp11
 70
     1
102
RTVSPropertyOp12
 70
     1
102
RTVSPropertyOp13
 70
     1
102
RTVSPropertyOp14
 70
     1
102
RTVSPropertyOp15
 70
     1
102
RTVSPropertyOp16
 70
     1
102
RTVSPropertyOp17
 70
     1
102
RTVSPropertyOp18
 70
     1
102
RTVSPropertyOp19
 70
     1
102
RTVSPropertyOp20
 70
     1
102
RTVSPropertyOp21
 70
     1
102
RTVSPropertyOp22
 70
     1
102
RTVSPropertyOp23
 70
     1
102
RTVSPropertyOp24
 70
     1
102
RTVSPropertyOp25
 70
     1
102
RTVSPropertyOp26
 70
     1
102
RTVSPropertyOp27
 70
     1
102
RTVSPropertyOp28
 70
     1
102
RTVSPropertyOp29
 70
     1
102
RTVSPropertyOp30
 70
     1
102
RTVSPropertyOp31
 70
     1
102
RTVSPropertyOp32
 70
     1
102
RTVSPropertyOp33
 70
     1
102
RTVSPropertyOp34
 70
     1
102
RTVSPropertyOp35
 70
     1
102
RTVSPropertyOp36
 70
     1
102
RTVSPropertyOp37
 70
     1
102
RTVSPropertyOp38
 70
     1
102
RTVSPropertyOp39
 70
     1
102
RTVSPropertyOp40
 70
     1
102
RTVSPropertyOp41
 70
     1
102
RTVSPropertyOp42
 70
     1
102
RTVSPropertyOp43
 70
     1
102
RTVSPropertyOp44
 70
     1
102
RTVSPropertyOp45
 70
     1
102
RTVSPropertyOp46
 70
     1
102
RTVSPropertyOp47
 70
     1
102
RTVSPropertyOp48
 70
     1
102
RTVSPropertyOp49
 70
     1
102
RTVSPropertyOp50
 70
     1
102
RTVSPropertyOp51
 70
     0
102
RTVSPropertyOp52
 70
     0
102
RTVSPropertyOp53
 70
     1
102
RTVSPropertyOp54
 70
     1
102
RTVSPropertyOp55
 70
     1
102
RTVSPropertyOp56
 70
     1
102
RTVSPropertyOp57
 70
     1
102
RTVSPropertyOp58
 70
     1
102
RTVSPropertyOp59
 70
     1
102
RTVSPropertyOp60
 70
     1
102
RTVSPropertyOp61
 70
     1
102
RTVSPropertyOp62
 70
     1
  0
XRECORD
  5
24ED
102
{ACAD_REACTORS
330
24EC
102
}
330
24EC
100
AcDbXrecord
280
     1
102
RTVSPost2010Prop28
280
     0
102
RTVSPost2010PropOp28
 70
     1
102
RTVSPost2010Prop29
280
     1
102
RTVSPost2010PropOp29
 70
     1
102
RTVSPost2010Prop30
280
     1
102
RTVSPost2010PropOp30
 70
     1
102
RTVSPost2010Prop31
280
     0
102
RTVSPost2010PropOp31
 70
     1
102
RTVSPost2010Prop32
280
     0
102
RTVSPost2010PropOp32
 70
     1
102
RTVSPost2010Prop33
280
     0
102
RTVSPost2010PropOp33
 70
     1
102
RTVSPost2010Prop34
280
     0
102
RTVSPost2010PropOp34
 70
     1
102
RTVSPost2010Prop35
280
     0
102
RTVSPost2010PropOp35
 70
     1
102
RTVSPost2010Prop36
280
     0
102
RTVSPost2010PropOp36
 70
     1
102
RTVSPost2010Prop37
 90
       50
102
RTVSPost2010PropOp37
 70
     1
102
RTVSPost2010Prop38
140
0.0
102
RTVSPost2010PropOp38
 70
     1
102
RTVSPost2010Prop39
140
1.0
102
RTVSPost2010PropOp39
 70
     1
102
RTVSPost2010Prop40
 90
        0
102
RTVSPost2010PropOp40
 70
     1
102
RTVSPost2010Prop41ColorIndex
 90
       18
102
RTVSPost2010Prop41ColorRGB
 90
        0
102
RTVSPost2010PropOp41
 70
     1
102
RTVSPost2010Prop42
 90
       50
102
RTVSPost2010PropOp42
 70
     1
102
RTVSPost2010Prop43
 90
        3
102
RTVSPost2010PropOp43
 70
     1
102
RTVSPost2010Prop44ColorIndex
 90
        5
102
RTVSPost2010Prop44ColorRGB
 90
      255
102
RTVSPost2010PropOp44
 70
     1
102
RTVSPost2010Prop45
280
     0
102
RTVSPost2010PropOp45
 70
     1
102
RTVSPost2010Prop46
 90
       50
102
RTVSPost2010PropOp46
 70
     1
102
RTVSPost2010Prop47
 90
       50
102
RTVSPost2010PropOp47
 70
     1
102
RTVSPost2010Prop48
 90
       50
102
RTVSPost2010PropOp48
 70
     1
102
RTVSPost2010Prop49
280
     0
102
RTVSPost2010PropOp49
 70
     1
102
RTVSPost2010Prop50
 90
       50
102
RTVSPost2010PropOp50
 70
     1
102
RTVSPost2010Prop51ColorIndex
 90
      256
102
RTVSPost2010Prop51ColorRGB
 90
-16777216
102
RTVSPost2010PropOp51
 70
     0
102
RTVSPost2010Prop52
140
1.0
102
RTVSPost2010PropOp52
 70
     0
102
RTVSPost2010Prop53
 90
        2
102
RTVSPost2010PropOp53
 70
     1
102
RTVSPost2010Prop54
  1
strokes_ogs.tif
102
RTVSPost2010PropOp54
 70
     1
102
RTVSPost2010Prop55
280
     0
102
RTVSPost2010PropOp55
 70
     1
102
RTVSPost2010Prop56
140
1.0
102
RTVSPost2010PropOp56
 70
     1
102
RTVSPost2010Prop57
140
1.0
102
RTVSPost2010PropOp57
 70
     1
102
RTVSPropertyOp0
 70
     1
102
RTVSPropertyOp1
 70
     1
102
RTVSPropertyOp2
 70
     1
102
RTVSPropertyOp3
 70
     1
102
RTVSPropertyOp4
 70
     1
102
RTVSPropertyOp5
 70
     1
102
RTVSPropertyOp6
 70
     1
102
RTVSPropertyOp7
 70
     1
102
RTVSPropertyOp8
 70
     1
102
RTVSPropertyOp9
 70
     1
102
RTVSPropertyOp10
 70
     1
102
RTVSPropertyOp11
 70
     1
102
RTVSPropertyOp12
 70
     1
102
RTVSPropertyOp13
 70
     1
102
RTVSPropertyOp14
 70
     1
102
RTVSPropertyOp15
 70
     1
102
RTVSPropertyOp16
 70
     1
102
RTVSPropertyOp17
 70
     1
102
RTVSPropertyOp18
 70
     1
102
RTVSPropertyOp19
 70
     1
102
RTVSPropertyOp20
 70
     1
102
RTVSPropertyOp21
 70
     1
102
RTVSPropertyOp22
 70
     1
102
RTVSPropertyOp23
 70
     1
102
RTVSPropertyOp24
 70
     1
102
RTVSPropertyOp25
 70
     1
102
RTVSPropertyOp26
 70
     1
102
RTVSPropertyOp27
 70
     1
102
RTVSPropertyOp28
 70
     1
102
RTVSPropertyOp29
 70
     1
102
RTVSPropertyOp30
 70
     1
102
RTVSPropertyOp31
 70
     1
102
RTVSPropertyOp32
 70
     1
102
RTVSPropertyOp33
 70
     1
102
RTVSPropertyOp34
 70
     1
102
RTVSPropertyOp35
 70
     1
102
RTVSPropertyOp36
 70
     1
102
RTVSPropertyOp37
 70
     1
102
RTVSPropertyOp38
 70
     1
102
RTVSPropertyOp39
 70
     1
102
RTVSPropertyOp40
 70
     1
102
RTVSPropertyOp41
 70
     1
102
RTVSPropertyOp42
 70
     1
102
RTVSPropertyOp43
 70
     1
102
RTVSPropertyOp44
 70
     1
102
RTVSPropertyOp45
 70
     1
102
RTVSPropertyOp46
 70
     1
102
RTVSPropertyOp47
 70
     1
102
RTVSPropertyOp48
 70
     1
102
RTVSPropertyOp49
 70
     1
102
RTVSPropertyOp50
 70
     1
102
RTVSPropertyOp51
 70
     0
102
RTVSPropertyOp52
 70
     0
102
RTVSPropertyOp53
 70
     1
102
RTVSPropertyOp54
 70
     1
102
RTVSPropertyOp55
 70
     1
102
RTVSPropertyOp56
 70
     1
102
RTVSPropertyOp57
 70
     1
102
RTVSPropertyOp58
 70
     1
102
RTVSPropertyOp59
 70
     1
102
RTVSPropertyOp60
 70
     1
102
RTVSPropertyOp61
 70
     1
102
RTVSPropertyOp62
 70
     1
  0
ENDSEC
  0
EOF
