  0
SECTION
  2
HEADER
  9
$ACADVER
  1
AC1012
  9
$DWGCODEPAGE
  3
dos932
  9
$INSBASE
 10
0.0
 20
0.0
 30
0.0
  9
$EXTMIN
 10
15.0
 20
0.0
 30
0.0
  9
$EXTMAX
 10
1995.0
 20
1420.0
 30
0.0
  9
$LIMMIN
 10
0.0
 20
0.0
  9
$LIMMAX
 10
2100.0
 20
1485.0
  9
$ORTHOMODE
 70
     1
  9
$REGENMODE
 70
     1
  9
$FILLMODE
 70
     1
  9
$QTEXTMODE
 70
     0
  9
$MIRRTEXT
 70
     0
  9
$DRAGMODE
 70
     2
  9
$LTSCALE
 40
40.0
  9
$OSMODE
 70
    37
  9
$ATTMODE
 70
     1
  9
$TEXTSIZE
 40
15.0
  9
$TRACEWID
 40
0.05
  9
$TEXTSTYLE
  7
STANDARD
  9
$CLAYER
  8
0
  9
$CELTYPE
  6
BYLAYER
  9
$CECOLOR
 62
   256
  9
$CELTSCALE
 40
1.0
  9
$DELOBJ
 70
     1
  9
$DISPSILH
 70
     0
  9
$DIMSCALE
 40
5.0
  9
$DIMASZ
 40
2.0
  9
$DIMEXO
 40
0.1
  9
$DIMDLI
 40
7.0
  9
$DIMRND
 40
0.0
  9
$DIMDLE
 40
0.0
  9
$DIMEXE
 40
1.8
  9
$DIMTP
 40
0.0
  9
$DIMTM
 40
0.0
  9
$DIMTXT
 40
3.0
  9
$DIMCEN
 40
0.1
  9
$DIMTSZ
 40
0.0
  9
$DIMTOL
 70
     0
  9
$DIMLIM
 70
     0
  9
$DIMTIH
 70
     0
  9
$DIMTOH
 70
     0
  9
$DIMSE1
 70
     0
  9
$DIMSE2
 70
     0
  9
$DIMTAD
 70
     0
  9
$DIMZIN
 70
     9
  9
$DIMBLK
  1
YAZ1
  9
$DIMASO
 70
     1
  9
$DIMSHO
 70
     1
  9
$DIMPOST
  1

  9
$DIMAPOST
  1

  9
$DIMALT
 70
     0
  9
$DIMALTD
 70
     2
  9
$DIMALTF
 40
25.4
  9
$DIMLFAC
 40
1.0
  9
$DIMTOFL
 70
     1
  9
$DIMTVP
 40
1.0
  9
$DIMTIX
 70
     0
  9
$DIMSOXD
 70
     0
  9
$DIMSAH
 70
     1
  9
$DIMBLK1
  1
YAZ1
  9
$DIMBLK2
  1
YAZ1
  9
$DIMSTYLE
  2
YAZ1
  9
$DIMCLRD
 70
   256
  9
$DIMCLRE
 70
   256
  9
$DIMCLRT
 70
   256
  9
$DIMTFAC
 40
1.0
  9
$DIMGAP
 40
0.0
  9
$DIMJUST
 70
     0
  9
$DIMSD1
 70
     0
  9
$DIMSD2
 70
     0
  9
$DIMTOLJ
 70
     1
  9
$DIMTZIN
 70
     9
  9
$DIMALTZ
 70
     9
  9
$DIMALTTZ
 70
     9
  9
$DIMFIT
 70
     5
  9
$DIMUPT
 70
     0
  9
$DIMUNIT
 70
     2
  9
$DIMDEC
 70
     3
  9
$DIMTDEC
 70
     3
  9
$DIMALTU
 70
     2
  9
$DIMALTTD
 70
     2
  9
$DIMTXSTY
  7
STANDARD
  9
$DIMAUNIT
 70
     0
  9
$LUNITS
 70
     2
  9
$LUPREC
 70
     3
  9
$SKETCHINC
 40
0.1
  9
$FILLETRAD
 40
0.0
  9
$AUNITS
 70
     0
  9
$AUPREC
 70
     2
  9
$MENU
  1
amecex
  9
$ELEVATION
 40
0.0
  9
$PELEVATION
 40
0.0
  9
$THICKNESS
 40
0.0
  9
$LIMCHECK
 70
     0
  9
$BLIPMODE
 70
     0
  9
$CHAMFERA
 40
0.0
  9
$CHAMFERB
 40
0.0
  9
$CHAMFERC
 40
0.0
  9
$CHAMFERD
 40
0.0
  9
$SKPOLY
 70
     0
  9
$TDCREATE
 40
2453122.437170011
  9
$TDUPDATE
 40
2456045.408811759
  9
$TDINDWG
 40
0.0218614120
  9
$TDUSRTIMER
 40
0.0218614120
  9
$USRTIMER
 70
     1
  9
$ANGBASE
 50
0.0
  9
$ANGDIR
 70
     0
  9
$PDMODE
 70
     0
  9
$PDSIZE
 40
0.0
  9
$PLINEWID
 40
0.0
  9
$COORDS
 70
     0
  9
$SPLFRAME
 70
     0
  9
$SPLINETYPE
 70
     6
  9
$SPLINESEGS
 70
     8
  9
$ATTDIA
 70
     0
  9
$ATTREQ
 70
     1
  9
$HANDLING
 70
-16383
  9
$HANDSEED
  5
117B
  9
$SURFTAB1
 70
     6
  9
$SURFTAB2
 70
     6
  9
$SURFTYPE
 70
     6
  9
$SURFU
 70
     6
  9
$SURFV
 70
     6
  9
$UCSNAME
  2

  9
$UCSORG
 10
0.0
 20
0.0
 30
0.0
  9
$UCSXDIR
 10
1.0
 20
0.0
 30
0.0
  9
$UCSYDIR
 10
0.0
 20
1.0
 30
0.0
  9
$PUCSNAME
  2

  9
$PUCSORG
 10
0.0
 20
0.0
 30
0.0
  9
$PUCSXDIR
 10
1.0
 20
0.0
 30
0.0
  9
$PUCSYDIR
 10
0.0
 20
1.0
 30
0.0
  9
$USERI1
 70
     0
  9
$USERI2
 70
     0
  9
$USERI3
 70
     0
  9
$USERI4
 70
     0
  9
$USERI5
 70
     0
  9
$USERR1
 40
30.0
  9
$USERR2
 40
0.0
  9
$USERR3
 40
0.0
  9
$USERR4
 40
0.0
  9
$USERR5
 40
0.0
  9
$WORLDVIEW
 70
     1
  9
$SHADEDGE
 70
     3
  9
$SHADEDIF
 70
    70
  9
$TILEMODE
 70
     1
  9
$MAXACTVP
 70
    16
  9
$PINSBASE
 10
0.0
 20
0.0
 30
0.0
  9
$PLIMCHECK
 70
     0
  9
$PEXTMIN
 10
1.000000000000000E+20
 20
1.000000000000000E+20
 30
1.000000000000000E+20
  9
$PEXTMAX
 10
-1.000000000000000E+20
 20
-1.000000000000000E+20
 30
-1.000000000000000E+20
  9
$PLIMMIN
 10
0.0
 20
0.0
  9
$PLIMMAX
 10
12.0
 20
9.0
  9
$UNITMODE
 70
     0
  9
$VISRETAIN
 70
     0
  9
$PLINEGEN
 70
     0
  9
$PSLTSCALE
 70
     0
  9
$TREEDEPTH
 70
  3020
  9
$PICKSTYLE
 70
     1
  9
$CMLSTYLE
  2
STANDARD
  9
$CMLJUST
 70
     0
  9
$CMLSCALE
 40
1.0
  9
$SAVEIMAGES
 70
     1
  0
ENDSEC
  0
SECTION
  2
CLASSES
  0
CLASS
  1
ACDBDICTIONARYWDFLT
  2
AcDbDictionaryWithDefault
  3
AutoCAD 2000
 90
    32768
280
     0
281
     0
  0
CLASS
  1
ACDBPLACEHOLDER
  2
AcDbPlaceHolder
  3
AutoCAD 2000
 90
    32768
280
     0
281
     0
  0
CLASS
  1
LAYOUT
  2
AcDbLayout
  3
AutoCAD 2000
 90
    32768
280
     0
281
     0
  0
CLASS
  1
LONG_TRANSACTION
  2
AcDbLongTransaction
  3
AutoCAD 2000
 90
    32768
280
     0
281
     0
  0
CLASS
  1
LWPOLYLINE
  2
AcDbPolyline
  3
AutoCAD 2000
 90
    32768
280
     0
281
     1
  0
CLASS
  1
HATCH
  2
AcDbHatch
  3
AutoCAD 2000
 90
    32768
280
     0
281
     1
  0
CLASS
  1
XRECORD
  2
AcDbXrecord
  3
AutoCAD 2000
 90
    32768
280
     0
281
     0
  0
ENDSEC
  0
SECTION
  2
TABLES
  0
TABLE
  2
VPORT
  5
1C9
330
0
100
AcDbSymbolTable
 70
     2
  0
VPORT
  5
1176
330
1C9
100
AcDbSymbolTableRecord
100
AcDbViewportTableRecord
  2
*ACTIVE
 70
     0
 10
0.0
 20
0.0
 11
1.0
 21
1.0
 12
1547.594722691094
 22
715.3663897837664
 13
0.0
 23
0.0
 14
1.0
 24
1.0
 15
0.0
 25
0.0
 16
0.0
 26
0.0
 36
1.0
 17
0.0
 27
0.0
 37
0.0
 40
2078.462349292514
 41
1.821090047393364
 42
50.0
 43
0.0
 44
0.0
 50
0.0
 51
0.0
 71
     0
 72
   100
 73
     1
 74
     1
 75
     0
 76
     0
 77
     0
 78
     0
  0
ENDTAB
  0
TABLE
  2
LTYPE
  5
1C6
330
0
100
AcDbSymbolTable
 70
     2
  0
LTYPE
  5
1D3
330
1C6
100
AcDbSymbolTableRecord
100
AcDbLinetypeTableRecord
  2
BYBLOCK
 70
     0
  3

 72
    65
 73
     0
 40
0.0
  0
LTYPE
  5
1D4
330
1C6
100
AcDbSymbolTableRecord
100
AcDbLinetypeTableRecord
  2
BYLAYER
 70
     0
  3

 72
    65
 73
     0
 40
0.0
  0
LTYPE
  5
1D5
330
1C6
100
AcDbSymbolTableRecord
100
AcDbLinetypeTableRecord
  2
CONTINUOUS
 70
     0
  3
実線
 72
    65
 73
     0
 40
0.0
  0
ENDTAB
  0
TABLE
  2
LAYER
  5
1C3
330
0
100
AcDbSymbolTable
 70
     4
  0
LAYER
  5
1D0
330
1C3
100
AcDbSymbolTableRecord
100
AcDbLayerTableRecord
  2
0
 70
     0
 62
     7
  6
CONTINUOUS
  0
ENDTAB
  0
TABLE
  2
STYLE
  5
1C4
330
0
100
AcDbSymbolTable
 70
     1
  0
STYLE
  5
1D1
330
1C4
100
AcDbSymbolTableRecord
100
AcDbTextStyleTableRecord
  2
STANDARD
 70
     0
 40
0.0
 41
1.0
 50
0.0
 71
     0
 42
15.0
  3
TXT
  4
BIGFONT
  0
ENDTAB
  0
TABLE
  2
VIEW
  5
1C7
330
0
100
AcDbSymbolTable
 70
     0
  0
ENDTAB
  0
TABLE
  2
UCS
  5
1C8
330
0
100
AcDbSymbolTable
 70
     0
  0
ENDTAB
  0
TABLE
  2
APPID
  5
1CA
330
0
100
AcDbSymbolTable
 70
     2
  0
APPID
  5
1D2
330
1CA
100
AcDbSymbolTableRecord
100
AcDbRegAppTableRecord
  2
ACAD
 70
     0
  0
APPID
  5
286
330
1CA
100
AcDbSymbolTableRecord
100
AcDbRegAppTableRecord
  2
ACE-LT__COPYRIGHT_TRIALSOFT-JPN
 70
     0
  0
ENDTAB
  0
TABLE
  2
DIMSTYLE
  5
1CB
330
0
100
AcDbSymbolTable
 70
     1
  0
DIMSTYLE
105
1F1
330
1CB
100
AcDbSymbolTableRecord
100
AcDbDimStyleTableRecord
  2
YAZ1
 70
     0
  3

  4

  5
YAZ1
  6
YAZ1
  7
YAZ1
 40
5.0
 41
2.0
 42
0.1
 43
7.0
 44
1.8
 45
0.0
 46
0.0
 47
0.0
 48
0.0
140
3.0
141
0.1
142
0.0
143
25.4
144
1.0
145
1.0
146
1.0
147
0.0
 71
     0
 72
     0
 73
     0
 74
     0
 75
     0
 76
     0
 77
     0
 78
     9
170
     0
171
     2
172
     1
173
     1
174
     0
175
     0
176
   256
177
   256
178
   256
270
     2
271
     3
272
     3
273
     2
274
     2
340
1D1
275
     0
280
     0
281
     0
282
     0
283
     1
284
     9
285
     9
286
     9
287
     5
288
     0
  0
ENDTAB
  0
TABLE
  2
BLOCK_RECORD
  5
1C2
330
0
100
AcDbSymbolTable
 70
     1
  0
BLOCK_RECORD
  5
1D9
102
{ACAD_XDICTIONARY
360
1179
102
}
330
1C2
100
AcDbSymbolTableRecord
100
AcDbBlockTableRecord
  2
*MODEL_SPACE
  0
BLOCK_RECORD
  5
1D6
102
{ACAD_XDICTIONARY
360
1177
102
}
330
1C2
100
AcDbSymbolTableRecord
100
AcDbBlockTableRecord
  2
*PAPER_SPACE
  0
BLOCK_RECORD
  5
254
330
1C2
100
AcDbSymbolTableRecord
100
AcDbBlockTableRecord
  2
YAZ1
  0
ENDTAB
  0
ENDSEC
  0
SECTION
  2
BLOCKS
  0
BLOCK
  5
20A
330
1D9
100
AcDbEntity
  8
0
100
AcDbBlockBegin
  2
*MODEL_SPACE
 70
     0
 10
0.0
 20
0.0
 30
0.0
  3
*MODEL_SPACE
  1

  0
ENDBLK
  5
20B
330
1D9
100
AcDbEntity
  8
0
100
AcDbBlockEnd
  0
BLOCK
  5
208
330
1D6
100
AcDbEntity
 67
     1
  8
0
100
AcDbBlockBegin
  2
*PAPER_SPACE
 70
     0
 10
0.0
 20
0.0
 30
0.0
  3
*PAPER_SPACE
  1

  0
ENDBLK
  5
209
330
1D6
100
AcDbEntity
 67
     1
  8
0
100
AcDbBlockEnd
  0
BLOCK
  5
258
330
254
100
AcDbEntity
  8
0
100
AcDbBlockBegin
  2
YAZ1
 70
     0
 10
0.0
 20
0.0
 30
0.0
  3
YAZ1
  1

  0
LINE
  5
255
330
254
100
AcDbEntity
  8
0
100
AcDbLine
 10
0.0
 20
0.0
 30
0.0
 11
-1.0
 21
-0.2679491924311037
 31
0.0
  0
LINE
  5
256
330
254
100
AcDbEntity
  8
0
100
AcDbLine
 10
0.0
 20
0.0
 30
0.0
 11
-1.0
 21
0.2679491924311037
 31
0.0
  0
LINE
  5
257
330
254
100
AcDbEntity
  8
0
100
AcDbLine
 10
-1.0
 20
0.0
 30
0.0
 11
0.0
 21
0.0
 31
0.0
  0
ENDBLK
  5
259
330
254
100
AcDbEntity
  8
0
100
AcDbBlockEnd
  0
ENDSEC
  0
SECTION
  2
ENTITIES
  0
LINE
  5
94E
330
1D9
100
AcDbEntity
  8
0
100
AcDbLine
 10
40.0
 20
1420.0
 30
0.0
 11
1995.0
 21
1420.0
 31
0.0
  0
LINE
  5
94F
330
1D9
100
AcDbEntity
  8
0
100
AcDbLine
 10
40.0
 20
1009.999999999992
 30
0.0
 11
1995.0
 21
1010.000000000002
 31
0.0
  0
LINE
  5
950
330
1D9
100
AcDbEntity
  8
0
100
AcDbLine
 10
40.0
 20
1039.999999999992
 30
0.0
 11
1995.0
 21
1040.000000000001
 31
0.0
  0
TEXT
  5
951
330
1D9
100
AcDbEntity
  8
0
100
AcDbText
 10
1357.2
 20
1017.499999999998
 30
0.0
 40
15.0
  1
ハイパー２０：ＪＨ－６５
 72
     4
 11
1462.7
 21
1024.999999999999
 31
0.0
100
AcDbText
  0
LINE
  5
952
330
1D9
100
AcDbEntity
  8
0
100
AcDbLine
 10
1538.328427124746
 20
909.9999999999964
 30
0.0
 11
1746.671572875253
 21
909.9999999999964
 31
0.0
  0
LINE
  5
953
330
1D9
100
AcDbEntity
  8
0
100
AcDbLine
 10
1490.999999999999
 20
904.9999999999963
 30
0.0
 11
1794.0
 21
904.9999999999963
 31
0.0
  0
LINE
  5
954
330
1D9
100
AcDbEntity
  8
0
100
AcDbLine
 10
1794.0
 20
876.9999999999964
 30
0.0
 11
1491.0
 21
876.9999999999964
 31
0.0
  0
LINE
  5
955
330
1D9
100
AcDbEntity
  8
0
100
AcDbLine
 10
1995.0
 20
0.0
 30
0.0
 11
40.0
 21
0.0
 31
0.0
  0
LINE
  5
956
330
1D9
100
AcDbEntity
  8
0
100
AcDbLine
 10
40.0
 20
555.0
 30
0.0
 11
1995.0
 21
555.0
 31
0.0
  0
LINE
  5
957
330
1D9
100
AcDbEntity
  8
0
100
AcDbLine
 10
40.0
 20
585.0
 30
0.0
 11
1995.0
 21
585.0
 31
0.0
  0
LINE
  5
958
330
1D9
100
AcDbEntity
  8
0
100
AcDbLine
 10
1995.0
 20
30.0
 30
0.0
 11
40.0
 21
30.0
 31
0.0
  0
TEXT
  5
959
330
1D9
100
AcDbEntity
  8
0
100
AcDbText
 10
1528.0
 20
562.5
 30
0.0
 40
15.0
  1
ハイパー２０：ＪＨ－１５０
 72
     4
 11
1642.5
 21
570.0
 31
0.0
100
AcDbText
  0
TEXT
  5
95A
330
1D9
100
AcDbEntity
  8
0
100
AcDbText
 10
1528.0
 20
7.5
 30
0.0
 40
15.0
  1
ハイパー２０：ＪＨ－３００
 72
     4
 11
1642.5
 21
15.0
 31
0.0
100
AcDbText
  0
LINE
  5
95B
330
1D9
100
AcDbEntity
  8
0
100
AcDbLine
 10
1403.5
 20
376.5
 30
0.0
 11
1881.5
 21
376.5
 31
0.0
  0
LINE
  5
95C
330
1D9
100
AcDbEntity
  8
0
100
AcDbLine
 10
1403.5
 20
208.4999999999999
 30
0.0
 11
1881.5
 21
208.4999999999999
 31
0.0
  0
LINE
  5
95D
330
1D9
100
AcDbEntity
  8
0
100
AcDbLine
 10
1464.108427802663
 20
316.5093100476165
 30
0.0
 11
1820.891572197334
 21
316.5093100476161
 31
0.0
  0
LINE
  5
95E
330
1D9
100
AcDbEntity
  8
0
100
AcDbLine
 10
1464.108427802663
 20
268.4906899523834
 30
0.0
 11
1820.891572197334
 21
268.4906899523834
 31
0.0
  0
LINE
  5
95F
330
1D9
100
AcDbEntity
  8
0
100
AcDbLine
 10
1464.24456530024
 20
266.5
 30
0.0
 11
1820.755434699758
 21
266.5
 31
0.0
  0
LINE
  5
960
330
1D9
100
AcDbEntity
  8
0
100
AcDbLine
 10
1464.24456530024
 20
318.5
 30
0.0
 11
1820.755434699758
 21
318.5
 31
0.0
  0
LINE
  5
961
330
1D9
100
AcDbEntity
  8
0
100
AcDbLine
 10
1403.5
 20
412.5
 30
0.0
 11
1881.5
 21
412.5
 31
0.0
  0
LINE
  5
962
330
1D9
100
AcDbEntity
  8
0
100
AcDbLine
 10
1457.328427124744
 20
417.4999999999999
 30
0.0
 11
1827.671572875252
 21
417.4999999999999
 31
0.0
  0
LINE
  5
963
330
1D9
100
AcDbEntity
  8
0
100
AcDbLine
 10
1403.5
 20
172.5
 30
0.0
 11
1881.5
 21
172.5
 31
0.0
  0
LINE
  5
964
330
1D9
100
AcDbEntity
  8
0
100
AcDbLine
 10
1457.328427124744
 20
167.5
 30
0.0
 11
1827.671572875252
 21
167.5
 31
0.0
  0
LINE
  5
965
330
1D9
100
AcDbEntity
  8
0
100
AcDbLine
 10
1537.176267874325
 20
819.021186099264
 30
0.0
 11
1747.823732125674
 21
819.021186099264
 31
0.0
  0
LINE
  5
966
330
1D9
100
AcDbEntity
  8
0
100
AcDbLine
 10
1537.381019791856
 20
820.9999999999968
 30
0.0
 11
1747.618980208143
 21
820.9999999999961
 31
0.0
  0
LINE
  5
967
330
1D9
100
AcDbEntity
  8
0
100
AcDbLine
 10
1537.176267874325
 20
775.9788139007292
 30
0.0
 11
1747.823732125674
 21
775.9788139007292
 31
0.0
  0
LINE
  5
968
330
1D9
100
AcDbEntity
  8
0
100
AcDbLine
 10
1537.381019791856
 20
773.9999999999961
 30
0.0
 11
1747.618980208143
 21
773.9999999999968
 31
0.0
  0
LINE
  5
969
330
1D9
100
AcDbEntity
  8
0
100
AcDbLine
 10
1538.328427124746
 20
684.9999999999964
 30
0.0
 11
1746.671572875253
 21
684.9999999999964
 31
0.0
  0
LINE
  5
96A
330
1D9
100
AcDbEntity
  8
0
100
AcDbLine
 10
1490.999999999999
 20
717.9999999999964
 30
0.0
 11
1794.0
 21
717.9999999999964
 31
0.0
  0
LINE
  5
96B
330
1D9
100
AcDbEntity
  8
0
100
AcDbLine
 10
1490.999999999999
 20
689.9999999999961
 30
0.0
 11
1794.0
 21
689.9999999999961
 31
0.0
  0
LINE
  5
96C
330
1D9
100
AcDbEntity
  8
0
100
AcDbLine
 10
1288.599999999999
 20
1009.999999999998
 30
0.0
 11
1288.599999999999
 21
1420.0
 31
0.0
  0
LINE
  5
96D
330
1D9
100
AcDbEntity
  8
0
100
AcDbLine
 10
960.3999999999999
 20
1420.0
 30
0.0
 11
960.3999999999999
 21
1009.999999999996
 31
0.0
  0
TEXT
  5
96E
330
1D9
100
AcDbEntity
  8
0
100
AcDbText
 10
1019.0
 20
1017.499999999997
 30
0.0
 40
15.0
  1
ハイパー２０：ＪＨ－５０
 72
     4
 11
1124.5
 21
1024.999999999997
 31
0.0
100
AcDbText
  0
TEXT
  5
96F
330
1D9
100
AcDbEntity
  8
0
100
AcDbText
 10
387.5999999999998
 20
1017.499999999994
 30
0.0
 40
15.0
  1
ハイパー２０：ＪＨ－３２
 72
     4
 11
493.0999999999998
 21
1024.999999999994
 31
0.0
100
AcDbText
  0
LINE
  5
970
330
1D9
100
AcDbEntity
  8
0
100
AcDbLine
 10
647.1999999999998
 20
1009.999999999995
 30
0.0
 11
647.2000000000003
 21
1420.0
 31
0.0
  0
LINE
  5
971
330
1D9
100
AcDbEntity
  8
0
100
AcDbLine
 10
339.0
 20
1009.999999999994
 30
0.0
 11
339.0
 21
1420.0
 31
0.0
  0
TEXT
  5
972
330
1D9
100
AcDbEntity
  8
0
100
AcDbText
 10
698.3000000000003
 20
1017.499999999996
 30
0.0
 40
15.0
  1
ハイパー２０：ＪＨ－４０
 72
     4
 11
803.8000000000003
 21
1024.999999999996
 31
0.0
100
AcDbText
  0
LINE
  5
973
330
1D9
100
AcDbEntity
  8
0
100
AcDbLine
 10
40.0
 20
0.0
 30
0.0
 11
40.0
 21
1420.0
 31
0.0
  0
LINE
  5
974
330
1D9
100
AcDbEntity
  8
0
100
AcDbLine
 10
1174.0
 20
206.4999999999999
 30
0.0
 11
746.0000000000003
 21
206.4999999999999
 31
0.0
  0
LINE
  5
975
330
1D9
100
AcDbEntity
  8
0
100
AcDbLine
 10
1174.0
 20
378.5
 30
0.0
 11
746.0000000000003
 21
378.5
 31
0.0
  0
LINE
  5
976
330
1D9
100
AcDbEntity
  8
0
100
AcDbLine
 10
1174.0
 20
412.5
 30
0.0
 11
746.0000000000003
 21
412.5
 31
0.0
  0
LINE
  5
977
330
1D9
100
AcDbEntity
  8
0
100
AcDbLine
 10
1174.0
 20
172.5
 30
0.0
 11
746.0000000000003
 21
172.5
 31
0.0
  0
LINE
  5
978
330
1D9
100
AcDbEntity
  8
0
100
AcDbLine
 10
745.0000000000003
 20
173.5
 30
0.0
 11
745.0000000000003
 21
205.5
 31
0.0
  0
LINE
  5
979
330
1D9
100
AcDbEntity
  8
0
100
AcDbLine
 10
770.0000000000003
 20
163.4999999999999
 30
0.0
 11
770.0000000000003
 21
215.5
 31
0.0
  0
LINE
  5
97A
330
1D9
100
AcDbEntity
  8
0
100
AcDbLine
 10
487.5
 20
163.4999999999999
 30
0.0
 11
487.5
 21
211.5
 31
0.0
  0
LINE
  5
97B
330
1D9
100
AcDbEntity
  8
0
100
AcDbLine
 10
510.0000000000004
 20
173.5
 30
0.0
 11
510.0000000000004
 21
201.5
 31
0.0
  0
LINE
  5
97C
330
1D9
100
AcDbEntity
  8
0
100
AcDbLine
 10
335.0000000000004
 20
426.4999999999999
 30
0.0
 11
335.0000000000004
 21
158.4999999999999
 31
0.0
  0
LINE
  5
97D
330
1D9
100
AcDbEntity
  8
0
100
AcDbLine
 10
160.0000000000004
 20
173.5
 30
0.0
 11
160.0000000000004
 21
201.5
 31
0.0
  0
LINE
  5
97E
330
1D9
100
AcDbEntity
  8
0
100
AcDbLine
 10
182.5000000000009
 20
163.4999999999999
 30
0.0
 11
182.5000000000009
 21
211.5
 31
0.0
  0
LINE
  5
97F
330
1D9
100
AcDbEntity
  8
0
100
AcDbLine
 10
630.0000000000003
 20
0.0
 30
0.0
 11
630.0000000000003
 21
1009.999999999995
 31
0.0
  0
TEXT
  5
980
330
1D9
100
AcDbEntity
  8
0
100
AcDbText
 10
220.5
 20
7.5
 30
0.0
 40
15.0
  1
ハイパー２０：ＪＨ－２００
 72
     4
 11
335.0
 21
15.0
 31
0.0
100
AcDbText
  0
LINE
  5
981
330
1D9
100
AcDbEntity
  8
0
100
AcDbLine
 10
161.0000000000004
 20
172.5
 30
0.0
 11
509.0000000000004
 21
172.5
 31
0.0
  0
LINE
  5
982
330
1D9
100
AcDbEntity
  8
0
100
AcDbLine
 10
205.3284271247465
 20
167.5
 30
0.0
 11
464.6715728752542
 21
167.5
 31
0.0
  0
LINE
  5
983
330
1D9
100
AcDbEntity
  8
0
100
AcDbLine
 10
160.0000000000004
 20
173.5
 30
0.0
 11
161.0000000000004
 21
172.5
 31
0.0
  0
ARC
  5
984
330
1D9
100
AcDbEntity
  8
0
100
AcDbCircle
 10
205.3284271247465
 20
169.5
 30
0.0
 40
2.0
100
AcDbArc
 50
225.0000000000042
 51
270.0
  0
LINE
  5
985
330
1D9
100
AcDbEntity
  8
0
100
AcDbLine
 10
203.9142135623733
 20
168.0857864376267
 30
0.0
 11
199.5000000000004
 21
172.5
 31
0.0
  0
ARC
  5
986
330
1D9
100
AcDbEntity
  8
0
100
AcDbCircle
 10
464.6715728752542
 20
169.5
 30
0.0
 40
2.0
100
AcDbArc
 50
270.0
 51
314.9999999999956
  0
LINE
  5
987
330
1D9
100
AcDbEntity
  8
0
100
AcDbLine
 10
466.0857864376271
 20
168.0857864376267
 30
0.0
 11
470.5000000000004
 21
172.5
 31
0.0
  0
LINE
  5
988
330
1D9
100
AcDbEntity
  8
0
100
AcDbLine
 10
510.0000000000004
 20
173.5
 30
0.0
 11
509.0000000000004
 21
172.5
 31
0.0
  0
LINE
  5
989
330
1D9
100
AcDbEntity
  8
0
100
AcDbLine
 10
746.0000000000003
 20
172.5
 30
0.0
 11
745.0000000000003
 21
173.5
 31
0.0
  0
LINE
  5
98A
330
1D9
100
AcDbEntity
  8
0
100
AcDbLine
 10
263.3284271247461
 20
909.9999999999964
 30
0.0
 11
406.6715728752545
 21
909.9999999999964
 31
0.0
  0
LINE
  5
98B
330
1D9
100
AcDbEntity
  8
0
100
AcDbLine
 10
223.5000000000004
 20
904.9999999999963
 30
0.0
 11
446.5000000000004
 21
904.9999999999963
 31
0.0
  0
LINE
  5
98C
330
1D9
100
AcDbEntity
  8
0
100
AcDbLine
 10
223.5000000000004
 20
880.9999999999961
 30
0.0
 11
446.5000000000004
 21
880.9999999999961
 31
0.0
  0
TEXT
  5
98D
330
1D9
100
AcDbEntity
  8
0
100
AcDbText
 10
220.5
 20
562.5
 30
0.0
 40
15.0
  1
ハイパー２０：ＪＨ－１００
 72
     4
 11
335.0
 21
570.0
 31
0.0
100
AcDbText
  0
LINE
  5
98E
330
1D9
100
AcDbEntity
  8
0
100
AcDbLine
 10
509.0000000000004
 20
382.5
 30
0.0
 11
161.0000000000004
 21
382.5
 31
0.0
  0
LINE
  5
98F
330
1D9
100
AcDbEntity
  8
0
100
AcDbLine
 10
204.6948911080547
 20
316.5172562266835
 30
0.0
 11
465.305108891946
 21
316.5172562266835
 31
0.0
  0
LINE
  5
990
330
1D9
100
AcDbEntity
  8
0
100
AcDbLine
 10
204.6948911080547
 20
268.4827437733166
 30
0.0
 11
465.3051088919446
 21
268.4827437733166
 31
0.0
  0
LINE
  5
991
330
1D9
100
AcDbEntity
  8
0
100
AcDbLine
 10
204.8798632032694
 20
266.5
 30
0.0
 11
465.1201367967313
 21
266.5
 31
0.0
  0
LINE
  5
992
330
1D9
100
AcDbEntity
  8
0
100
AcDbLine
 10
204.8798632032694
 20
318.5
 30
0.0
 11
465.1201367967313
 21
318.5
 31
0.0
  0
LINE
  5
993
330
1D9
100
AcDbEntity
  8
0
100
AcDbLine
 10
161.0000000000004
 20
412.5
 30
0.0
 11
509.0000000000004
 21
412.5
 31
0.0
  0
LINE
  5
994
330
1D9
100
AcDbEntity
  8
0
100
AcDbLine
 10
205.3284271247461
 20
417.4999999999999
 30
0.0
 11
464.6715728752542
 21
417.4999999999999
 31
0.0
  0
LINE
  5
995
330
1D9
100
AcDbEntity
  8
0
100
AcDbLine
 10
161.0000000000004
 20
202.4999999999999
 30
0.0
 11
509.0000000000004
 21
202.4999999999999
 31
0.0
  0
LINE
  5
996
330
1D9
100
AcDbEntity
  8
0
100
AcDbLine
 10
260.6237484682015
 20
819.2812581840071
 30
0.0
 11
409.3762515317997
 21
819.2812581840071
 31
0.0
  0
LINE
  5
997
330
1D9
100
AcDbEntity
  8
0
100
AcDbLine
 10
260.8380151290439
 20
820.7499999999964
 30
0.0
 11
409.1619848709574
 21
820.7499999999964
 31
0.0
  0
LINE
  5
998
330
1D9
100
AcDbEntity
  8
0
100
AcDbLine
 10
260.8380151290439
 20
774.2499999999964
 30
0.0
 11
409.1619848709574
 21
774.2499999999964
 31
0.0
  0
LINE
  5
999
330
1D9
100
AcDbEntity
  8
0
100
AcDbLine
 10
260.6237484682015
 20
775.7187418159856
 30
0.0
 11
409.3762515317997
 21
775.7187418159856
 31
0.0
  0
LINE
  5
99A
330
1D9
100
AcDbEntity
  8
0
100
AcDbLine
 10
263.3284271247461
 20
684.9999999999964
 30
0.0
 11
406.6715728752545
 21
684.9999999999964
 31
0.0
  0
LINE
  5
99B
330
1D9
100
AcDbEntity
  8
0
100
AcDbLine
 10
223.5000000000004
 20
689.9999999999961
 30
0.0
 11
446.5000000000004
 21
689.9999999999961
 31
0.0
  0
LINE
  5
99C
330
1D9
100
AcDbEntity
  8
0
100
AcDbLine
 10
223.5000000000004
 20
713.9999999999964
 30
0.0
 11
446.5000000000004
 21
713.9999999999964
 31
0.0
  0
LINE
  5
99D
330
1D9
100
AcDbEntity
  8
0
100
AcDbLine
 10
160.0000000000004
 20
411.5
 30
0.0
 11
160.0000000000004
 21
383.4999999999999
 31
0.0
  0
LINE
  5
99E
330
1D9
100
AcDbEntity
  8
0
100
AcDbLine
 10
182.5000000000009
 20
421.4999999999991
 30
0.0
 11
182.5000000000009
 21
373.4999999999991
 31
0.0
  0
LINE
  5
99F
330
1D9
100
AcDbEntity
  8
0
100
AcDbLine
 10
160.0000000000004
 20
201.5
 30
0.0
 11
161.0000000000004
 21
202.4999999999999
 31
0.0
  0
LINE
  5
9A0
330
1D9
100
AcDbEntity
  8
0
100
AcDbLine
 10
160.0000000000004
 20
383.4999999999999
 30
0.0
 11
161.0000000000004
 21
382.5
 31
0.0
  0
LINE
  5
9A1
330
1D9
100
AcDbEntity
  8
0
100
AcDbLine
 10
160.0000000000004
 20
411.5
 30
0.0
 11
161.0000000000004
 21
412.5
 31
0.0
  0
ARC
  5
9A2
330
1D9
100
AcDbEntity
  8
0
100
AcDbCircle
 10
335.0000000000004
 20
292.5
 30
0.0
 40
132.4999999999999
100
AcDbArc
 50
169.5567055090976
 51
190.4432944909022
  0
ARC
  5
9A3
330
1D9
100
AcDbEntity
  8
0
100
AcDbCircle
 10
335.0000000000004
 20
292.5
 30
0.0
 40
132.4999999999999
100
AcDbArc
 50
191.3163762550215
 51
200.1450870717508
  0
ARC
  5
9A4
330
1D9
100
AcDbEntity
  8
0
100
AcDbCircle
 10
204.8798632032694
 20
267.5
 30
0.0
 40
1.0
100
AcDbArc
 50
100.6595054927805
 51
270.0
  0
ARC
  5
9A5
330
1D9
100
AcDbEntity
  8
0
100
AcDbCircle
 10
207.5000000000004
 20
210.4999999999999
 30
0.0
 40
8.0
100
AcDbArc
 50
270.0
 51
0.0
  0
LINE
  5
9A6
330
1D9
100
AcDbEntity
  8
0
100
AcDbLine
 10
215.5000000000004
 20
219.3153021458687
 30
0.0
 11
215.5000000000004
 21
210.4999999999995
 31
0.0
  0
ARC
  5
9A7
330
1D9
100
AcDbEntity
  8
0
100
AcDbCircle
 10
135.5000000000003
 20
219.315302145871
 30
0.0
 40
80.0
100
AcDbArc
 50
0.0
 51
20.14508707175099
  0
LINE
  5
9A8
330
1D9
100
AcDbEntity
  8
0
100
AcDbLine
 10
215.5000000000004
 20
365.6846978541307
 30
0.0
 11
215.5000000000004
 21
374.5
 31
0.0
  0
ARC
  5
9A9
330
1D9
100
AcDbEntity
  8
0
100
AcDbCircle
 10
135.5000000000003
 20
365.6846978541289
 30
0.0
 40
80.0
100
AcDbArc
 50
339.8549129282489
 51
0.0
  0
ARC
  5
9AA
330
1D9
100
AcDbEntity
  8
0
100
AcDbCircle
 10
207.5000000000004
 20
374.5
 30
0.0
 40
8.0
100
AcDbArc
 50
0.0
 51
90.0
  0
ARC
  5
9AB
330
1D9
100
AcDbEntity
  8
0
100
AcDbCircle
 10
204.8798632032694
 20
317.5
 30
0.0
 40
1.0
100
AcDbArc
 50
90.0
 51
259.3404945072193
  0
ARC
  5
9AC
330
1D9
100
AcDbEntity
  8
0
100
AcDbCircle
 10
335.0000000000004
 20
292.5
 30
0.0
 40
132.4999999999999
100
AcDbArc
 50
159.854912928249
 51
168.6836237449784
  0
ELLIPSE
  5
9AD
330
1D9
100
AcDbEntity
  8
0
100
AcDbEllipse
 10
351.5000000000004
 20
292.5
 30
0.0
 11
0.0
 21
6.647624999999917
 31
0.0
210
0.0
220
0.0
230
-1.0
 40
0.7894736842105358
 41
0.0
 42
6.283185307179585
  0
ELLIPSE
  5
9AE
330
1D9
100
AcDbEntity
  8
0
100
AcDbEllipse
 10
351.5000000000004
 20
292.5
 30
0.0
 11
0.0
 21
3.848625000000076
 31
0.0
210
0.0
220
0.0
230
-1.0
 40
0.6363636363636644
 41
0.0
 42
6.283185307179585
  0
ELLIPSE
  5
9AF
330
1D9
100
AcDbEntity
  8
0
100
AcDbEllipse
 10
364.4999541724659
 20
292.5
 30
0.0
 11
0.0
 21
6.647624999999917
 31
0.0
210
0.0
220
0.0
230
-1.0
 40
0.7894736842105358
 41
0.0
 42
6.283185307179585
  0
ELLIPSE
  5
9B0
330
1D9
100
AcDbEntity
  8
0
100
AcDbEllipse
 10
364.4999541724659
 20
292.5
 30
0.0
 11
0.0
 21
3.848625000000076
 31
0.0
210
0.0
220
0.0
230
-1.0
 40
0.6363636363636644
 41
0.0
 42
6.283185307179585
  0
LINE
  5
9B1
330
1D9
100
AcDbEntity
  8
0
100
AcDbLine
 10
323.5000000000003
 20
298.7977499999996
 30
0.0
 11
323.5000000000003
 21
286.2022499999998
 31
0.0
  0
LINE
  5
9B2
330
1D9
100
AcDbEntity
  8
0
100
AcDbLine
 10
313.5000000000004
 20
286.2022499999998
 30
0.0
 11
313.5000000000004
 21
298.7977499999996
 31
0.0
  0
LINE
  5
9B3
330
1D9
100
AcDbEntity
  8
0
100
AcDbLine
 10
310.5000000000003
 20
298.7977499999996
 30
0.0
 11
310.5000000000003
 21
290.5025000000001
 31
0.0
  0
LINE
  5
9B4
330
1D9
100
AcDbEntity
  8
0
100
AcDbLine
 10
307.7010000000003
 20
290.5025000000001
 30
0.0
 11
307.7010000000003
 21
298.7977499999996
 31
0.0
  0
LINE
  5
9B5
330
1D9
100
AcDbEntity
  8
0
100
AcDbLine
 10
336.4559398986821
 20
290.4396712895476
 30
0.0
 11
339.7442200367409
 21
293.1291561381759
 31
0.0
  0
LINE
  5
9B6
330
1D9
100
AcDbEntity
  8
0
100
AcDbLine
 10
325.5000000000003
 20
291.8002499999998
 30
0.0
 11
325.5000000000003
 21
293.1997499999998
 31
0.0
  0
LINE
  5
9B7
330
1D9
100
AcDbEntity
  8
0
100
AcDbLine
 10
331.5000000000003
 20
293.1997499999998
 30
0.0
 11
331.5000000000003
 21
291.8002499999998
 31
0.0
  0
ARC
  5
9B8
330
1D9
100
AcDbEntity
  8
0
100
AcDbCircle
 10
338.4705468750003
 20
294.6864038624998
 30
0.0
 40
2.011781250000003
100
AcDbArc
 50
309.2797387857903
 51
162.3602986057552
  0
ARC
  5
9B9
330
1D9
100
AcDbEntity
  8
0
100
AcDbCircle
 10
338.4705468750003
 20
294.6864038624998
 30
0.0
 40
4.810781250000006
100
AcDbArc
 50
309.2797387857903
 51
167.1604115930986
  0
LINE
  5
9BA
330
1D9
100
AcDbEntity
  8
0
100
AcDbLine
 10
342.6253125000001
 20
285.5025000000001
 30
0.0
 11
334.6019503299603
 21
285.5025000000001
 31
0.0
  0
LINE
  5
9BB
330
1D9
100
AcDbEntity
  8
0
100
AcDbLine
 10
338.2627718340754
 20
288.3014999999999
 30
0.0
 11
341.5162870443801
 21
290.9625506086809
 31
0.0
  0
LINE
  5
9BC
330
1D9
100
AcDbEntity
  8
0
100
AcDbLine
 10
338.2627718340754
 20
288.3014999999999
 30
0.0
 11
342.6253125000001
 21
288.3014999999999
 31
0.0
  0
ARC
  5
9BD
330
1D9
100
AcDbEntity
  8
0
100
AcDbCircle
 10
305.5000000000004
 20
290.5025000000001
 30
0.0
 40
5.0
100
AcDbArc
 50
180.0
 51
0.0
  0
ARC
  5
9BE
330
1D9
100
AcDbEntity
  8
0
100
AcDbCircle
 10
305.5000000000004
 20
290.5025000000001
 30
0.0
 40
2.20100000000002
100
AcDbArc
 50
180.0
 51
0.0
  0
LINE
  5
9BF
330
1D9
100
AcDbEntity
  8
0
100
AcDbLine
 10
302.5990000000001
 20
291.5025000000001
 30
0.0
 11
301.2000000000002
 21
291.5025000000001
 31
0.0
  0
LINE
  5
9C0
330
1D9
100
AcDbEntity
  8
0
100
AcDbLine
 10
300.5000000000003
 20
290.5025000000001
 30
0.0
 11
300.5000000000003
 21
290.8024999999998
 31
0.0
  0
ARC
  5
9C1
330
1D9
100
AcDbEntity
  8
0
100
AcDbCircle
 10
301.2000000000002
 20
290.8024999999998
 30
0.0
 40
0.7
100
AcDbArc
 50
90.0
 51
180.0
  0
LINE
  5
9C2
330
1D9
100
AcDbEntity
  8
0
100
AcDbLine
 10
303.2990000000003
 20
290.5025000000001
 30
0.0
 11
303.2990000000003
 21
290.8024999999998
 31
0.0
  0
ARC
  5
9C3
330
1D9
100
AcDbEntity
  8
0
100
AcDbCircle
 10
302.5990000000001
 20
290.8024999999998
 30
0.0
 40
0.7
100
AcDbArc
 50
0.0
 51
90.0
  0
ARC
  5
9C4
330
1D9
100
AcDbEntity
  8
0
100
AcDbCircle
 10
341.9936492975548
 20
283.6690290098772
 30
0.0
 40
8.746874999999999
100
AcDbArc
 50
129.2797387857903
 51
159.8782594025906
  0
LINE
  5
9C5
330
1D9
100
AcDbEntity
  8
0
100
AcDbLine
 10
320.7010000000003
 20
286.2022499999998
 30
0.0
 11
320.7010000000003
 21
291.1005
 31
0.0
  0
LINE
  5
9C6
330
1D9
100
AcDbEntity
  8
0
100
AcDbLine
 10
316.2990000000003
 20
291.1005
 30
0.0
 11
316.2990000000003
 21
286.2022499999998
 31
0.0
  0
LINE
  5
9C7
330
1D9
100
AcDbEntity
  8
0
100
AcDbLine
 10
314.1997500000001
 20
285.5025000000001
 30
0.0
 11
315.5992500000002
 21
285.5025000000001
 31
0.0
  0
ARC
  5
9C8
330
1D9
100
AcDbEntity
  8
0
100
AcDbCircle
 10
314.1997500000001
 20
286.2022499999998
 30
0.0
 40
0.69975
100
AcDbArc
 50
180.0
 51
270.0
  0
ARC
  5
9C9
330
1D9
100
AcDbEntity
  8
0
100
AcDbCircle
 10
322.8002500000001
 20
286.2022499999998
 30
0.0
 40
0.69975
100
AcDbArc
 50
270.0
 51
0.0
  0
ARC
  5
9CA
330
1D9
100
AcDbEntity
  8
0
100
AcDbCircle
 10
315.5992500000002
 20
286.2022499999998
 30
0.0
 40
0.69975
100
AcDbArc
 50
270.0
 51
0.0
  0
ARC
  5
9CB
330
1D9
100
AcDbEntity
  8
0
100
AcDbCircle
 10
321.4007500000001
 20
286.2022499999998
 30
0.0
 40
0.69975
100
AcDbArc
 50
180.0
 51
270.0
  0
LINE
  5
9CC
330
1D9
100
AcDbEntity
  8
0
100
AcDbLine
 10
321.4007500000001
 20
285.5025000000001
 30
0.0
 11
322.8002500000001
 21
285.5025000000001
 31
0.0
  0
ARC
  5
9CD
330
1D9
100
AcDbEntity
  8
0
100
AcDbCircle
 10
334.6019503299603
 20
286.3771874999997
 30
0.0
 40
0.8746874999999999
100
AcDbArc
 50
159.8782594025906
 51
270.0
  0
LINE
  5
9CE
330
1D9
100
AcDbEntity
  8
0
100
AcDbLine
 10
330.8002500000001
 20
291.1005
 30
0.0
 11
326.1997500000001
 21
291.1005
 31
0.0
  0
ARC
  5
9CF
330
1D9
100
AcDbEntity
  8
0
100
AcDbCircle
 10
326.1997500000001
 20
291.8002499999998
 30
0.0
 40
0.69975
100
AcDbArc
 50
180.0
 51
270.0
  0
LINE
  5
9D0
330
1D9
100
AcDbEntity
  8
0
100
AcDbLine
 10
320.7010000000003
 20
291.1005
 30
0.0
 11
316.2990000000003
 21
291.1005
 31
0.0
  0
ARC
  5
9D1
330
1D9
100
AcDbEntity
  8
0
100
AcDbCircle
 10
330.8002500000001
 20
291.8002499999998
 30
0.0
 40
0.69975
100
AcDbArc
 50
270.0
 51
0.0
  0
LINE
  5
9D2
330
1D9
100
AcDbEntity
  8
0
100
AcDbLine
 10
343.5000000000004
 20
287.4268124999998
 30
0.0
 11
343.5000000000004
 21
286.3771874999997
 31
0.0
  0
ARC
  5
9D3
330
1D9
100
AcDbEntity
  8
0
100
AcDbCircle
 10
342.6253125000001
 20
286.3771874999997
 30
0.0
 40
0.8746874999999999
100
AcDbArc
 50
270.0
 51
0.0
  0
ARC
  5
9D4
330
1D9
100
AcDbEntity
  8
0
100
AcDbCircle
 10
342.6253125000001
 20
287.4268124999998
 30
0.0
 40
0.8746874999999999
100
AcDbArc
 50
0.0
 51
90.0
  0
ARC
  5
9D5
330
1D9
100
AcDbEntity
  8
0
100
AcDbCircle
 10
308.4007500000002
 20
298.7977499999996
 30
0.0
 40
0.69975
100
AcDbArc
 50
90.0
 51
180.0
  0
LINE
  5
9D6
330
1D9
100
AcDbEntity
  8
0
100
AcDbLine
 10
316.2990000000003
 20
298.7974999999996
 30
0.0
 11
316.2990000000003
 21
293.8994999999999
 31
0.0
  0
LINE
  5
9D7
330
1D9
100
AcDbEntity
  8
0
100
AcDbLine
 10
320.7010000000003
 20
293.8994999999999
 30
0.0
 11
320.7010000000003
 21
298.7974999999996
 31
0.0
  0
ARC
  5
9D8
330
1D9
100
AcDbEntity
  8
0
100
AcDbCircle
 10
334.6328710437013
 20
295.5610913625001
 30
0.0
 40
0.8746874999999999
100
AcDbArc
 50
167.1604115930986
 51
270.0
  0
ARC
  5
9D9
330
1D9
100
AcDbEntity
  8
0
100
AcDbCircle
 10
335.7197972277085
 20
295.5610913625001
 30
0.0
 40
0.8746874999999999
100
AcDbArc
 50
270.0
 51
342.3602986057551
  0
LINE
  5
9DA
330
1D9
100
AcDbEntity
  8
0
100
AcDbLine
 10
326.1997500000001
 20
293.8994999999999
 30
0.0
 11
330.8002500000001
 21
293.8994999999999
 31
0.0
  0
ARC
  5
9DB
330
1D9
100
AcDbEntity
  8
0
100
AcDbCircle
 10
326.1997500000001
 20
293.1997499999998
 30
0.0
 40
0.69975
100
AcDbArc
 50
90.0
 51
180.0
  0
LINE
  5
9DC
330
1D9
100
AcDbEntity
  8
0
100
AcDbLine
 10
316.2990000000003
 20
293.8994999999999
 30
0.0
 11
320.7010000000003
 21
293.8994999999999
 31
0.0
  0
ARC
  5
9DD
330
1D9
100
AcDbEntity
  8
0
100
AcDbCircle
 10
330.8002500000001
 20
293.1997499999998
 30
0.0
 40
0.69975
100
AcDbArc
 50
0.0
 51
90.0
  0
LINE
  5
9DE
330
1D9
100
AcDbEntity
  8
0
100
AcDbLine
 10
314.1997500000001
 20
299.4975
 30
0.0
 11
315.599
 21
299.4974999999994
 31
0.0
  0
LINE
  5
9DF
330
1D9
100
AcDbEntity
  8
0
100
AcDbLine
 10
308.4007500000002
 20
299.4975
 30
0.0
 11
309.8002500000001
 21
299.4975
 31
0.0
  0
ARC
  5
9E0
330
1D9
100
AcDbEntity
  8
0
100
AcDbCircle
 10
309.8002500000001
 20
298.7977499999996
 30
0.0
 40
0.69975
100
AcDbArc
 50
0.0
 51
90.0
  0
ARC
  5
9E1
330
1D9
100
AcDbEntity
  8
0
100
AcDbCircle
 10
314.1997500000001
 20
298.7977499999996
 30
0.0
 40
0.69975
100
AcDbArc
 50
90.0
 51
180.0
  0
ARC
  5
9E2
330
1D9
100
AcDbEntity
  8
0
100
AcDbCircle
 10
322.8002500000001
 20
298.7977499999996
 30
0.0
 40
0.69975
100
AcDbArc
 50
0.0
 51
90.0
  0
ARC
  5
9E3
330
1D9
100
AcDbEntity
  8
0
100
AcDbCircle
 10
315.599
 20
298.7974999999996
 30
0.0
 40
0.7
100
AcDbArc
 50
0.0
 51
90.0
  0
ARC
  5
9E4
330
1D9
100
AcDbEntity
  8
0
100
AcDbCircle
 10
321.4010000000003
 20
298.7974999999996
 30
0.0
 40
0.7
100
AcDbArc
 50
90.0
 51
180.0
  0
LINE
  5
9E5
330
1D9
100
AcDbEntity
  8
0
100
AcDbLine
 10
321.4010000000003
 20
299.4974999999994
 30
0.0
 11
322.8002500000001
 21
299.4975
 31
0.0
  0
LINE
  5
9E6
330
1D9
100
AcDbEntity
  8
0
100
AcDbLine
 10
334.6328710437013
 20
294.6864038624998
 30
0.0
 11
335.7197972277085
 21
294.6864038624998
 31
0.0
  0
ARC
  5
9E7
330
1D9
100
AcDbEntity
  8
0
100
AcDbCircle
 10
205.3284271247461
 20
415.5
 30
0.0
 40
2.0
100
AcDbArc
 50
90.0
 51
134.9999999999957
  0
LINE
  5
9E8
330
1D9
100
AcDbEntity
  8
0
100
AcDbLine
 10
203.9142135623733
 20
416.9142135623729
 30
0.0
 11
199.5000000000004
 21
412.5
 31
0.0
  0
ARC
  5
9E9
330
1D9
100
AcDbEntity
  8
0
100
AcDbCircle
 10
218.5000000000012
 20
841.408996800199
 30
0.0
 40
47.0
100
AcDbArc
 50
339.3485105906774
 51
0.0
  0
LINE
  5
9EA
330
1D9
100
AcDbEntity
  8
0
100
AcDbLine
 10
335.0000000000004
 20
915.9999999999964
 30
0.0
 11
335.0000000000004
 21
678.9999999999962
 31
0.0
  0
LINE
  5
9EB
330
1D9
100
AcDbEntity
  8
0
100
AcDbLine
 10
265.5000000000013
 20
753.5910031997937
 30
0.0
 11
265.5000000000013
 21
716.9999999999961
 31
0.0
  0
LINE
  5
9EC
330
1D9
100
AcDbEntity
  8
0
100
AcDbLine
 10
242.5000000000004
 20
682.9999999999962
 30
0.0
 11
242.5000000000004
 21
720.9999999999961
 31
0.0
  0
LINE
  5
9ED
330
1D9
100
AcDbEntity
  8
0
100
AcDbLine
 10
223.5000000000004
 20
713.9999999999964
 30
0.0
 11
222.5000000000004
 21
712.9999999999961
 31
0.0
  0
LINE
  5
9EE
330
1D9
100
AcDbEntity
  8
0
100
AcDbLine
 10
222.5000000000004
 20
690.9999999999961
 30
0.0
 11
223.5000000000004
 21
689.9999999999961
 31
0.0
  0
LINE
  5
9EF
330
1D9
100
AcDbEntity
  8
0
100
AcDbLine
 10
222.5000000000004
 20
690.9999999999961
 30
0.0
 11
222.5000000000004
 21
712.9999999999961
 31
0.0
  0
LINE
  5
9F0
330
1D9
100
AcDbEntity
  8
0
100
AcDbLine
 10
261.9142135623733
 20
685.5857864376234
 30
0.0
 11
257.5000000000004
 21
689.9999999999961
 31
0.0
  0
ARC
  5
9F1
330
1D9
100
AcDbEntity
  8
0
100
AcDbCircle
 10
262.5000000000013
 20
716.9999999999961
 30
0.0
 40
3.0
100
AcDbArc
 50
270.0
 51
0.0
  0
ARC
  5
9F2
330
1D9
100
AcDbEntity
  8
0
100
AcDbCircle
 10
263.3284271247461
 20
686.9999999999962
 30
0.0
 40
2.0
100
AcDbArc
 50
225.0000000000042
 51
270.0
  0
ARC
  5
9F3
330
1D9
100
AcDbEntity
  8
0
100
AcDbCircle
 10
335.0000000000004
 20
797.4999999999964
 30
0.0
 40
77.5
100
AcDbArc
 50
163.6772080106776
 51
196.3227919893221
  0
ARC
  5
9F4
330
1D9
100
AcDbEntity
  8
0
100
AcDbCircle
 10
260.8380151290439
 20
819.9999999999961
 30
0.0
 40
0.75
100
AcDbArc
 50
90.0
 51
253.3999692860199
  0
ARC
  5
9F5
330
1D9
100
AcDbEntity
  8
0
100
AcDbCircle
 10
335.0000000000004
 20
797.4999999999964
 30
0.0
 40
77.5
100
AcDbArc
 50
159.3485105906775
 51
162.5423968762678
  0
ARC
  5
9F6
330
1D9
100
AcDbEntity
  8
0
100
AcDbCircle
 10
335.0000000000004
 20
797.4999999999964
 30
0.0
 40
77.5
100
AcDbArc
 50
197.4576031237321
 51
200.6514894093224
  0
ARC
  5
9F7
330
1D9
100
AcDbEntity
  8
0
100
AcDbCircle
 10
260.8380151290439
 20
774.9999999999961
 30
0.0
 40
0.75
100
AcDbArc
 50
106.60003071398
 51
270.0
  0
ARC
  5
9F8
330
1D9
100
AcDbEntity
  8
0
100
AcDbCircle
 10
218.5000000000012
 20
753.5910031997937
 30
0.0
 40
47.0
100
AcDbArc
 50
0.0
 51
20.65148940932246
  0
ELLIPSE
  5
9F9
330
1D9
100
AcDbEntity
  8
0
100
AcDbEllipse
 10
335.0000000000004
 20
802.4999999999961
 30
0.0
 11
-2.0
 21
0.0
 31
0.0
210
0.0
220
0.0
230
-1.0
 40
0.6249999999999995
 41
-2.890721121359383
 42
-1.788300676620698
  0
ARC
  5
9FA
330
1D9
100
AcDbEntity
  8
0
100
AcDbCircle
 10
335.5000000000008
 20
800.7841536730452
 30
0.0
 40
0.5
100
AcDbArc
 50
97.86423407796238
 51
180.0
  0
LINE
  5
9FB
330
1D9
100
AcDbEntity
  8
0
100
AcDbLine
 10
335.0000000000004
 20
800.4999999999961
 30
0.0
 11
335.0000000000004
 21
800.7841536730452
 31
0.0
  0
ARC
  5
9FC
330
1D9
100
AcDbEntity
  8
0
100
AcDbCircle
 10
327.0000000000004
 20
801.9999999999964
 30
0.0
 40
0.5
100
AcDbArc
 50
0.0
 51
90.0
  0
ARC
  5
9FD
330
1D9
100
AcDbEntity
  8
0
100
AcDbCircle
 10
337.4000134970873
 20
801.9999999999964
 30
0.0
 40
0.5
100
AcDbArc
 50
90.0
 51
157.7047632776142
  0
ARC
  5
9FE
330
1D9
100
AcDbEntity
  8
0
100
AcDbCircle
 10
338.5000000000008
 20
801.9999999999964
 30
0.0
 40
0.5
100
AcDbArc
 50
0.0
 51
90.0
  0
LINE
  5
9FF
330
1D9
100
AcDbEntity
  8
0
100
AcDbLine
 10
337.4000134970873
 20
802.4999999999961
 30
0.0
 11
338.5000000000008
 21
802.4999999999961
 31
0.0
  0
LINE
  5
A00
330
1D9
100
AcDbEntity
  8
0
100
AcDbLine
 10
316.5000000000004
 20
802.4999999999961
 30
0.0
 11
317.5000000000004
 21
802.4999999999961
 31
0.0
  0
ARC
  5
A01
330
1D9
100
AcDbEntity
  8
0
100
AcDbCircle
 10
316.5000000000004
 20
801.9999999999964
 30
0.0
 40
0.5
100
AcDbArc
 50
90.0
 51
180.0
  0
ARC
  5
A02
330
1D9
100
AcDbEntity
  8
0
100
AcDbCircle
 10
321.5000000000003
 20
801.9999999999964
 30
0.0
 40
0.5
100
AcDbArc
 50
0.0
 51
90.0
  0
ARC
  5
A03
330
1D9
100
AcDbEntity
  8
0
100
AcDbCircle
 10
320.5000000000004
 20
801.9999999999964
 30
0.0
 40
0.5
100
AcDbArc
 50
90.0
 51
180.0
  0
ARC
  5
A04
330
1D9
100
AcDbEntity
  8
0
100
AcDbCircle
 10
317.5000000000004
 20
801.9999999999964
 30
0.0
 40
0.5
100
AcDbArc
 50
0.0
 51
90.0
  0
LINE
  5
A05
330
1D9
100
AcDbEntity
  8
0
100
AcDbLine
 10
320.5000000000004
 20
802.4999999999961
 30
0.0
 11
321.5000000000003
 21
802.4999999999961
 31
0.0
  0
ARC
  5
A06
330
1D9
100
AcDbEntity
  8
0
100
AcDbCircle
 10
326.0000000000004
 20
801.9999999999964
 30
0.0
 40
0.5
100
AcDbArc
 50
90.0
 51
180.0
  0
LINE
  5
A07
330
1D9
100
AcDbEntity
  8
0
100
AcDbLine
 10
326.0000000000004
 20
802.4999999999961
 30
0.0
 11
327.0000000000004
 21
802.4999999999961
 31
0.0
  0
LINE
  5
A08
330
1D9
100
AcDbEntity
  8
0
100
AcDbLine
 10
330.0000000000004
 20
798.4999999999961
 30
0.0
 11
333.5000000000003
 21
798.4999999999961
 31
0.0
  0
LINE
  5
A09
330
1D9
100
AcDbEntity
  8
0
100
AcDbLine
 10
333.5000000000003
 20
796.4999999999961
 30
0.0
 11
330.0000000000004
 21
796.4999999999961
 31
0.0
  0
LINE
  5
A0A
330
1D9
100
AcDbEntity
  8
0
100
AcDbLine
 10
329.5000000000003
 20
796.9999999999964
 30
0.0
 11
329.5000000000003
 21
797.9999999999964
 31
0.0
  0
ARC
  5
A0B
330
1D9
100
AcDbEntity
  8
0
100
AcDbCircle
 10
330.0000000000004
 20
797.9999999999964
 30
0.0
 40
0.5
100
AcDbArc
 50
90.0
 51
180.0
  0
ARC
  5
A0C
330
1D9
100
AcDbEntity
  8
0
100
AcDbCircle
 10
330.0000000000004
 20
796.9999999999964
 30
0.0
 40
0.5
100
AcDbArc
 50
180.0
 51
270.0
  0
ARC
  5
A0D
330
1D9
100
AcDbEntity
  8
0
100
AcDbCircle
 10
327.0000000000004
 20
792.9999999999964
 30
0.0
 40
0.5
100
AcDbArc
 50
270.0
 51
0.0
  0
LINE
  5
A0E
330
1D9
100
AcDbEntity
  8
0
100
AcDbLine
 10
337.0000000000004
 20
793.0002249999955
 30
0.0
 11
337.0000000000004
 21
799.9999999999961
 31
0.0
  0
ARC
  5
A0F
330
1D9
100
AcDbEntity
  8
0
100
AcDbCircle
 10
338.5000000000008
 20
793.0002249999955
 30
0.0
 40
0.5
100
AcDbArc
 50
270.0
 51
0.0
  0
ARC
  5
A10
330
1D9
100
AcDbEntity
  8
0
100
AcDbCircle
 10
337.5000000000003
 20
793.0002249999955
 30
0.0
 40
0.5
100
AcDbArc
 50
180.0
 51
270.0
  0
LINE
  5
A11
330
1D9
100
AcDbEntity
  8
0
100
AcDbLine
 10
338.5000000000008
 20
792.5002249999961
 30
0.0
 11
337.5000000000003
 21
792.5002249999961
 31
0.0
  0
LINE
  5
A12
330
1D9
100
AcDbEntity
  8
0
100
AcDbLine
 10
337.0000000000004
 20
799.9999999999961
 30
0.0
 11
335.5000000000008
 21
799.9999999999961
 31
0.0
  0
LINE
  5
A13
330
1D9
100
AcDbEntity
  8
0
100
AcDbLine
 10
334.0000000000003
 20
797.9999999999964
 30
0.0
 11
334.0000000000003
 21
796.9999999999964
 31
0.0
  0
ARC
  5
A14
330
1D9
100
AcDbEntity
  8
0
100
AcDbCircle
 10
333.5000000000003
 20
797.9999999999964
 30
0.0
 40
0.5
100
AcDbArc
 50
0.0
 51
90.0
  0
ARC
  5
A15
330
1D9
100
AcDbEntity
  8
0
100
AcDbCircle
 10
333.5000000000003
 20
796.9999999999964
 30
0.0
 40
0.5
100
AcDbArc
 50
270.0
 51
0.0
  0
ARC
  5
A16
330
1D9
100
AcDbEntity
  8
0
100
AcDbCircle
 10
315.0000000000003
 20
795.4999999999961
 30
0.0
 40
3.0
100
AcDbArc
 50
180.0
 51
0.0
  0
ARC
  5
A17
330
1D9
100
AcDbEntity
  8
0
100
AcDbCircle
 10
312.5000000000003
 20
795.9999999999961
 30
0.0
 40
0.5
100
AcDbArc
 50
90.0
 51
180.0
  0
ARC
  5
A18
330
1D9
100
AcDbEntity
  8
0
100
AcDbCircle
 10
313.5000000000004
 20
795.9999999999961
 30
0.0
 40
0.5
100
AcDbArc
 50
0.0
 51
90.0
  0
LINE
  5
A19
330
1D9
100
AcDbEntity
  8
0
100
AcDbLine
 10
313.5000000000004
 20
796.4999999999961
 30
0.0
 11
312.5000000000003
 21
796.4999999999961
 31
0.0
  0
LINE
  5
A1A
330
1D9
100
AcDbEntity
  8
0
100
AcDbLine
 10
314.0000000000004
 20
795.4999999999961
 30
0.0
 11
314.0000000000004
 21
795.9999999999961
 31
0.0
  0
ARC
  5
A1B
330
1D9
100
AcDbEntity
  8
0
100
AcDbCircle
 10
315.0000000000003
 20
795.4999999999961
 30
0.0
 40
1.0
100
AcDbArc
 50
180.0
 51
0.0
  0
LINE
  5
A1C
330
1D9
100
AcDbEntity
  8
0
100
AcDbLine
 10
312.0000000000004
 20
795.4999999999961
 30
0.0
 11
312.0000000000004
 21
795.9999999999961
 31
0.0
  0
LINE
  5
A1D
330
1D9
100
AcDbEntity
  8
0
100
AcDbLine
 10
322.0000000000004
 20
798.4999999999961
 30
0.0
 11
325.5000000000003
 21
798.4999999999961
 31
0.0
  0
LINE
  5
A1E
330
1D9
100
AcDbEntity
  8
0
100
AcDbLine
 10
325.5000000000003
 20
796.4999999999961
 30
0.0
 11
322.0000000000004
 21
796.4999999999961
 31
0.0
  0
LINE
  5
A1F
330
1D9
100
AcDbEntity
  8
0
100
AcDbLine
 10
322.0000000000004
 20
796.4999999999961
 30
0.0
 11
322.0000000000004
 21
792.9999999999964
 31
0.0
  0
ARC
  5
A20
330
1D9
100
AcDbEntity
  8
0
100
AcDbCircle
 10
320.5000000000004
 20
792.9999999999964
 30
0.0
 40
0.5
100
AcDbArc
 50
180.0
 51
270.0
  0
ARC
  5
A21
330
1D9
100
AcDbEntity
  8
0
100
AcDbCircle
 10
321.5000000000003
 20
792.9999999999964
 30
0.0
 40
0.5
100
AcDbArc
 50
270.0
 51
0.0
  0
LINE
  5
A22
330
1D9
100
AcDbEntity
  8
0
100
AcDbLine
 10
320.5000000000004
 20
792.4999999999961
 30
0.0
 11
321.5000000000003
 21
792.4999999999961
 31
0.0
  0
LINE
  5
A23
330
1D9
100
AcDbEntity
  8
0
100
AcDbLine
 10
325.5000000000003
 20
792.9999999999964
 30
0.0
 11
325.5000000000003
 21
796.4999999999961
 31
0.0
  0
ARC
  5
A24
330
1D9
100
AcDbEntity
  8
0
100
AcDbCircle
 10
326.0000000000004
 20
792.9999999999964
 30
0.0
 40
0.5
100
AcDbArc
 50
180.0
 51
270.0
  0
LINE
  5
A25
330
1D9
100
AcDbEntity
  8
0
100
AcDbLine
 10
326.0000000000004
 20
792.4999999999961
 30
0.0
 11
327.0000000000004
 21
792.4999999999961
 31
0.0
  0
LINE
  5
A26
330
1D9
100
AcDbEntity
  8
0
100
AcDbLine
 10
316.0000000000004
 20
795.4999999999961
 30
0.0
 11
316.0000000000004
 21
801.9999999999964
 31
0.0
  0
LINE
  5
A27
330
1D9
100
AcDbEntity
  8
0
100
AcDbLine
 10
325.5000000000003
 20
798.4999999999961
 30
0.0
 11
325.5000000000003
 21
801.9999999999964
 31
0.0
  0
LINE
  5
A28
330
1D9
100
AcDbEntity
  8
0
100
AcDbLine
 10
320.0000000000004
 20
792.9999999999964
 30
0.0
 11
320.0000000000004
 21
801.9999999999964
 31
0.0
  0
LINE
  5
A29
330
1D9
100
AcDbEntity
  8
0
100
AcDbLine
 10
322.0000000000004
 20
801.9999999999964
 30
0.0
 11
322.0000000000004
 21
798.4999999999961
 31
0.0
  0
LINE
  5
A2A
330
1D9
100
AcDbEntity
  8
0
100
AcDbLine
 10
339.0000000000004
 20
801.9999999999964
 30
0.0
 11
339.0000000000004
 21
793.0002249999955
 31
0.0
  0
LINE
  5
A2B
330
1D9
100
AcDbEntity
  8
0
100
AcDbLine
 10
327.5000000000003
 20
801.9999999999964
 30
0.0
 11
327.5000000000003
 21
792.9999999999964
 31
0.0
  0
LINE
  5
A2C
330
1D9
100
AcDbEntity
  8
0
100
AcDbLine
 10
318.0000000000004
 20
801.9999999999964
 30
0.0
 11
318.0000000000004
 21
795.4999999999961
 31
0.0
  0
ARC
  5
A2D
330
1D9
100
AcDbEntity
  8
0
100
AcDbCircle
 10
335.5000000000008
 20
800.4999999999961
 30
0.0
 40
0.5
100
AcDbArc
 50
180.0
 51
270.0
  0
ELLIPSE
  5
A2E
330
1D9
100
AcDbEntity
  8
0
100
AcDbEllipse
 10
354.2500000000008
 20
797.5191738667661
 30
0.0
 11
0.0
 21
4.749999999999941
 31
0.0
210
0.0
220
0.0
230
-1.0
 40
0.7894736842105358
 41
0.0
 42
6.283185307179585
  0
ELLIPSE
  5
A2F
330
1D9
100
AcDbEntity
  8
0
100
AcDbEllipse
 10
354.2500000000008
 20
797.5191738667661
 30
0.0
 11
0.0
 21
2.750000000000055
 31
0.0
210
0.0
220
0.0
230
-1.0
 40
0.6363636363636644
 41
0.0
 42
6.283185307179585
  0
ELLIPSE
  5
A30
330
1D9
100
AcDbEntity
  8
0
100
AcDbEllipse
 10
344.7500000000008
 20
797.5191738667661
 30
0.0
 11
0.0
 21
2.750000000000055
 31
0.0
210
0.0
220
0.0
230
-1.0
 40
0.6363636363636644
 41
0.0
 42
6.283185307179585
  0
ELLIPSE
  5
A31
330
1D9
100
AcDbEntity
  8
0
100
AcDbEllipse
 10
344.7500000000008
 20
797.5191738667661
 30
0.0
 11
0.0
 21
4.749999999999941
 31
0.0
210
0.0
220
0.0
230
-1.0
 40
0.7894736842105358
 41
0.0
 42
6.283185307179585
  0
LINE
  5
A32
330
1D9
100
AcDbEntity
  8
0
100
AcDbLine
 10
223.5000000000004
 20
904.9999999999963
 30
0.0
 11
222.5000000000004
 21
903.9999999999963
 31
0.0
  0
LINE
  5
A33
330
1D9
100
AcDbEntity
  8
0
100
AcDbLine
 10
222.5000000000004
 20
881.9999999999961
 30
0.0
 11
223.5000000000004
 21
880.9999999999961
 31
0.0
  0
LINE
  5
A34
330
1D9
100
AcDbEntity
  8
0
100
AcDbLine
 10
222.5000000000004
 20
903.9999999999963
 30
0.0
 11
222.5000000000004
 21
881.9999999999961
 31
0.0
  0
LINE
  5
A35
330
1D9
100
AcDbEntity
  8
0
100
AcDbLine
 10
242.5000000000004
 20
911.9999999999954
 30
0.0
 11
242.5000000000004
 21
873.9999999999954
 31
0.0
  0
LINE
  5
A36
330
1D9
100
AcDbEntity
  8
0
100
AcDbLine
 10
261.9142135623733
 20
909.4142135623693
 30
0.0
 11
257.5000000000004
 21
904.9999999999963
 31
0.0
  0
ARC
  5
A37
330
1D9
100
AcDbEntity
  8
0
100
AcDbCircle
 10
263.3284271247461
 20
907.9999999999964
 30
0.0
 40
2.0
100
AcDbArc
 50
90.0
 51
134.9999999999957
  0
ARC
  5
A38
330
1D9
100
AcDbEntity
  8
0
100
AcDbCircle
 10
262.5000000000013
 20
877.9999999999962
 30
0.0
 40
3.0
100
AcDbArc
 50
0.0
 51
90.0
  0
LINE
  5
A39
330
1D9
100
AcDbEntity
  8
0
100
AcDbLine
 10
265.5000000000013
 20
841.408996800199
 30
0.0
 11
265.5000000000013
 21
877.9999999999962
 31
0.0
  0
LINE
  5
A3A
330
1D9
100
AcDbEntity
  8
0
100
AcDbLine
 10
487.5
 20
421.4999999999991
 30
0.0
 11
487.5
 21
373.4999999999991
 31
0.0
  0
LINE
  5
A3B
330
1D9
100
AcDbEntity
  8
0
100
AcDbLine
 10
510.0000000000004
 20
411.5
 30
0.0
 11
510.0000000000004
 21
383.4999999999999
 31
0.0
  0
ARC
  5
A3C
330
1D9
100
AcDbEntity
  8
0
100
AcDbCircle
 10
335.0000000000004
 20
292.5
 30
0.0
 40
132.4999999999999
100
AcDbArc
 50
349.5567055090976
 51
10.44329449090225
  0
ARC
  5
A3D
330
1D9
100
AcDbEntity
  8
0
100
AcDbCircle
 10
335.0000000000004
 20
292.5
 30
0.0
 40
132.4999999999999
100
AcDbArc
 50
339.8549129282489
 51
348.6836237449784
  0
ARC
  5
A3E
330
1D9
100
AcDbEntity
  8
0
100
AcDbCircle
 10
465.1201367967313
 20
267.5
 30
0.0
 40
1.0
100
AcDbArc
 50
270.0
 51
79.34049450721936
  0
ARC
  5
A3F
330
1D9
100
AcDbEntity
  8
0
100
AcDbCircle
 10
462.5000000000004
 20
210.4999999999999
 30
0.0
 40
8.0
100
AcDbArc
 50
180.0
 51
270.0
  0
LINE
  5
A40
330
1D9
100
AcDbEntity
  8
0
100
AcDbLine
 10
454.4999999999998
 20
219.3153021458687
 30
0.0
 11
454.5000000000004
 21
210.4999999999995
 31
0.0
  0
ARC
  5
A41
330
1D9
100
AcDbEntity
  8
0
100
AcDbCircle
 10
534.4999999999998
 20
219.315302145871
 30
0.0
 40
80.0
100
AcDbArc
 50
159.854912928249
 51
180.0
  0
LINE
  5
A42
330
1D9
100
AcDbEntity
  8
0
100
AcDbLine
 10
454.4999999999998
 20
365.6846978541307
 30
0.0
 11
454.5000000000004
 21
374.5
 31
0.0
  0
ARC
  5
A43
330
1D9
100
AcDbEntity
  8
0
100
AcDbCircle
 10
534.4999999999998
 20
365.6846978541289
 30
0.0
 40
80.0
100
AcDbArc
 50
180.0
 51
200.1450870717508
  0
ARC
  5
A44
330
1D9
100
AcDbEntity
  8
0
100
AcDbCircle
 10
462.5000000000004
 20
374.5
 30
0.0
 40
8.0
100
AcDbArc
 50
90.0
 51
180.0
  0
ARC
  5
A45
330
1D9
100
AcDbEntity
  8
0
100
AcDbCircle
 10
465.1201367967313
 20
317.5
 30
0.0
 40
1.0
100
AcDbArc
 50
280.6595054927806
 51
90.0
  0
ARC
  5
A46
330
1D9
100
AcDbEntity
  8
0
100
AcDbCircle
 10
335.0000000000004
 20
292.5
 30
0.0
 40
132.4999999999999
100
AcDbArc
 50
11.3163762550215
 51
20.14508707175099
  0
LINE
  5
A47
330
1D9
100
AcDbEntity
  8
0
100
AcDbLine
 10
510.0000000000004
 20
201.5
 30
0.0
 11
509.0000000000004
 21
202.4999999999999
 31
0.0
  0
LINE
  5
A48
330
1D9
100
AcDbEntity
  8
0
100
AcDbLine
 10
510.0000000000004
 20
383.4999999999999
 30
0.0
 11
509.0000000000004
 21
382.5
 31
0.0
  0
ARC
  5
A49
330
1D9
100
AcDbEntity
  8
0
100
AcDbCircle
 10
464.6715728752542
 20
415.5
 30
0.0
 40
2.0
100
AcDbArc
 50
45.00000000000425
 51
90.0
  0
LINE
  5
A4A
330
1D9
100
AcDbEntity
  8
0
100
AcDbLine
 10
466.0857864376271
 20
416.9142135623729
 30
0.0
 11
470.5000000000004
 21
412.5
 31
0.0
  0
LINE
  5
A4B
330
1D9
100
AcDbEntity
  8
0
100
AcDbLine
 10
510.0000000000004
 20
411.5
 30
0.0
 11
509.0000000000004
 21
412.5
 31
0.0
  0
LINE
  5
A4C
330
1D9
100
AcDbEntity
  8
0
100
AcDbLine
 10
745.0000000000003
 20
411.5
 30
0.0
 11
745.0000000000003
 21
379.4999999999999
 31
0.0
  0
LINE
  5
A4D
330
1D9
100
AcDbEntity
  8
0
100
AcDbLine
 10
770.0000000000003
 20
421.4999999999991
 30
0.0
 11
770.0000000000003
 21
369.4999999999991
 31
0.0
  0
LINE
  5
A4E
330
1D9
100
AcDbEntity
  8
0
100
AcDbLine
 10
745.0000000000003
 20
205.5
 30
0.0
 11
746.0000000000003
 21
206.4999999999999
 31
0.0
  0
LINE
  5
A4F
330
1D9
100
AcDbEntity
  8
0
100
AcDbLine
 10
745.0000000000003
 20
379.4999999999999
 30
0.0
 11
746.0000000000003
 21
378.5
 31
0.0
  0
LINE
  5
A50
330
1D9
100
AcDbEntity
  8
0
100
AcDbLine
 10
746.0000000000003
 20
412.5
 30
0.0
 11
745.0000000000003
 21
411.5
 31
0.0
  0
ARC
  5
A51
330
1D9
100
AcDbEntity
  8
0
100
AcDbCircle
 10
451.4999999999995
 20
841.408996800199
 30
0.0
 40
47.0
100
AcDbArc
 50
180.0
 51
200.6514894093224
  0
LINE
  5
A52
330
1D9
100
AcDbEntity
  8
0
100
AcDbLine
 10
427.5000000000003
 20
682.9999999999962
 30
0.0
 11
427.5000000000003
 21
720.9999999999961
 31
0.0
  0
LINE
  5
A53
330
1D9
100
AcDbEntity
  8
0
100
AcDbLine
 10
404.4999999999994
 20
753.5910031997937
 30
0.0
 11
404.4999999999994
 21
716.9999999999961
 31
0.0
  0
ARC
  5
A54
330
1D9
100
AcDbEntity
  8
0
100
AcDbCircle
 10
407.4999999999994
 20
716.9999999999961
 30
0.0
 40
3.0
100
AcDbArc
 50
180.0
 51
270.0
  0
ARC
  5
A55
330
1D9
100
AcDbEntity
  8
0
100
AcDbCircle
 10
406.6715728752545
 20
686.9999999999962
 30
0.0
 40
2.0
100
AcDbArc
 50
270.0
 51
314.9999999999956
  0
LINE
  5
A56
330
1D9
100
AcDbEntity
  8
0
100
AcDbLine
 10
408.085786437628
 20
685.5857864376234
 30
0.0
 11
412.5000000000004
 21
689.9999999999961
 31
0.0
  0
LINE
  5
A57
330
1D9
100
AcDbEntity
  8
0
100
AcDbLine
 10
446.5000000000004
 20
713.9999999999964
 30
0.0
 11
447.5000000000004
 21
712.9999999999961
 31
0.0
  0
LINE
  5
A58
330
1D9
100
AcDbEntity
  8
0
100
AcDbLine
 10
447.5000000000004
 20
690.9999999999961
 30
0.0
 11
446.5000000000004
 21
689.9999999999961
 31
0.0
  0
LINE
  5
A59
330
1D9
100
AcDbEntity
  8
0
100
AcDbLine
 10
447.5000000000004
 20
690.9999999999961
 30
0.0
 11
447.5000000000004
 21
712.9999999999961
 31
0.0
  0
ARC
  5
A5A
330
1D9
100
AcDbEntity
  8
0
100
AcDbCircle
 10
409.1619848709574
 20
819.9999999999961
 30
0.0
 40
0.75
100
AcDbArc
 50
286.6000307139799
 51
90.0
  0
ARC
  5
A5B
330
1D9
100
AcDbEntity
  8
0
100
AcDbCircle
 10
335.0000000000004
 20
797.4999999999964
 30
0.0
 40
77.5
100
AcDbArc
 50
17.45760312373212
 51
20.65148940932246
  0
ARC
  5
A5C
330
1D9
100
AcDbEntity
  8
0
100
AcDbCircle
 10
335.0000000000004
 20
797.4999999999964
 30
0.0
 40
77.5
100
AcDbArc
 50
339.3485105906774
 51
342.5423968762677
  0
ARC
  5
A5D
330
1D9
100
AcDbEntity
  8
0
100
AcDbCircle
 10
409.1619848709574
 20
774.9999999999961
 30
0.0
 40
0.75
100
AcDbArc
 50
270.0
 51
73.39996928602001
  0
ARC
  5
A5E
330
1D9
100
AcDbEntity
  8
0
100
AcDbCircle
 10
335.0000000000004
 20
797.4999999999964
 30
0.0
 40
77.5
100
AcDbArc
 50
343.6772080106777
 51
16.3227919893222
  0
ARC
  5
A5F
330
1D9
100
AcDbEntity
  8
0
100
AcDbCircle
 10
451.4999999999995
 20
753.5910031997937
 30
0.0
 40
47.0
100
AcDbArc
 50
159.3485105906775
 51
180.0
  0
ARC
  5
A60
330
1D9
100
AcDbEntity
  8
0
100
AcDbCircle
 10
407.4999999999994
 20
877.9999999999962
 30
0.0
 40
3.0
100
AcDbArc
 50
90.0
 51
180.0
  0
ARC
  5
A61
330
1D9
100
AcDbEntity
  8
0
100
AcDbCircle
 10
406.6715728752545
 20
907.9999999999964
 30
0.0
 40
2.0
100
AcDbArc
 50
45.00000000000425
 51
90.0
  0
LINE
  5
A62
330
1D9
100
AcDbEntity
  8
0
100
AcDbLine
 10
408.085786437628
 20
909.4142135623693
 30
0.0
 11
412.5000000000004
 21
904.9999999999963
 31
0.0
  0
LINE
  5
A63
330
1D9
100
AcDbEntity
  8
0
100
AcDbLine
 10
427.5000000000003
 20
911.9999999999954
 30
0.0
 11
427.5000000000003
 21
873.9999999999954
 31
0.0
  0
LINE
  5
A64
330
1D9
100
AcDbEntity
  8
0
100
AcDbLine
 10
404.4999999999994
 20
841.408996800199
 30
0.0
 11
404.4999999999994
 21
877.9999999999962
 31
0.0
  0
LINE
  5
A65
330
1D9
100
AcDbEntity
  8
0
100
AcDbLine
 10
446.5000000000004
 20
904.9999999999963
 30
0.0
 11
447.5000000000004
 21
903.9999999999963
 31
0.0
  0
LINE
  5
A66
330
1D9
100
AcDbEntity
  8
0
100
AcDbLine
 10
447.5000000000004
 20
881.9999999999961
 30
0.0
 11
446.5000000000004
 21
880.9999999999961
 31
0.0
  0
LINE
  5
A67
330
1D9
100
AcDbEntity
  8
0
100
AcDbLine
 10
447.5000000000004
 20
903.9999999999963
 30
0.0
 11
447.5000000000004
 21
881.9999999999961
 31
0.0
  0
LINE
  5
A68
330
1D9
100
AcDbEntity
  8
0
100
AcDbLine
 10
1427.5
 20
163.4999999999999
 30
0.0
 11
1427.5
 21
217.5
 31
0.0
  0
LINE
  5
A69
330
1D9
100
AcDbEntity
  8
0
100
AcDbLine
 10
1402.5
 20
173.5
 30
0.0
 11
1402.5
 21
207.5
 31
0.0
  0
LINE
  5
A6A
330
1D9
100
AcDbEntity
  8
0
100
AcDbLine
 10
1175.0
 20
173.5
 30
0.0
 11
1175.0
 21
205.5
 31
0.0
  0
LINE
  5
A6B
330
1D9
100
AcDbEntity
  8
0
100
AcDbLine
 10
1150.0
 20
163.4999999999999
 30
0.0
 11
1150.0
 21
215.5
 31
0.0
  0
LINE
  5
A6C
330
1D9
100
AcDbEntity
  8
0
100
AcDbLine
 10
960.0000000000003
 20
158.4999999999999
 30
0.0
 11
960.0000000000003
 21
426.4999999999999
 31
0.0
  0
LINE
  5
A6D
330
1D9
100
AcDbEntity
  8
0
100
AcDbLine
 10
1290.0
 20
0.0
 30
0.0
 11
1290.0
 21
1009.999999999998
 31
0.0
  0
TEXT
  5
A6E
330
1D9
100
AcDbEntity
  8
0
100
AcDbText
 10
845.5000000000003
 20
7.5
 30
0.0
 40
15.0
  1
ハイパー２０：ＪＨ－２５０
 72
     4
 11
960.0000000000003
 21
15.0
 31
0.0
100
AcDbText
  0
LINE
  5
A6F
330
1D9
100
AcDbEntity
  8
0
100
AcDbLine
 10
1122.171572875254
 20
167.5
 30
0.0
 11
797.8284271247465
 21
167.5
 31
0.0
  0
ARC
  5
A70
330
1D9
100
AcDbEntity
  8
0
100
AcDbCircle
 10
797.8284271247465
 20
169.5
 30
0.0
 40
2.0
100
AcDbArc
 50
225.0000000000042
 51
270.0
  0
LINE
  5
A71
330
1D9
100
AcDbEntity
  8
0
100
AcDbLine
 10
796.4142135623737
 20
168.0857864376267
 30
0.0
 11
792.0000000000003
 21
172.5
 31
0.0
  0
ARC
  5
A72
330
1D9
100
AcDbEntity
  8
0
100
AcDbCircle
 10
1122.171572875254
 20
169.5
 30
0.0
 40
2.0
100
AcDbArc
 50
270.0
 51
314.9999999999956
  0
LINE
  5
A73
330
1D9
100
AcDbEntity
  8
0
100
AcDbLine
 10
1123.585786437627
 20
168.0857864376267
 30
0.0
 11
1128.0
 21
172.5
 31
0.0
  0
LINE
  5
A74
330
1D9
100
AcDbEntity
  8
0
100
AcDbLine
 10
1174.0
 20
172.5
 30
0.0
 11
1175.0
 21
173.5
 31
0.0
  0
LINE
  5
A75
330
1D9
100
AcDbEntity
  8
0
100
AcDbLine
 10
1402.5
 20
173.5
 30
0.0
 11
1403.5
 21
172.5
 31
0.0
  0
ARC
  5
A76
330
1D9
100
AcDbEntity
  8
0
100
AcDbCircle
 10
1457.328427124744
 20
169.5
 30
0.0
 40
2.0
100
AcDbArc
 50
225.0000000000042
 51
270.0
  0
LINE
  5
A77
330
1D9
100
AcDbEntity
  8
0
100
AcDbLine
 10
1455.914213562372
 20
168.0857864376267
 30
0.0
 11
1451.5
 21
172.5
 31
0.0
  0
TEXT
  5
A78
330
1D9
100
AcDbEntity
  8
0
100
AcDbText
 10
845.5000000000003
 20
562.5
 30
0.0
 40
15.0
  1
ハイパー２０：ＪＨ－１２５
 72
     4
 11
960.0000000000003
 21
570.0
 31
0.0
100
AcDbText
  0
LINE
  5
A79
330
1D9
100
AcDbEntity
  8
0
100
AcDbLine
 10
1118.187968912534
 20
316.5117990022709
 30
0.0
 11
801.8120310874643
 21
316.5117990022709
 31
0.0
  0
LINE
  5
A7A
330
1D9
100
AcDbEntity
  8
0
100
AcDbLine
 10
1117.873366974927
 20
318.5
 30
0.0
 11
802.1266330250732
 21
318.5
 31
0.0
  0
LINE
  5
A7B
330
1D9
100
AcDbEntity
  8
0
100
AcDbLine
 10
1117.873366974927
 20
266.5
 30
0.0
 11
802.1266330250732
 21
266.5
 31
0.0
  0
LINE
  5
A7C
330
1D9
100
AcDbEntity
  8
0
100
AcDbLine
 10
1118.187968912536
 20
268.488200997729
 30
0.0
 11
801.8120310874643
 21
268.488200997729
 31
0.0
  0
LINE
  5
A7D
330
1D9
100
AcDbEntity
  8
0
100
AcDbLine
 10
1122.171572875254
 20
417.4999999999999
 30
0.0
 11
797.8284271247465
 21
417.4999999999999
 31
0.0
  0
ARC
  5
A7E
330
1D9
100
AcDbEntity
  8
0
100
AcDbCircle
 10
976.6000700000002
 20
290.4000299999998
 30
0.0
 40
4.899929999999995
100
AcDbArc
 50
214.4173887104479
 51
109.0881237431214
  0
ARC
  5
A7F
330
1D9
100
AcDbEntity
  8
0
100
AcDbCircle
 10
973.279725890989
 20
288.1250624999998
 30
0.0
 40
0.8749874999999999
100
AcDbArc
 50
90.0
 51
214.4173887104479
  0
LINE
  5
A80
330
1D9
100
AcDbEntity
  8
0
100
AcDbLine
 10
972.8592756263694
 20
291.80001
 30
0.0
 11
974.6830684348607
 21
291.80001
 31
0.0
  0
ARC
  5
A81
330
1D9
100
AcDbEntity
  8
0
100
AcDbCircle
 10
973.3797981792772
 20
298.6245975044993
 30
0.0
 40
0.8749874999999999
100
AcDbArc
 50
90.0
 51
174.9999999999995
  0
ARC
  5
A82
330
1D9
100
AcDbEntity
  8
0
100
AcDbCircle
 10
960.0000000000003
 20
292.5
 30
0.0
 40
160.0
100
AcDbArc
 50
171.3687998596443
 51
188.6312001403556
  0
ARC
  5
A83
330
1D9
100
AcDbEntity
  8
0
100
AcDbCircle
 10
960.0000000000003
 20
292.5
 30
0.0
 40
160.0
100
AcDbArc
 50
189.352035057556
 51
199.3764033395489
  0
ARC
  5
A84
330
1D9
100
AcDbEntity
  8
0
100
AcDbCircle
 10
801.9651937072094
 20
267.5
 30
0.0
 40
1.0
100
AcDbArc
 50
98.81024974271609
 51
270.0
  0
ARC
  5
A85
330
1D9
100
AcDbEntity
  8
0
100
AcDbCircle
 10
804.0347137587257
 20
216.5
 30
0.0
 40
10.0
100
AcDbArc
 50
270.0
 51
5.96272128760623
  0
ARC
  5
A86
330
1D9
100
AcDbEntity
  8
0
100
AcDbCircle
 10
718.5000000000003
 20
207.5662022514003
 30
0.0
 40
96.0
100
AcDbArc
 50
5.96272128760623
 51
19.37640333954905
  0
ARC
  5
A87
330
1D9
100
AcDbEntity
  8
0
100
AcDbCircle
 10
718.5000000000003
 20
377.4337977485993
 30
0.0
 40
96.0
100
AcDbArc
 50
340.6235966604508
 51
354.0372787123936
  0
ARC
  5
A88
330
1D9
100
AcDbEntity
  8
0
100
AcDbCircle
 10
804.0347137587257
 20
368.5
 30
0.0
 40
10.0
100
AcDbArc
 50
354.0372787123936
 51
90.0
  0
ARC
  5
A89
330
1D9
100
AcDbEntity
  8
0
100
AcDbCircle
 10
801.9651937072094
 20
317.5
 30
0.0
 40
1.0
100
AcDbArc
 50
90.0
 51
261.1897502572838
  0
ARC
  5
A8A
330
1D9
100
AcDbEntity
  8
0
100
AcDbCircle
 10
960.0000000000003
 20
292.5
 30
0.0
 40
160.0
100
AcDbArc
 50
160.6235966604509
 51
170.6479649424439
  0
ARC
  5
A8B
330
1D9
100
AcDbEntity
  8
0
100
AcDbCircle
 10
963.4705468750002
 20
294.6864038624998
 30
0.0
 40
4.810781250000006
100
AcDbArc
 50
309.2797387857903
 51
167.1604115930986
  0
ARC
  5
A8C
330
1D9
100
AcDbEntity
  8
0
100
AcDbCircle
 10
963.4705468750002
 20
294.6864038624998
 30
0.0
 40
2.011781250000003
100
AcDbArc
 50
309.2797387857903
 51
162.3602986057818
  0
LINE
  5
A8D
330
1D9
100
AcDbEntity
  8
0
100
AcDbLine
 10
932.7010000000003
 20
290.5024999999996
 30
0.0
 11
932.7010000000003
 21
298.7977499999996
 31
0.0
  0
LINE
  5
A8E
330
1D9
100
AcDbEntity
  8
0
100
AcDbLine
 10
935.5000000000003
 20
298.7977499999996
 30
0.0
 11
935.5000000000003
 21
290.5024999999996
 31
0.0
  0
LINE
  5
A8F
330
1D9
100
AcDbEntity
  8
0
100
AcDbLine
 10
938.5000000000003
 20
286.2022499999998
 30
0.0
 11
938.5000000000003
 21
298.7977499999996
 31
0.0
  0
LINE
  5
A90
330
1D9
100
AcDbEntity
  8
0
100
AcDbLine
 10
948.5000000000002
 20
298.7977499999996
 30
0.0
 11
948.5000000000002
 21
286.2022499999998
 31
0.0
  0
LINE
  5
A91
330
1D9
100
AcDbEntity
  8
0
100
AcDbLine
 10
961.4559398986825
 20
290.4396712895476
 30
0.0
 11
964.7442200367406
 21
293.1291561381759
 31
0.0
  0
LINE
  5
A92
330
1D9
100
AcDbEntity
  8
0
100
AcDbLine
 10
950.5000000000004
 20
291.8002499999998
 30
0.0
 11
950.5000000000004
 21
293.1997499999998
 31
0.0
  0
LINE
  5
A93
330
1D9
100
AcDbEntity
  8
0
100
AcDbLine
 10
956.5000000000003
 20
293.1997499999998
 30
0.0
 11
956.5000000000003
 21
291.8002499999998
 31
0.0
  0
LINE
  5
A94
330
1D9
100
AcDbEntity
  8
0
100
AcDbLine
 10
971.9876177179731
 20
292.7512576854574
 30
0.0
 11
972.5081402708806
 21
298.7008576899571
 31
0.0
  0
LINE
  5
A95
330
1D9
100
AcDbEntity
  8
0
100
AcDbLine
 10
963.2627718340755
 20
288.3014999999999
 30
0.0
 11
967.6253125000007
 21
288.3014999999999
 31
0.0
  0
LINE
  5
A96
330
1D9
100
AcDbEntity
  8
0
100
AcDbLine
 10
963.2627718340755
 20
288.3014999999999
 30
0.0
 11
966.5162870443806
 21
290.9625506086809
 31
0.0
  0
LINE
  5
A97
330
1D9
100
AcDbEntity
  8
0
100
AcDbLine
 10
967.6253125000007
 20
285.5024999999995
 30
0.0
 11
959.6019503299608
 21
285.5024999999995
 31
0.0
  0
LINE
  5
A98
330
1D9
100
AcDbEntity
  8
0
100
AcDbLine
 10
939.1997500000007
 20
285.5024999999995
 30
0.0
 11
940.5992500000008
 21
285.5024999999995
 31
0.0
  0
LINE
  5
A99
330
1D9
100
AcDbEntity
  8
0
100
AcDbLine
 10
927.5990000000003
 20
291.5024999999996
 30
0.0
 11
926.2000000000002
 21
291.5024999999996
 31
0.0
  0
ARC
  5
A9A
330
1D9
100
AcDbEntity
  8
0
100
AcDbCircle
 10
930.5000000000003
 20
290.5024999999996
 30
0.0
 40
5.0
100
AcDbArc
 50
180.0
 51
0.0
  0
ARC
  5
A9B
330
1D9
100
AcDbEntity
  8
0
100
AcDbCircle
 10
926.2000000000002
 20
290.8024999999998
 30
0.0
 40
0.7
100
AcDbArc
 50
90.0
 51
180.0
  0
LINE
  5
A9C
330
1D9
100
AcDbEntity
  8
0
100
AcDbLine
 10
925.5000000000004
 20
290.5024999999996
 30
0.0
 11
925.5000000000004
 21
290.8024999999998
 31
0.0
  0
ARC
  5
A9D
330
1D9
100
AcDbEntity
  8
0
100
AcDbCircle
 10
927.5990000000003
 20
290.8024999999998
 30
0.0
 40
0.7
100
AcDbArc
 50
0.0
 51
90.0
  0
LINE
  5
A9E
330
1D9
100
AcDbEntity
  8
0
100
AcDbLine
 10
928.2990000000003
 20
290.5024999999996
 30
0.0
 11
928.2990000000003
 21
290.8024999999998
 31
0.0
  0
ARC
  5
A9F
330
1D9
100
AcDbEntity
  8
0
100
AcDbCircle
 10
939.1997500000007
 20
286.2022499999998
 30
0.0
 40
0.69975
100
AcDbArc
 50
180.0
 51
270.0
  0
ARC
  5
AA0
330
1D9
100
AcDbEntity
  8
0
100
AcDbCircle
 10
930.5000000000003
 20
290.5024999999996
 30
0.0
 40
2.20100000000002
100
AcDbArc
 50
180.0
 51
0.0
  0
LINE
  5
AA1
330
1D9
100
AcDbEntity
  8
0
100
AcDbLine
 10
955.8002500000007
 20
291.1005
 30
0.0
 11
951.1997500000003
 21
291.1005
 31
0.0
  0
LINE
  5
AA2
330
1D9
100
AcDbEntity
  8
0
100
AcDbLine
 10
945.7010000000002
 20
291.1005
 30
0.0
 11
941.2990000000004
 21
291.1005
 31
0.0
  0
LINE
  5
AA3
330
1D9
100
AcDbEntity
  8
0
100
AcDbLine
 10
941.2990000000004
 20
291.1005
 30
0.0
 11
941.2990000000004
 21
286.2022499999998
 31
0.0
  0
ARC
  5
AA4
330
1D9
100
AcDbEntity
  8
0
100
AcDbCircle
 10
940.5992500000008
 20
286.2022499999998
 30
0.0
 40
0.69975
100
AcDbArc
 50
270.0
 51
0.0
  0
LINE
  5
AA5
330
1D9
100
AcDbEntity
  8
0
100
AcDbLine
 10
945.7010000000002
 20
286.2022499999998
 30
0.0
 11
945.7010000000002
 21
291.1005
 31
0.0
  0
LINE
  5
AA6
330
1D9
100
AcDbEntity
  8
0
100
AcDbLine
 10
946.4007500000006
 20
285.5024999999995
 30
0.0
 11
947.8002500000007
 21
285.5024999999995
 31
0.0
  0
ARC
  5
AA7
330
1D9
100
AcDbEntity
  8
0
100
AcDbCircle
 10
947.8002500000007
 20
286.2022499999998
 30
0.0
 40
0.69975
100
AcDbArc
 50
270.0
 51
0.0
  0
ARC
  5
AA8
330
1D9
100
AcDbEntity
  8
0
100
AcDbCircle
 10
951.1997500000003
 20
291.8002499999998
 30
0.0
 40
0.69975
100
AcDbArc
 50
180.0
 51
270.0
  0
ARC
  5
AA9
330
1D9
100
AcDbEntity
  8
0
100
AcDbCircle
 10
946.4007500000006
 20
286.2022499999998
 30
0.0
 40
0.69975
100
AcDbArc
 50
180.0
 51
270.0
  0
ARC
  5
AAA
330
1D9
100
AcDbEntity
  8
0
100
AcDbCircle
 10
955.8002500000007
 20
291.8002499999998
 30
0.0
 40
0.69975
100
AcDbArc
 50
270.0
 51
0.0
  0
ARC
  5
AAB
330
1D9
100
AcDbEntity
  8
0
100
AcDbCircle
 10
966.9936492975551
 20
283.6690290098772
 30
0.0
 40
8.746874999999999
100
AcDbArc
 50
129.2797387857903
 51
159.8782594025906
  0
ARC
  5
AAC
330
1D9
100
AcDbEntity
  8
0
100
AcDbCircle
 10
959.6019503299608
 20
286.3771874999997
 30
0.0
 40
0.8746874999999999
100
AcDbArc
 50
159.8782594025906
 51
270.0
  0
ARC
  5
AAD
330
1D9
100
AcDbEntity
  8
0
100
AcDbCircle
 10
972.8592756263694
 20
292.6749974999998
 30
0.0
 40
0.8749874999999999
100
AcDbArc
 50
174.9999999999995
 51
270.0
  0
ARC
  5
AAE
330
1D9
100
AcDbEntity
  8
0
100
AcDbCircle
 10
967.6253125000007
 20
287.4268124999998
 30
0.0
 40
0.8746874999999999
100
AcDbArc
 50
0.0
 51
90.0
  0
ARC
  5
AAF
330
1D9
100
AcDbEntity
  8
0
100
AcDbCircle
 10
967.6253125000007
 20
286.3771874999997
 30
0.0
 40
0.8746874999999999
100
AcDbArc
 50
270.0
 51
0.0
  0
LINE
  5
AB0
330
1D9
100
AcDbEntity
  8
0
100
AcDbLine
 10
968.5000000000004
 20
287.4268124999998
 30
0.0
 11
968.5000000000004
 21
286.3771874999997
 31
0.0
  0
LINE
  5
AB1
330
1D9
100
AcDbEntity
  8
0
100
AcDbLine
 10
941.2990000000004
 20
298.7974999999996
 30
0.0
 11
941.2990000000004
 21
293.8994999999994
 31
0.0
  0
LINE
  5
AB2
330
1D9
100
AcDbEntity
  8
0
100
AcDbLine
 10
945.7010000000002
 20
293.8994999999994
 30
0.0
 11
945.7010000000002
 21
298.7974999999996
 31
0.0
  0
ARC
  5
AB3
330
1D9
100
AcDbEntity
  8
0
100
AcDbCircle
 10
959.6328710437015
 20
295.5610913625001
 30
0.0
 40
0.8746874999999999
100
AcDbArc
 50
167.1604115930986
 51
270.0
  0
ARC
  5
AB4
330
1D9
100
AcDbEntity
  8
0
100
AcDbCircle
 10
960.7197972277086
 20
295.5610913625001
 30
0.0
 40
0.8746874999999999
100
AcDbArc
 50
270.0
 51
342.3602986057817
  0
LINE
  5
AB5
330
1D9
100
AcDbEntity
  8
0
100
AcDbLine
 10
951.1997500000003
 20
293.8994999999999
 30
0.0
 11
955.8002500000007
 21
293.8994999999999
 31
0.0
  0
LINE
  5
AB6
330
1D9
100
AcDbEntity
  8
0
100
AcDbLine
 10
941.2990000000004
 20
293.8994999999994
 30
0.0
 11
945.7010000000002
 21
293.8994999999994
 31
0.0
  0
ARC
  5
AB7
330
1D9
100
AcDbEntity
  8
0
100
AcDbCircle
 10
951.1997500000003
 20
293.1997499999998
 30
0.0
 40
0.69975
100
AcDbArc
 50
90.0
 51
180.0
  0
ARC
  5
AB8
330
1D9
100
AcDbEntity
  8
0
100
AcDbCircle
 10
955.8002500000007
 20
293.1997499999998
 30
0.0
 40
0.69975
100
AcDbArc
 50
0.0
 51
90.0
  0
LINE
  5
AB9
330
1D9
100
AcDbEntity
  8
0
100
AcDbLine
 10
939.1997500000003
 20
299.4975
 30
0.0
 11
940.5990000000006
 21
299.4974999999994
 31
0.0
  0
ARC
  5
ABA
330
1D9
100
AcDbEntity
  8
0
100
AcDbCircle
 10
933.4007500000003
 20
298.7977499999996
 30
0.0
 40
0.69975
100
AcDbArc
 50
90.0
 51
180.0
  0
ARC
  5
ABB
330
1D9
100
AcDbEntity
  8
0
100
AcDbCircle
 10
934.8002500000005
 20
298.7977499999996
 30
0.0
 40
0.69975
100
AcDbArc
 50
0.0
 51
90.0
  0
LINE
  5
ABC
330
1D9
100
AcDbEntity
  8
0
100
AcDbLine
 10
933.4007500000003
 20
299.4975
 30
0.0
 11
934.8002500000005
 21
299.4975
 31
0.0
  0
ARC
  5
ABD
330
1D9
100
AcDbEntity
  8
0
100
AcDbCircle
 10
939.1997500000003
 20
298.7977499999996
 30
0.0
 40
0.69975
100
AcDbArc
 50
90.0
 51
180.0
  0
ARC
  5
ABE
330
1D9
100
AcDbEntity
  8
0
100
AcDbCircle
 10
940.5990000000006
 20
298.7974999999996
 30
0.0
 40
0.7
100
AcDbArc
 50
0.0
 51
90.0
  0
LINE
  5
ABF
330
1D9
100
AcDbEntity
  8
0
100
AcDbLine
 10
946.4010000000003
 20
299.4974999999994
 30
0.0
 11
947.8002500000007
 21
299.4975
 31
0.0
  0
ARC
  5
AC0
330
1D9
100
AcDbEntity
  8
0
100
AcDbCircle
 10
947.8002500000007
 20
298.7977499999996
 30
0.0
 40
0.69975
100
AcDbArc
 50
0.0
 51
90.0
  0
ARC
  5
AC1
330
1D9
100
AcDbEntity
  8
0
100
AcDbCircle
 10
946.4010000000003
 20
298.7974999999996
 30
0.0
 40
0.7
100
AcDbArc
 50
90.0
 51
180.0
  0
LINE
  5
AC2
330
1D9
100
AcDbEntity
  8
0
100
AcDbLine
 10
959.6328710437015
 20
294.6864038624998
 30
0.0
 11
960.7197972277086
 21
294.6864038624998
 31
0.0
  0
LINE
  5
AC3
330
1D9
100
AcDbEntity
  8
0
100
AcDbLine
 10
796.4142135623737
 20
416.9142135623729
 30
0.0
 11
792.0000000000003
 21
412.5
 31
0.0
  0
ARC
  5
AC4
330
1D9
100
AcDbEntity
  8
0
100
AcDbCircle
 10
797.8284271247465
 20
415.5
 30
0.0
 40
2.0
100
AcDbArc
 50
90.0
 51
134.9999999999957
  0
LINE
  5
AC5
330
1D9
100
AcDbEntity
  8
0
100
AcDbLine
 10
1150.0
 20
421.4999999999991
 30
0.0
 11
1150.0
 21
369.4999999999991
 31
0.0
  0
ELLIPSE
  5
AC6
330
1D9
100
AcDbEntity
  8
0
100
AcDbEllipse
 10
989.499954172466
 20
292.5
 30
0.0
 11
-0.0000000000000087
 21
6.647624999999917
 31
0.0
210
0.0
220
0.0
230
-1.0
 40
0.7894736842105358
 41
0.0
 42
6.283185307179585
  0
ELLIPSE
  5
AC7
330
1D9
100
AcDbEntity
  8
0
100
AcDbEllipse
 10
989.499954172466
 20
292.5
 30
0.0
 11
-0.000000000000005
 21
3.848625000000076
 31
0.0
210
0.0
220
0.0
230
-1.0
 40
0.6363636363636644
 41
0.0
 42
6.283185307179585
  0
ARC
  5
AC8
330
1D9
100
AcDbEntity
  8
0
100
AcDbCircle
 10
974.6830684348607
 20
288.1250624999998
 30
0.0
 40
0.8749874999999999
100
AcDbArc
 50
49.8808331016075
 51
90.0
  0
LINE
  5
AC9
330
1D9
100
AcDbEntity
  8
0
100
AcDbLine
 10
974.6830684348607
 20
289.0000499999997
 30
0.0
 11
973.279725890989
 21
289.0000499999997
 31
0.0
  0
ARC
  5
ACA
330
1D9
100
AcDbEntity
  8
0
100
AcDbCircle
 10
976.6000700000002
 20
290.4000299999998
 30
0.0
 40
2.099969999999999
100
AcDbArc
 50
229.8808331016072
 51
130.1191668983924
  0
ARC
  5
ACB
330
1D9
100
AcDbEntity
  8
0
100
AcDbCircle
 10
974.6830684348607
 20
292.6749974999998
 30
0.0
 40
0.8749874999999999
100
AcDbArc
 50
270.0
 51
310.1191668983923
  0
LINE
  5
ACC
330
1D9
100
AcDbEntity
  8
0
100
AcDbLine
 10
973.3797981792772
 20
299.4995850044998
 30
0.0
 11
979.4000300000003
 21
299.4995850044998
 31
0.0
  0
LINE
  5
ACD
330
1D9
100
AcDbEntity
  8
0
100
AcDbLine
 10
979.2250325000003
 20
296.6996250044999
 30
0.0
 11
975.1437104901532
 21
296.6996250044999
 31
0.0
  0
LINE
  5
ACE
330
1D9
100
AcDbEntity
  8
0
100
AcDbLine
 10
974.9976849781392
 20
295.0305457646436
 30
0.0
 11
975.1437104901532
 21
296.6996250044999
 31
0.0
  0
LINE
  5
ACF
330
1D9
100
AcDbEntity
  8
0
100
AcDbLine
 10
980.1000200000002
 20
298.7995950044997
 30
0.0
 11
980.1000200000002
 21
297.5746125044998
 31
0.0
  0
ARC
  5
AD0
330
1D9
100
AcDbEntity
  8
0
100
AcDbCircle
 10
979.4000300000003
 20
298.7995950044997
 30
0.0
 40
0.6999900000000002
100
AcDbArc
 50
0.0
 51
90.0
  0
ARC
  5
AD1
330
1D9
100
AcDbEntity
  8
0
100
AcDbCircle
 10
979.2250325000003
 20
297.5746125044998
 30
0.0
 40
0.8749874999999999
100
AcDbArc
 50
270.0
 51
0.0
  0
ARC
  5
AD2
330
1D9
100
AcDbEntity
  8
0
100
AcDbCircle
 10
960.0000000000003
 20
292.5
 30
0.0
 40
160.0
100
AcDbArc
 50
351.3687998596441
 51
8.631200140355687
  0
ARC
  5
AD3
330
1D9
100
AcDbEntity
  8
0
100
AcDbCircle
 10
960.0000000000003
 20
292.5
 30
0.0
 40
160.0
100
AcDbArc
 50
340.6235966604508
 51
350.6479649424438
  0
ARC
  5
AD4
330
1D9
100
AcDbEntity
  8
0
100
AcDbCircle
 10
1118.034806292791
 20
267.5
 30
0.0
 40
1.0
100
AcDbArc
 50
270.0
 51
81.18975025728394
  0
ARC
  5
AD5
330
1D9
100
AcDbEntity
  8
0
100
AcDbCircle
 10
1115.965286241274
 20
216.5
 30
0.0
 40
10.0
100
AcDbArc
 50
174.0372787123936
 51
270.0
  0
ARC
  5
AD6
330
1D9
100
AcDbEntity
  8
0
100
AcDbCircle
 10
1201.5
 20
207.5662022514003
 30
0.0
 40
96.0
100
AcDbArc
 50
160.6235966604509
 51
174.0372787123936
  0
ARC
  5
AD7
330
1D9
100
AcDbEntity
  8
0
100
AcDbCircle
 10
1201.5
 20
377.4337977485993
 30
0.0
 40
96.0
100
AcDbArc
 50
185.9627212876062
 51
199.3764033395489
  0
ARC
  5
AD8
330
1D9
100
AcDbEntity
  8
0
100
AcDbCircle
 10
1115.965286241274
 20
368.5
 30
0.0
 40
10.0
100
AcDbArc
 50
90.0
 51
185.9627212876062
  0
ARC
  5
AD9
330
1D9
100
AcDbEntity
  8
0
100
AcDbCircle
 10
1118.034806292791
 20
317.5
 30
0.0
 40
1.0
100
AcDbArc
 50
278.810249742716
 51
90.0
  0
ARC
  5
ADA
330
1D9
100
AcDbEntity
  8
0
100
AcDbCircle
 10
960.0000000000003
 20
292.5
 30
0.0
 40
160.0
100
AcDbArc
 50
9.352035057556056
 51
19.37640333954905
  0
LINE
  5
ADB
330
1D9
100
AcDbEntity
  8
0
100
AcDbLine
 10
1123.585786437627
 20
416.9142135623729
 30
0.0
 11
1128.0
 21
412.5
 31
0.0
  0
ARC
  5
ADC
330
1D9
100
AcDbEntity
  8
0
100
AcDbCircle
 10
1122.171572875254
 20
415.5
 30
0.0
 40
2.0
100
AcDbArc
 50
45.00000000000425
 51
90.0
  0
LINE
  5
ADD
330
1D9
100
AcDbEntity
  8
0
100
AcDbLine
 10
1094.0
 20
878.9999999999961
 30
0.0
 11
826.0000000000005
 21
878.9999999999961
 31
0.0
  0
LINE
  5
ADE
330
1D9
100
AcDbEntity
  8
0
100
AcDbLine
 10
869.8284271247452
 20
909.9999999999955
 30
0.0
 11
1050.171572875254
 21
909.9999999999964
 31
0.0
  0
LINE
  5
ADF
330
1D9
100
AcDbEntity
  8
0
100
AcDbLine
 10
825.9999999999996
 20
904.9999999999963
 30
0.0
 11
1094.0
 21
904.9999999999963
 31
0.0
  0
LINE
  5
AE0
330
1D9
100
AcDbEntity
  8
0
100
AcDbLine
 10
865.9876751782244
 20
775.7300027192223
 30
0.0
 11
1054.012324821775
 21
775.7300027192227
 31
0.0
  0
LINE
  5
AE1
330
1D9
100
AcDbEntity
  8
0
100
AcDbLine
 10
866.1597101453754
 20
774.2499999999964
 30
0.0
 11
1053.840289854624
 21
774.2499999999964
 31
0.0
  0
LINE
  5
AE2
330
1D9
100
AcDbEntity
  8
0
100
AcDbLine
 10
865.9876751782244
 20
819.2699972807702
 30
0.0
 11
1054.012324821775
 21
819.2699972807702
 31
0.0
  0
LINE
  5
AE3
330
1D9
100
AcDbEntity
  8
0
100
AcDbLine
 10
866.1597101453754
 20
820.7499999999964
 30
0.0
 11
1053.840289854624
 21
820.7499999999964
 31
0.0
  0
LINE
  5
AE4
330
1D9
100
AcDbEntity
  8
0
100
AcDbLine
 10
825.9999999999996
 20
715.9999999999961
 30
0.0
 11
1094.000000000002
 21
715.9999999999945
 31
0.0
  0
LINE
  5
AE5
330
1D9
100
AcDbEntity
  8
0
100
AcDbLine
 10
825.9999999999996
 20
689.9999999999961
 30
0.0
 11
1094.0
 21
689.9999999999961
 31
0.0
  0
LINE
  5
AE6
330
1D9
100
AcDbEntity
  8
0
100
AcDbLine
 10
869.8284271247452
 20
684.9999999999972
 30
0.0
 11
1050.171572875254
 21
684.9999999999964
 31
0.0
  0
ARC
  5
AE7
330
1D9
100
AcDbEntity
  8
0
100
AcDbCircle
 10
970.3662643637503
 20
799.0622749999966
 30
0.0
 40
3.437500000000003
100
AcDbArc
 50
309.2797387857903
 51
167.1604115930986
  0
LINE
  5
AE8
330
1D9
100
AcDbEntity
  8
0
100
AcDbLine
 10
970.2178005974587
 20
794.4999999999968
 30
0.0
 11
973.3350143637503
 21
794.4999999999968
 31
0.0
  0
LINE
  5
AE9
330
1D9
100
AcDbEntity
  8
0
100
AcDbLine
 10
973.3350143637503
 20
792.4999999999968
 30
0.0
 11
967.601993877834
 21
792.4999999999968
 31
0.0
  0
ARC
  5
AEA
330
1D9
100
AcDbEntity
  8
0
100
AcDbCircle
 10
960.0000000000003
 20
797.4999999999964
 30
0.0
 40
96.5
100
AcDbArc
 50
159.2726317059825
 51
166.058407797038
  0
LINE
  5
AEB
330
1D9
100
AcDbEntity
  8
0
100
AcDbLine
 10
960.0000000000003
 20
915.9999999999964
 30
0.0
 11
959.9999999999996
 21
678.9999999999962
 31
0.0
  0
LINE
  5
AEC
330
1D9
100
AcDbEntity
  8
0
100
AcDbLine
 10
847.5000000000003
 20
682.9999999999962
 30
0.0
 11
847.5000000000003
 21
722.9999999999964
 31
0.0
  0
LINE
  5
AED
330
1D9
100
AcDbEntity
  8
0
100
AcDbLine
 10
873.5000000000002
 20
718.9999999999961
 30
0.0
 11
873.5000000000002
 21
742.8191075420268
 31
0.0
  0
LINE
  5
AEE
330
1D9
100
AcDbEntity
  8
0
100
AcDbLine
 10
824.9999999999996
 20
690.9999999999961
 30
0.0
 11
824.9999999999996
 21
714.9999999999961
 31
0.0
  0
LINE
  5
AEF
330
1D9
100
AcDbEntity
  8
0
100
AcDbLine
 10
825.9999999999996
 20
689.9999999999961
 30
0.0
 11
824.9999999999996
 21
690.9999999999961
 31
0.0
  0
LINE
  5
AF0
330
1D9
100
AcDbEntity
  8
0
100
AcDbLine
 10
824.9999999999996
 20
714.9999999999961
 30
0.0
 11
825.9999999999996
 21
715.9999999999961
 31
0.0
  0
LINE
  5
AF1
330
1D9
100
AcDbEntity
  8
0
100
AcDbLine
 10
868.4142135623718
 20
685.5857864376242
 30
0.0
 11
864.0000000000004
 21
689.9999999999961
 31
0.0
  0
ARC
  5
AF2
330
1D9
100
AcDbEntity
  8
0
100
AcDbCircle
 10
870.5000000000005
 20
718.9999999999961
 30
0.0
 40
3.0
100
AcDbArc
 50
270.0
 51
0.0
  0
ARC
  5
AF3
330
1D9
100
AcDbEntity
  8
0
100
AcDbCircle
 10
869.8284271247452
 20
686.9999999999972
 30
0.0
 40
2.0
100
AcDbArc
 50
225.0000000000042
 51
270.0
  0
ARC
  5
AF4
330
1D9
100
AcDbEntity
  8
0
100
AcDbCircle
 10
960.0000000000003
 20
797.4999999999964
 30
0.0
 40
96.5
100
AcDbArc
 50
193.9415922029618
 51
200.7273682940172
  0
ARC
  5
AF5
330
1D9
100
AcDbEntity
  8
0
100
AcDbCircle
 10
960.0000000000003
 20
797.4999999999964
 30
0.0
 40
96.5
100
AcDbArc
 50
166.9620826176304
 51
193.0379173823695
  0
ARC
  5
AF6
330
1D9
100
AcDbEntity
  8
0
100
AcDbCircle
 10
866.1597101453754
 20
774.9999999999961
 30
0.0
 40
0.75
100
AcDbArc
 50
103.260569935671
 51
270.0
  0
ARC
  5
AF7
330
1D9
100
AcDbEntity
  8
0
100
AcDbCircle
 10
866.1597101453754
 20
819.9999999999961
 30
0.0
 40
0.75
100
AcDbArc
 50
90.0
 51
256.7394300643289
  0
ARC
  5
AF8
330
1D9
100
AcDbEntity
  8
0
100
AcDbCircle
 10
815.5000000000002
 20
742.8191075420268
 30
0.0
 40
58.0
100
AcDbArc
 50
0.0
 51
20.72736829401736
  0
ARC
  5
AF9
330
1D9
100
AcDbEntity
  8
0
100
AcDbCircle
 10
941.5
 20
801.9999999999964
 30
0.0
 40
0.5
100
AcDbArc
 50
90.0
 51
180.0
  0
LINE
  5
AFA
330
1D9
100
AcDbEntity
  8
0
100
AcDbLine
 10
959.0
 20
797.9999999999964
 30
0.0
 11
959.0
 21
796.9999999999964
 31
0.0
  0
LINE
  5
AFB
330
1D9
100
AcDbEntity
  8
0
100
AcDbLine
 10
954.4999999999999
 20
796.9999999999964
 30
0.0
 11
954.4999999999999
 21
797.9999999999964
 31
0.0
  0
LINE
  5
AFC
330
1D9
100
AcDbEntity
  8
0
100
AcDbLine
 10
955.0
 20
798.4999999999961
 30
0.0
 11
958.5
 21
798.4999999999961
 31
0.0
  0
ARC
  5
AFD
330
1D9
100
AcDbEntity
  8
0
100
AcDbCircle
 10
955.0
 20
797.9999999999964
 30
0.0
 40
0.5
100
AcDbArc
 50
90.0
 51
180.0
  0
ARC
  5
AFE
330
1D9
100
AcDbEntity
  8
0
100
AcDbCircle
 10
951.0
 20
801.9999999999964
 30
0.0
 40
0.5
100
AcDbArc
 50
90.0
 51
180.0
  0
LINE
  5
AFF
330
1D9
100
AcDbEntity
  8
0
100
AcDbLine
 10
950.5
 20
798.4999999999961
 30
0.0
 11
950.5
 21
801.9999999999964
 31
0.0
  0
LINE
  5
B00
330
1D9
100
AcDbEntity
  8
0
100
AcDbLine
 10
951.0
 20
802.4999999999961
 30
0.0
 11
952.0
 21
802.4999999999961
 31
0.0
  0
ARC
  5
B01
330
1D9
100
AcDbEntity
  8
0
100
AcDbCircle
 10
952.0
 20
801.9999999999964
 30
0.0
 40
0.5
100
AcDbArc
 50
0.0
 51
90.0
  0
ARC
  5
B02
330
1D9
100
AcDbEntity
  8
0
100
AcDbCircle
 10
942.5
 20
801.9999999999964
 30
0.0
 40
0.5
100
AcDbArc
 50
0.0
 51
90.0
  0
LINE
  5
B03
330
1D9
100
AcDbEntity
  8
0
100
AcDbLine
 10
947.0
 20
801.9999999999964
 30
0.0
 11
947.0
 21
798.4999999999961
 31
0.0
  0
LINE
  5
B04
330
1D9
100
AcDbEntity
  8
0
100
AcDbLine
 10
945.5
 20
802.4999999999961
 30
0.0
 11
946.4999999999999
 21
802.4999999999961
 31
0.0
  0
ARC
  5
B05
330
1D9
100
AcDbEntity
  8
0
100
AcDbCircle
 10
946.4999999999999
 20
801.9999999999964
 30
0.0
 40
0.5
100
AcDbArc
 50
0.0
 51
90.0
  0
ARC
  5
B06
330
1D9
100
AcDbEntity
  8
0
100
AcDbCircle
 10
945.5
 20
801.9999999999964
 30
0.0
 40
0.5
100
AcDbArc
 50
90.0
 51
180.0
  0
LINE
  5
B07
330
1D9
100
AcDbEntity
  8
0
100
AcDbLine
 10
947.0
 20
798.4999999999961
 30
0.0
 11
950.5
 21
798.4999999999961
 31
0.0
  0
LINE
  5
B08
330
1D9
100
AcDbEntity
  8
0
100
AcDbLine
 10
941.5
 20
802.4999999999961
 30
0.0
 11
942.5
 21
802.4999999999961
 31
0.0
  0
ARC
  5
B09
330
1D9
100
AcDbEntity
  8
0
100
AcDbCircle
 10
962.4000134970868
 20
801.9997749999969
 30
0.0
 40
0.5
100
AcDbArc
 50
90.0
 51
157.7047632776233
  0
LINE
  5
B0A
330
1D9
100
AcDbEntity
  8
0
100
AcDbLine
 10
962.0
 20
799.9997749999964
 30
0.0
 11
960.5
 21
799.9997749999964
 31
0.0
  0
LINE
  5
B0B
330
1D9
100
AcDbEntity
  8
0
100
AcDbLine
 10
962.4000134970868
 20
802.4997749999965
 30
0.0
 11
963.4999999999999
 21
802.4997749999965
 31
0.0
  0
ARC
  5
B0C
330
1D9
100
AcDbEntity
  8
0
100
AcDbCircle
 10
963.4999999999999
 20
801.9997749999969
 30
0.0
 40
0.5
100
AcDbArc
 50
0.0
 51
90.0
  0
ARC
  5
B0D
330
1D9
100
AcDbEntity
  8
0
100
AcDbCircle
 10
960.5
 20
800.7839286730458
 30
0.0
 40
0.5
100
AcDbArc
 50
97.86423407796238
 51
180.0
  0
ELLIPSE
  5
B0E
330
1D9
100
AcDbEntity
  8
0
100
AcDbEllipse
 10
960.0
 20
802.4997749999965
 30
0.0
 11
-2.0
 21
0.0
 31
0.0
210
0.0
220
0.0
230
-1.0
 40
0.6249999999999995
 41
-2.890721121359383
 42
-1.788300676620698
  0
ARC
  5
B0F
330
1D9
100
AcDbEntity
  8
0
100
AcDbCircle
 10
960.5
 20
800.4997749999965
 30
0.0
 40
0.5
100
AcDbArc
 50
180.0
 51
270.0
  0
LINE
  5
B10
330
1D9
100
AcDbEntity
  8
0
100
AcDbLine
 10
960.0
 20
800.4997749999965
 30
0.0
 11
960.0
 21
800.7839286730458
 31
0.0
  0
ARC
  5
B11
330
1D9
100
AcDbEntity
  8
0
100
AcDbCircle
 10
958.5
 20
797.9999999999964
 30
0.0
 40
0.5
100
AcDbArc
 50
0.0
 51
90.0
  0
ARC
  5
B12
330
1D9
100
AcDbEntity
  8
0
100
AcDbCircle
 10
940.0
 20
795.4999999999961
 30
0.0
 40
3.0
100
AcDbArc
 50
180.0
 51
0.0
  0
LINE
  5
B13
330
1D9
100
AcDbEntity
  8
0
100
AcDbLine
 10
938.4999999999999
 20
796.4999999999961
 30
0.0
 11
937.5
 21
796.4999999999961
 31
0.0
  0
LINE
  5
B14
330
1D9
100
AcDbEntity
  8
0
100
AcDbLine
 10
937.0
 20
795.4999999999961
 30
0.0
 11
937.0
 21
795.9999999999961
 31
0.0
  0
LINE
  5
B15
330
1D9
100
AcDbEntity
  8
0
100
AcDbLine
 10
939.0
 20
795.4999999999961
 30
0.0
 11
939.0
 21
795.9999999999961
 31
0.0
  0
ARC
  5
B16
330
1D9
100
AcDbEntity
  8
0
100
AcDbCircle
 10
940.0
 20
795.4999999999961
 30
0.0
 40
1.0
100
AcDbArc
 50
180.0
 51
0.0
  0
LINE
  5
B17
330
1D9
100
AcDbEntity
  8
0
100
AcDbLine
 10
958.5
 20
796.4999999999961
 30
0.0
 11
955.0
 21
796.4999999999961
 31
0.0
  0
ARC
  5
B18
330
1D9
100
AcDbEntity
  8
0
100
AcDbCircle
 10
951.0
 20
792.9999999999964
 30
0.0
 40
0.5
100
AcDbArc
 50
180.0
 51
270.0
  0
LINE
  5
B19
330
1D9
100
AcDbEntity
  8
0
100
AcDbLine
 10
950.5
 20
792.9999999999964
 30
0.0
 11
950.5
 21
796.4999999999961
 31
0.0
  0
ARC
  5
B1A
330
1D9
100
AcDbEntity
  8
0
100
AcDbCircle
 10
952.0
 20
792.9999999999964
 30
0.0
 40
0.5
100
AcDbArc
 50
270.0
 51
0.0
  0
LINE
  5
B1B
330
1D9
100
AcDbEntity
  8
0
100
AcDbLine
 10
951.0
 20
792.4999999999961
 30
0.0
 11
952.0
 21
792.4999999999961
 31
0.0
  0
LINE
  5
B1C
330
1D9
100
AcDbEntity
  8
0
100
AcDbLine
 10
947.0
 20
796.4999999999961
 30
0.0
 11
947.0
 21
792.9999999999964
 31
0.0
  0
ARC
  5
B1D
330
1D9
100
AcDbEntity
  8
0
100
AcDbCircle
 10
945.5
 20
792.9999999999964
 30
0.0
 40
0.5
100
AcDbArc
 50
180.0
 51
270.0
  0
ARC
  5
B1E
330
1D9
100
AcDbEntity
  8
0
100
AcDbCircle
 10
946.4999999999999
 20
792.9999999999964
 30
0.0
 40
0.5
100
AcDbArc
 50
270.0
 51
0.0
  0
LINE
  5
B1F
330
1D9
100
AcDbEntity
  8
0
100
AcDbLine
 10
945.5
 20
792.4999999999961
 30
0.0
 11
946.4999999999999
 21
792.4999999999961
 31
0.0
  0
LINE
  5
B20
330
1D9
100
AcDbEntity
  8
0
100
AcDbLine
 10
950.5
 20
796.4999999999961
 30
0.0
 11
947.0
 21
796.4999999999961
 31
0.0
  0
ARC
  5
B21
330
1D9
100
AcDbEntity
  8
0
100
AcDbCircle
 10
962.5
 20
792.9999999999968
 30
0.0
 40
0.5
100
AcDbArc
 50
180.0
 51
270.0
  0
LINE
  5
B22
330
1D9
100
AcDbEntity
  8
0
100
AcDbLine
 10
963.4999999999999
 20
792.4999999999968
 30
0.0
 11
962.5
 21
792.4999999999968
 31
0.0
  0
ARC
  5
B23
330
1D9
100
AcDbEntity
  8
0
100
AcDbCircle
 10
963.4999999999999
 20
792.9999999999968
 30
0.0
 40
0.5
100
AcDbArc
 50
270.0
 51
0.0
  0
LINE
  5
B24
330
1D9
100
AcDbEntity
  8
0
100
AcDbLine
 10
941.0
 20
795.4999999999961
 30
0.0
 11
941.0
 21
801.9999999999964
 31
0.0
  0
ARC
  5
B25
330
1D9
100
AcDbEntity
  8
0
100
AcDbCircle
 10
937.5
 20
795.9999999999961
 30
0.0
 40
0.5
100
AcDbArc
 50
90.0
 51
180.0
  0
ARC
  5
B26
330
1D9
100
AcDbEntity
  8
0
100
AcDbCircle
 10
938.4999999999999
 20
795.9999999999961
 30
0.0
 40
0.5
100
AcDbArc
 50
0.0
 51
90.0
  0
LINE
  5
B27
330
1D9
100
AcDbEntity
  8
0
100
AcDbLine
 10
962.0
 20
792.9999999999968
 30
0.0
 11
962.0
 21
799.9997749999964
 31
0.0
  0
LINE
  5
B28
330
1D9
100
AcDbEntity
  8
0
100
AcDbLine
 10
964.0
 20
801.9997749999969
 30
0.0
 11
964.0
 21
792.9999999999968
 31
0.0
  0
LINE
  5
B29
330
1D9
100
AcDbEntity
  8
0
100
AcDbLine
 10
952.5
 20
801.9999999999964
 30
0.0
 11
952.5
 21
792.9999999999964
 31
0.0
  0
LINE
  5
B2A
330
1D9
100
AcDbEntity
  8
0
100
AcDbLine
 10
943.0
 20
801.9999999999964
 30
0.0
 11
943.0
 21
795.4999999999961
 31
0.0
  0
LINE
  5
B2B
330
1D9
100
AcDbEntity
  8
0
100
AcDbLine
 10
945.0
 20
792.9999999999964
 30
0.0
 11
945.0
 21
801.9999999999964
 31
0.0
  0
ARC
  5
B2C
330
1D9
100
AcDbEntity
  8
0
100
AcDbCircle
 10
955.0
 20
796.9999999999964
 30
0.0
 40
0.5
100
AcDbArc
 50
180.0
 51
270.0
  0
ARC
  5
B2D
330
1D9
100
AcDbEntity
  8
0
100
AcDbCircle
 10
958.5
 20
796.9999999999964
 30
0.0
 40
0.5
100
AcDbArc
 50
270.0
 51
0.0
  0
ARC
  5
B2E
330
1D9
100
AcDbEntity
  8
0
100
AcDbCircle
 10
967.6240879926899
 20
799.6872749999965
 30
0.0
 40
0.625
100
AcDbArc
 50
167.1604115930986
 51
270.0
  0
ARC
  5
B2F
330
1D9
100
AcDbEntity
  8
0
100
AcDbCircle
 10
968.4007412145602
 20
799.6872749999965
 30
0.0
 40
0.625
100
AcDbArc
 50
270.0
 51
342.3602986057817
  0
LINE
  5
B30
330
1D9
100
AcDbEntity
  8
0
100
AcDbLine
 10
967.6240879926899
 20
799.0622749999966
 30
0.0
 11
968.4007412145602
 21
799.0622749999966
 31
0.0
  0
ARC
  5
B31
330
1D9
100
AcDbEntity
  8
0
100
AcDbCircle
 10
972.8836651658616
 20
791.1899099748997
 30
0.0
 40
6.25
100
AcDbArc
 50
129.2797387857903
 51
159.8782594025906
  0
ARC
  5
B32
330
1D9
100
AcDbEntity
  8
0
100
AcDbCircle
 10
967.601993877834
 20
793.1249999999968
 30
0.0
 40
0.625
100
AcDbArc
 50
159.8782594025906
 51
270.0
  0
LINE
  5
B33
330
1D9
100
AcDbEntity
  8
0
100
AcDbLine
 10
968.9267452667026
 20
796.0278108535498
 30
0.0
 11
971.2763559405571
 21
797.9495577979072
 31
0.0
  0
LINE
  5
B34
330
1D9
100
AcDbEntity
  8
0
100
AcDbLine
 10
970.2178005974587
 20
794.4999999999968
 30
0.0
 11
972.5425703082878
 21
796.4014295167388
 31
0.0
  0
ARC
  5
B35
330
1D9
100
AcDbEntity
  8
0
100
AcDbCircle
 10
970.3662643637503
 20
799.0622749999966
 30
0.0
 40
1.437500000000001
100
AcDbArc
 50
309.2797387857903
 51
162.3602986057818
  0
LINE
  5
B36
330
1D9
100
AcDbEntity
  8
0
100
AcDbLine
 10
824.9999999999996
 20
903.9999999999963
 30
0.0
 11
824.9999999999996
 21
879.9999999999961
 31
0.0
  0
LINE
  5
B37
330
1D9
100
AcDbEntity
  8
0
100
AcDbLine
 10
824.9999999999996
 20
903.9999999999963
 30
0.0
 11
825.9999999999996
 21
904.9999999999963
 31
0.0
  0
LINE
  5
B38
330
1D9
100
AcDbEntity
  8
0
100
AcDbLine
 10
825.9999999999996
 20
878.9999999999961
 30
0.0
 11
824.9999999999996
 21
879.9999999999961
 31
0.0
  0
LINE
  5
B39
330
1D9
100
AcDbEntity
  8
0
100
AcDbLine
 10
868.4142135623718
 20
909.4142135623682
 30
0.0
 11
864.0000000000004
 21
904.9999999999963
 31
0.0
  0
LINE
  5
B3A
330
1D9
100
AcDbEntity
  8
0
100
AcDbLine
 10
847.5000000000003
 20
911.9999999999954
 30
0.0
 11
847.5000000000003
 21
871.9999999999954
 31
0.0
  0
ARC
  5
B3B
330
1D9
100
AcDbEntity
  8
0
100
AcDbCircle
 10
869.8284271247452
 20
907.9999999999952
 30
0.0
 40
2.0
100
AcDbArc
 50
90.0
 51
134.9999999999957
  0
ARC
  5
B3C
330
1D9
100
AcDbEntity
  8
0
100
AcDbCircle
 10
870.5000000000005
 20
875.9999999999964
 30
0.0
 40
3.0
100
AcDbArc
 50
0.0
 51
90.0
  0
ARC
  5
B3D
330
1D9
100
AcDbEntity
  8
0
100
AcDbCircle
 10
815.5000000000002
 20
852.1808924579657
 30
0.0
 40
58.0
100
AcDbArc
 50
339.2726317059825
 51
0.0
  0
LINE
  5
B3E
330
1D9
100
AcDbEntity
  8
0
100
AcDbLine
 10
873.5000000000002
 20
875.9999999999964
 30
0.0
 11
873.5000000000002
 21
852.1808924579657
 31
0.0
  0
ARC
  5
B3F
330
1D9
100
AcDbEntity
  8
0
100
AcDbCircle
 10
960.0000000000003
 20
797.4999999999964
 30
0.0
 40
96.5
100
AcDbArc
 50
13.94159220296185
 51
20.72736829401736
  0
LINE
  5
B40
330
1D9
100
AcDbEntity
  8
0
100
AcDbLine
 10
1046.499999999998
 20
718.9999999999961
 30
0.0
 11
1046.499999999998
 21
742.8191075420268
 31
0.0
  0
ARC
  5
B41
330
1D9
100
AcDbEntity
  8
0
100
AcDbCircle
 10
1049.5
 20
718.9999999999961
 30
0.0
 40
3.0
100
AcDbArc
 50
180.0
 51
270.0
  0
ARC
  5
B42
330
1D9
100
AcDbEntity
  8
0
100
AcDbCircle
 10
1050.171572875254
 20
686.9999999999972
 30
0.0
 40
2.0
100
AcDbArc
 50
270.0
 51
314.9999999999956
  0
LINE
  5
B43
330
1D9
100
AcDbEntity
  8
0
100
AcDbLine
 10
1051.585786437628
 20
685.5857864376242
 30
0.0
 11
1056.0
 21
689.9999999999961
 31
0.0
  0
LINE
  5
B44
330
1D9
100
AcDbEntity
  8
0
100
AcDbLine
 10
976.5391194363163
 20
797.679472339214
 30
0.0
 11
976.9109265713522
 21
801.9292473392138
 31
0.0
  0
LINE
  5
B45
330
1D9
100
AcDbEntity
  8
0
100
AcDbLine
 10
977.1617411226241
 20
796.9999999999968
 30
0.0
 11
978.4644688819426
 21
796.9999999999968
 31
0.0
  0
ARC
  5
B46
330
1D9
100
AcDbEntity
  8
0
100
AcDbCircle
 10
978.4644688819426
 20
797.6249999999968
 30
0.0
 40
0.625
100
AcDbArc
 50
270.0
 51
310.1191668983923
  0
ARC
  5
B47
330
1D9
100
AcDbEntity
  8
0
100
AcDbCircle
 10
977.1617411226241
 20
797.6249999999968
 30
0.0
 40
0.625
100
AcDbArc
 50
174.9999999999995
 51
270.0
  0
LINE
  5
B48
330
1D9
100
AcDbEntity
  8
0
100
AcDbLine
 10
982.3337752757053
 20
801.8747749999965
 30
0.0
 11
982.3337752757053
 21
801.1247749999965
 31
0.0
  0
LINE
  5
B49
330
1D9
100
AcDbEntity
  8
0
100
AcDbLine
 10
981.7087752757053
 20
800.4997749999965
 30
0.0
 11
978.7935036219336
 21
800.4997749999965
 31
0.0
  0
LINE
  5
B4A
330
1D9
100
AcDbEntity
  8
0
100
AcDbLine
 10
977.5335482576595
 20
802.4997749999965
 30
0.0
 11
981.7087752757053
 21
802.4997749999965
 31
0.0
  0
LINE
  5
B4B
330
1D9
100
AcDbEntity
  8
0
100
AcDbLine
 10
978.6891981947032
 20
799.3075585112924
 30
0.0
 11
978.7935036219336
 21
800.4997749999965
 31
0.0
  0
ARC
  5
B4C
330
1D9
100
AcDbEntity
  8
0
100
AcDbCircle
 10
977.5335482576595
 20
801.8747749999965
 30
0.0
 40
0.625
100
AcDbArc
 50
90.0
 51
174.9999999999995
  0
ARC
  5
B4D
330
1D9
100
AcDbEntity
  8
0
100
AcDbCircle
 10
981.7087752757053
 20
801.1247749999965
 30
0.0
 40
0.625
100
AcDbArc
 50
270.0
 51
0.0
  0
ARC
  5
B4E
330
1D9
100
AcDbEntity
  8
0
100
AcDbCircle
 10
981.8337752757052
 20
801.9997749999969
 30
0.0
 40
0.5000000000000001
100
AcDbArc
 50
0.0
 51
90.0
  0
LINE
  5
B4F
330
1D9
100
AcDbEntity
  8
0
100
AcDbLine
 10
978.4644688819426
 20
794.9999999999968
 30
0.0
 11
977.4620670305791
 21
794.9999999999968
 31
0.0
  0
ARC
  5
B50
330
1D9
100
AcDbEntity
  8
0
100
AcDbCircle
 10
978.4644688819426
 20
794.3749999999968
 30
0.0
 40
0.625
100
AcDbArc
 50
49.8808331016075
 51
90.0
  0
ARC
  5
B51
330
1D9
100
AcDbEntity
  8
0
100
AcDbCircle
 10
977.4620670305791
 20
794.3749999999968
 30
0.0
 40
0.625
100
AcDbArc
 50
90.0
 51
214.4173887104479
  0
ARC
  5
B52
330
1D9
100
AcDbEntity
  8
0
100
AcDbCircle
 10
973.3350143637503
 20
793.8749999999968
 30
0.0
 40
0.625
100
AcDbArc
 50
0.0
 51
90.0
  0
ARC
  5
B53
330
1D9
100
AcDbEntity
  8
0
100
AcDbCircle
 10
973.3350143637503
 20
793.1249999999968
 30
0.0
 40
0.625
100
AcDbArc
 50
270.0
 51
0.0
  0
LINE
  5
B54
330
1D9
100
AcDbEntity
  8
0
100
AcDbLine
 10
973.9600143637503
 20
793.8749999999968
 30
0.0
 11
973.9600143637503
 21
793.1249999999968
 31
0.0
  0
ARC
  5
B55
330
1D9
100
AcDbEntity
  8
0
100
AcDbCircle
 10
979.8337752757053
 20
795.9999999999967
 30
0.0
 40
3.499999999999996
100
AcDbArc
 50
214.4173887104479
 51
109.0881237431214
  0
ARC
  5
B56
330
1D9
100
AcDbEntity
  8
0
100
AcDbCircle
 10
979.8337752757053
 20
795.9999999999967
 30
0.0
 40
1.5
100
AcDbArc
 50
229.8808331016072
 51
130.1191668983924
  0
ARC
  5
B57
330
1D9
100
AcDbEntity
  8
0
100
AcDbCircle
 10
960.0000000000003
 20
797.4999999999964
 30
0.0
 40
96.5
100
AcDbArc
 50
346.9620826176303
 51
13.03791738236957
  0
ARC
  5
B58
330
1D9
100
AcDbEntity
  8
0
100
AcDbCircle
 10
960.0000000000003
 20
797.4999999999964
 30
0.0
 40
96.5
100
AcDbArc
 50
339.2726317059825
 51
346.0584077970381
  0
ARC
  5
B59
330
1D9
100
AcDbEntity
  8
0
100
AcDbCircle
 10
1053.840289854624
 20
774.9999999999961
 30
0.0
 40
0.75
100
AcDbArc
 50
270.0
 51
76.73943006432899
  0
ARC
  5
B5A
330
1D9
100
AcDbEntity
  8
0
100
AcDbCircle
 10
1053.840289854624
 20
819.9999999999961
 30
0.0
 40
0.75
100
AcDbArc
 50
283.260569935671
 51
90.0
  0
ARC
  5
B5B
330
1D9
100
AcDbEntity
  8
0
100
AcDbCircle
 10
1104.5
 20
742.8191075420268
 30
0.0
 40
58.0
100
AcDbArc
 50
159.2726317059825
 51
180.0
  0
LINE
  5
B5C
330
1D9
100
AcDbEntity
  8
0
100
AcDbLine
 10
1072.5
 20
682.9999999999962
 30
0.0
 11
1072.5
 21
722.9999999999964
 31
0.0
  0
LINE
  5
B5D
330
1D9
100
AcDbEntity
  8
0
100
AcDbLine
 10
1095.0
 20
690.9999999999961
 30
0.0
 11
1095.0
 21
714.9999999999961
 31
0.0
  0
LINE
  5
B5E
330
1D9
100
AcDbEntity
  8
0
100
AcDbLine
 10
1094.0
 20
689.9999999999961
 30
0.0
 11
1095.0
 21
690.9999999999961
 31
0.0
  0
LINE
  5
B5F
330
1D9
100
AcDbEntity
  8
0
100
AcDbLine
 10
1095.0
 20
714.9999999999961
 30
0.0
 11
1094.0
 21
715.9999999999961
 31
0.0
  0
LINE
  5
B60
330
1D9
100
AcDbEntity
  8
0
100
AcDbLine
 10
1051.585786437628
 20
909.4142135623682
 30
0.0
 11
1056.0
 21
904.9999999999963
 31
0.0
  0
ARC
  5
B61
330
1D9
100
AcDbEntity
  8
0
100
AcDbCircle
 10
1050.171572875254
 20
907.9999999999952
 30
0.0
 40
2.0
100
AcDbArc
 50
45.00000000000425
 51
90.0
  0
ARC
  5
B62
330
1D9
100
AcDbEntity
  8
0
100
AcDbCircle
 10
1049.5
 20
875.9999999999964
 30
0.0
 40
3.0
100
AcDbArc
 50
90.0
 51
180.0
  0
ARC
  5
B63
330
1D9
100
AcDbEntity
  8
0
100
AcDbCircle
 10
1104.5
 20
852.1808924579657
 30
0.0
 40
58.0
100
AcDbArc
 50
180.0
 51
200.7273682940172
  0
LINE
  5
B64
330
1D9
100
AcDbEntity
  8
0
100
AcDbLine
 10
1046.499999999998
 20
875.9999999999964
 30
0.0
 11
1046.499999999998
 21
852.1808924579657
 31
0.0
  0
LINE
  5
B65
330
1D9
100
AcDbEntity
  8
0
100
AcDbLine
 10
1095.0
 20
903.9999999999963
 30
0.0
 11
1094.0
 21
904.9999999999963
 31
0.0
  0
LINE
  5
B66
330
1D9
100
AcDbEntity
  8
0
100
AcDbLine
 10
1094.0
 20
878.9999999999961
 30
0.0
 11
1095.0
 21
879.9999999999961
 31
0.0
  0
LINE
  5
B67
330
1D9
100
AcDbEntity
  8
0
100
AcDbLine
 10
1095.0
 20
903.9999999999963
 30
0.0
 11
1095.0
 21
879.9999999999961
 31
0.0
  0
LINE
  5
B68
330
1D9
100
AcDbEntity
  8
0
100
AcDbLine
 10
1072.5
 20
911.9999999999954
 30
0.0
 11
1072.5
 21
871.9999999999954
 31
0.0
  0
LINE
  5
B69
330
1D9
100
AcDbEntity
  8
0
100
AcDbLine
 10
1175.0
 20
411.5
 30
0.0
 11
1175.0
 21
379.4999999999999
 31
0.0
  0
LINE
  5
B6A
330
1D9
100
AcDbEntity
  8
0
100
AcDbLine
 10
1175.0
 20
205.5
 30
0.0
 11
1174.0
 21
206.4999999999999
 31
0.0
  0
LINE
  5
B6B
330
1D9
100
AcDbEntity
  8
0
100
AcDbLine
 10
1175.0
 20
379.4999999999999
 30
0.0
 11
1174.0
 21
378.5
 31
0.0
  0
LINE
  5
B6C
330
1D9
100
AcDbEntity
  8
0
100
AcDbLine
 10
1174.0
 20
412.5
 30
0.0
 11
1175.0
 21
411.5
 31
0.0
  0
LINE
  5
B6D
330
1D9
100
AcDbEntity
  8
0
100
AcDbLine
 10
1427.5
 20
421.4999999999999
 30
0.0
 11
1427.5
 21
367.5
 31
0.0
  0
LINE
  5
B6E
330
1D9
100
AcDbEntity
  8
0
100
AcDbLine
 10
1402.5
 20
411.5
 30
0.0
 11
1402.5
 21
377.4999999999999
 31
0.0
  0
LINE
  5
B6F
330
1D9
100
AcDbEntity
  8
0
100
AcDbLine
 10
1402.5
 20
207.5
 30
0.0
 11
1403.5
 21
208.4999999999999
 31
0.0
  0
LINE
  5
B70
330
1D9
100
AcDbEntity
  8
0
100
AcDbLine
 10
1402.5
 20
377.4999999999999
 30
0.0
 11
1403.5
 21
376.5
 31
0.0
  0
ARC
  5
B71
330
1D9
100
AcDbEntity
  8
0
100
AcDbCircle
 10
1642.5
 20
292.5
 30
0.0
 40
180.0
100
AcDbArc
 50
172.3347541499634
 51
187.6652458500364
  0
ARC
  5
B72
330
1D9
100
AcDbEntity
  8
0
100
AcDbCircle
 10
1642.5
 20
292.5
 30
0.0
 40
180.0
100
AcDbArc
 50
188.3051095280634
 51
196.2459883984754
  0
ARC
  5
B73
330
1D9
100
AcDbEntity
  8
0
100
AcDbCircle
 10
1464.24456530024
 20
267.5
 30
0.0
 40
1.0
100
AcDbArc
 50
97.82440099775653
 51
270.0
  0
ARC
  5
B74
330
1D9
100
AcDbEntity
  8
0
100
AcDbCircle
 10
1462.704053425043
 20
219.4999999999999
 30
0.0
 40
11.0
100
AcDbArc
 50
270.0
 51
4.476812477155488
  0
ARC
  5
B75
330
1D9
100
AcDbEntity
  8
0
100
AcDbCircle
 10
1366.0
 20
211.9286030901784
 30
0.0
 40
108.0
100
AcDbArc
 50
4.476812477155488
 51
16.2459883984755
  0
ARC
  5
B76
330
1D9
100
AcDbEntity
  8
0
100
AcDbCircle
 10
1462.704053425043
 20
365.5
 30
0.0
 40
11.0
100
AcDbArc
 50
355.5231875228443
 51
90.0
  0
ARC
  5
B77
330
1D9
100
AcDbEntity
  8
0
100
AcDbCircle
 10
1366.0
 20
373.0713969098214
 30
0.0
 40
108.0
100
AcDbArc
 50
343.7540116015243
 51
355.5231875228443
  0
ARC
  5
B78
330
1D9
100
AcDbEntity
  8
0
100
AcDbCircle
 10
1464.24456530024
 20
317.5
 30
0.0
 40
1.0
100
AcDbArc
 50
90.0
 51
262.1755990022434
  0
ARC
  5
B79
330
1D9
100
AcDbEntity
  8
0
100
AcDbCircle
 10
1642.5
 20
292.5
 30
0.0
 40
180.0
100
AcDbArc
 50
163.7540116015244
 51
171.6948904719363
  0
LINE
  5
B7A
330
1D9
100
AcDbEntity
  8
0
100
AcDbLine
 10
1402.5
 20
411.5
 30
0.0
 11
1403.5
 21
412.5
 31
0.0
  0
ARC
  5
B7B
330
1D9
100
AcDbEntity
  8
0
100
AcDbCircle
 10
1457.328427124744
 20
415.5
 30
0.0
 40
2.0
100
AcDbArc
 50
90.0
 51
134.9999999999957
  0
LINE
  5
B7C
330
1D9
100
AcDbEntity
  8
0
100
AcDbLine
 10
1455.914213562372
 20
416.9142135623729
 30
0.0
 11
1451.5
 21
412.5
 31
0.0
  0
ARC
  5
B7D
330
1D9
100
AcDbEntity
  8
0
100
AcDbCircle
 10
1642.5
 20
797.4999999999964
 30
0.0
 40
107.4999999999999
100
AcDbArc
 50
156.3398638418978
 51
167.3729093388353
  0
LINE
  5
B7E
330
1D9
100
AcDbEntity
  8
0
100
AcDbLine
 10
1512.5
 20
683.9999999999962
 30
0.0
 11
1512.5
 21
723.9999999999961
 31
0.0
  0
ARC
  5
B7F
330
1D9
100
AcDbEntity
  8
0
100
AcDbCircle
 10
1542.5
 20
724.9999999999961
 30
0.0
 40
7.0
100
AcDbArc
 50
270.0
 51
0.0
  0
LINE
  5
B80
330
1D9
100
AcDbEntity
  8
0
100
AcDbLine
 10
1489.999999999999
 20
690.9999999999961
 30
0.0
 11
1489.999999999999
 21
716.9999999999961
 31
0.0
  0
LINE
  5
B81
330
1D9
100
AcDbEntity
  8
0
100
AcDbLine
 10
1490.999999999999
 20
689.9999999999961
 30
0.0
 11
1489.999999999999
 21
690.9999999999961
 31
0.0
  0
LINE
  5
B82
330
1D9
100
AcDbEntity
  8
0
100
AcDbLine
 10
1489.999999999999
 20
716.9999999999961
 30
0.0
 11
1490.999999999999
 21
717.9999999999964
 31
0.0
  0
LINE
  5
B83
330
1D9
100
AcDbEntity
  8
0
100
AcDbLine
 10
1536.914213562373
 20
685.5857864376234
 30
0.0
 11
1532.5
 21
689.9999999999961
 31
0.0
  0
ARC
  5
B84
330
1D9
100
AcDbEntity
  8
0
100
AcDbCircle
 10
1538.328427124746
 20
686.9999999999962
 30
0.0
 40
2.0
100
AcDbArc
 50
225.0000000000042
 51
270.0
  0
ARC
  5
B85
330
1D9
100
AcDbEntity
  8
0
100
AcDbCircle
 10
1642.5
 20
797.4999999999964
 30
0.0
 40
107.4999999999999
100
AcDbArc
 50
168.4515160324721
 51
191.5484839675275
  0
ARC
  5
B86
330
1D9
100
AcDbEntity
  8
0
100
AcDbCircle
 10
1537.381019791856
 20
774.9999999999961
 30
0.0
 40
1.0
100
AcDbArc
 50
101.8149769260902
 51
270.0
  0
ARC
  5
B87
330
1D9
100
AcDbEntity
  8
0
100
AcDbCircle
 10
1537.381019791856
 20
819.9999999999969
 30
0.0
 40
1.0
100
AcDbArc
 50
90.0
 51
258.1850230739098
  0
ARC
  5
B88
330
1D9
100
AcDbEntity
  8
0
100
AcDbCircle
 10
1484.5
 20
728.2739210990503
 30
0.0
 40
65.0
100
AcDbArc
 50
0.0
 51
23.66013615810212
  0
LINE
  5
B89
330
1D9
100
AcDbEntity
  8
0
100
AcDbLine
 10
1549.5
 20
728.2739210990503
 30
0.0
 11
1549.5
 21
724.9999999999961
 31
0.0
  0
ARC
  5
B8A
330
1D9
100
AcDbEntity
  8
0
100
AcDbCircle
 10
1642.5
 20
797.4999999999964
 30
0.0
 40
107.4999999999999
100
AcDbArc
 50
192.6270906611646
 51
203.6601361581021
  0
LINE
  5
B8B
330
1D9
100
AcDbEntity
  8
0
100
AcDbLine
 10
1490.999999999999
 20
904.9999999999963
 30
0.0
 11
1489.999999999999
 21
903.9999999999963
 31
0.0
  0
LINE
  5
B8C
330
1D9
100
AcDbEntity
  8
0
100
AcDbLine
 10
1489.999999999999
 20
877.9999999999962
 30
0.0
 11
1490.999999999999
 21
876.9999999999964
 31
0.0
  0
LINE
  5
B8D
330
1D9
100
AcDbEntity
  8
0
100
AcDbLine
 10
1489.999999999999
 20
903.9999999999963
 30
0.0
 11
1489.999999999999
 21
877.9999999999962
 31
0.0
  0
LINE
  5
B8E
330
1D9
100
AcDbEntity
  8
0
100
AcDbLine
 10
1537.5
 20
909.9999999999964
 30
0.0
 11
1532.5
 21
904.9999999999963
 31
0.0
  0
LINE
  5
B8F
330
1D9
100
AcDbEntity
  8
0
100
AcDbLine
 10
1536.914213562373
 20
909.4142135623696
 30
0.0
 11
1532.5
 21
904.9999999999963
 31
0.0
  0
LINE
  5
B90
330
1D9
100
AcDbEntity
  8
0
100
AcDbLine
 10
1512.5
 20
910.9999999999963
 30
0.0
 11
1512.5
 21
870.9999999999961
 31
0.0
  0
ARC
  5
B91
330
1D9
100
AcDbEntity
  8
0
100
AcDbCircle
 10
1538.328427124746
 20
907.9999999999964
 30
0.0
 40
2.0
100
AcDbArc
 50
90.0
 51
134.9999999999957
  0
ARC
  5
B92
330
1D9
100
AcDbEntity
  8
0
100
AcDbCircle
 10
1542.5
 20
869.9999999999961
 30
0.0
 40
7.0
100
AcDbArc
 50
0.0
 51
90.0
  0
ARC
  5
B93
330
1D9
100
AcDbEntity
  8
0
100
AcDbCircle
 10
1484.5
 20
866.7260789009421
 30
0.0
 40
65.0
100
AcDbArc
 50
336.3398638418978
 51
0.0
  0
LINE
  5
B94
330
1D9
100
AcDbEntity
  8
0
100
AcDbLine
 10
1549.5
 20
866.7260789009421
 30
0.0
 11
1549.5
 21
869.9999999999961
 31
0.0
  0
LINE
  5
B95
330
1D9
100
AcDbEntity
  8
0
100
AcDbLine
 10
767.8312635751534
 20
1247.999999999996
 30
0.0
 11
839.7687364248449
 21
1247.999999999996
 31
0.0
  0
LINE
  5
B96
330
1D9
100
AcDbEntity
  8
0
100
AcDbLine
 10
767.6153279051894
 20
1247.0490323887
 30
0.0
 11
839.984672094808
 21
1247.0490323887
 31
0.0
  0
LINE
  5
B97
330
1D9
100
AcDbEntity
  8
0
100
AcDbLine
 10
768.628427124745
 20
1317.499999999996
 30
0.0
 11
838.9715728752534
 21
1317.499999999996
 31
0.0
  0
LINE
  5
B98
330
1D9
100
AcDbEntity
  8
0
100
AcDbLine
 10
734.7999999999992
 20
1313.499999999995
 30
0.0
 11
803.7999999999993
 21
1313.499999999995
 31
0.0
  0
LINE
  5
B99
330
1D9
100
AcDbEntity
  8
0
100
AcDbLine
 10
872.7999999999992
 20
1295.499999999996
 30
0.0
 11
734.7999999999992
 21
1295.499999999996
 31
0.0
  0
LINE
  5
B9A
330
1D9
100
AcDbEntity
  8
0
100
AcDbLine
 10
768.628427124745
 20
1142.499999999996
 30
0.0
 11
838.9715728752534
 21
1142.499999999996
 31
0.0
  0
LINE
  5
B9B
330
1D9
100
AcDbEntity
  8
0
100
AcDbLine
 10
767.8312635751534
 20
1211.999999999996
 30
0.0
 11
839.7687364248449
 21
1211.999999999996
 31
0.0
  0
LINE
  5
B9C
330
1D9
100
AcDbEntity
  8
0
100
AcDbLine
 10
767.6153279051894
 20
1212.95096761129
 30
0.0
 11
839.9846720948099
 21
1212.95096761129
 31
0.0
  0
LINE
  5
B9D
330
1D9
100
AcDbEntity
  8
0
100
AcDbLine
 10
734.7999999999992
 20
1146.499999999994
 30
0.0
 11
803.7999999999993
 21
1146.499999999994
 31
0.0
  0
LINE
  5
B9E
330
1D9
100
AcDbEntity
  8
0
100
AcDbLine
 10
734.7999999999992
 20
1164.499999999994
 30
0.0
 11
872.7999999999992
 21
1164.499999999994
 31
0.0
  0
ARC
  5
B9F
330
1D9
100
AcDbEntity
  8
0
100
AcDbCircle
 10
545.6000000000002
 20
1260.066592756741
 30
0.0
 40
23.0
100
AcDbArc
 50
180.0
 51
209.7996377967731
  0
ARC
  5
BA0
330
1D9
100
AcDbEntity
  8
0
100
AcDbCircle
 10
440.6000000000004
 20
1260.066592756741
 30
0.0
 40
23.0
100
AcDbArc
 50
330.2003622032267
 51
0.0
  0
LINE
  5
BA1
330
1D9
100
AcDbEntity
  8
0
100
AcDbLine
 10
493.1000000000003
 20
1323.499999999995
 30
0.0
 11
493.1000000000003
 21
1136.499999999996
 31
0.0
  0
LINE
  5
BA2
330
1D9
100
AcDbEntity
  8
0
100
AcDbLine
 10
426.6000000000003
 20
1146.499999999994
 30
0.0
 11
559.6000000000002
 21
1146.499999999994
 31
0.0
  0
LINE
  5
BA3
330
1D9
100
AcDbEntity
  8
0
100
AcDbLine
 10
426.6000000000003
 20
1164.499999999994
 30
0.0
 11
559.6000000000022
 21
1164.499999999994
 31
0.0
  0
LINE
  5
BA4
330
1D9
100
AcDbEntity
  8
0
100
AcDbLine
 10
459.9337520964472
 20
1247.999999999996
 30
0.0
 11
526.2662479035553
 21
1247.999999999996
 31
0.0
  0
LINE
  5
BA5
330
1D9
100
AcDbEntity
  8
0
100
AcDbLine
 10
459.7033720592807
 20
1247.056237632871
 30
0.0
 11
526.496627940719
 21
1247.056237632871
 31
0.0
  0
LINE
  5
BA6
330
1D9
100
AcDbEntity
  8
0
100
AcDbLine
 10
459.9337520964472
 20
1211.999999999996
 30
0.0
 11
526.2662479035553
 21
1211.999999999996
 31
0.0
  0
LINE
  5
BA7
330
1D9
100
AcDbEntity
  8
0
100
AcDbLine
 10
459.7033720592807
 20
1212.943762367119
 30
0.0
 11
526.4966279407208
 21
1212.943762367119
 31
0.0
  0
LINE
  5
BA8
330
1D9
100
AcDbEntity
  8
0
100
AcDbLine
 10
462.428427124747
 20
1142.499999999996
 30
0.0
 11
523.7715728752545
 21
1142.499999999996
 31
0.0
  0
ARC
  5
BA9
330
1D9
100
AcDbEntity
  8
0
100
AcDbCircle
 10
486.1500000000005
 20
1233.149999999994
 30
0.0
 40
0.35
100
AcDbArc
 50
0.0
 51
90.0
  0
ARC
  5
BAA
330
1D9
100
AcDbEntity
  8
0
100
AcDbCircle
 10
486.1500000000005
 20
1226.849999999995
 30
0.0
 40
0.35
100
AcDbArc
 50
270.0
 51
0.0
  0
LINE
  5
BAB
330
1D9
100
AcDbEntity
  8
0
100
AcDbLine
 10
443.1000000000003
 20
1140.499999999994
 30
0.0
 11
443.1000000000012
 21
1170.499999999994
 31
0.0
  0
LINE
  5
BAC
330
1D9
100
AcDbEntity
  8
0
100
AcDbLine
 10
425.6000000000002
 20
1147.499999999995
 30
0.0
 11
425.6000000000002
 21
1163.499999999995
 31
0.0
  0
LINE
  5
BAD
330
1D9
100
AcDbEntity
  8
0
100
AcDbLine
 10
426.6000000000003
 20
1146.499999999994
 30
0.0
 11
425.6000000000002
 21
1147.499999999995
 31
0.0
  0
ARC
  5
BAE
330
1D9
100
AcDbEntity
  8
0
100
AcDbCircle
 10
462.428427124747
 20
1144.499999999996
 30
0.0
 40
2.0
100
AcDbArc
 50
225.0000000000064
 51
270.0
  0
LINE
  5
BAF
330
1D9
100
AcDbEntity
  8
0
100
AcDbLine
 10
461.0142135623736
 20
1143.085786437623
 30
0.0
 11
457.6000000000004
 21
1146.499999999996
 31
0.0
  0
LINE
  5
BB0
330
1D9
100
AcDbEntity
  8
0
100
AcDbLine
 10
425.6000000000002
 20
1163.499999999995
 30
0.0
 11
426.6000000000003
 21
1164.499999999994
 31
0.0
  0
ARC
  5
BB1
330
1D9
100
AcDbEntity
  8
0
100
AcDbCircle
 10
440.6000000000004
 20
1199.93340724325
 30
0.0
 40
23.0
100
AcDbArc
 50
0.0
 51
29.79963779677307
  0
ARC
  5
BB2
330
1D9
100
AcDbEntity
  8
0
100
AcDbCircle
 10
493.1000000000003
 20
1229.999999999995
 30
0.0
 40
37.5
100
AcDbArc
 50
150.2003622032011
 51
151.314597985879
  0
ARC
  5
BB3
330
1D9
100
AcDbEntity
  8
0
100
AcDbCircle
 10
459.9337520964472
 20
1247.499999999996
 30
0.0
 40
0.5
100
AcDbArc
 50
90.0
 51
242.563835408271
  0
ARC
  5
BB4
330
1D9
100
AcDbEntity
  8
0
100
AcDbCircle
 10
459.9337520964472
 20
1212.499999999995
 30
0.0
 40
0.5
100
AcDbArc
 50
117.4361645917292
 51
270.0
  0
ARC
  5
BB5
330
1D9
100
AcDbEntity
  8
0
100
AcDbCircle
 10
493.1000000000003
 20
1229.999999999995
 30
0.0
 40
37.5
100
AcDbArc
 50
208.6854020141209
 51
209.7996377967988
  0
ARC
  5
BB6
330
1D9
100
AcDbEntity
  8
0
100
AcDbCircle
 10
493.1000000000003
 20
1229.999999999995
 30
0.0
 40
37.5
100
AcDbArc
 50
152.945810101155
 51
207.0541898988448
  0
ARC
  5
BB7
330
1D9
100
AcDbEntity
  8
0
100
AcDbCircle
 10
481.1000000000003
 20
1229.099999999994
 30
0.0
 40
1.099999999999965
100
AcDbArc
 50
180.0
 51
0.0
  0
LINE
  5
BB8
330
1D9
100
AcDbEntity
  8
0
100
AcDbLine
 10
480.0000000000008
 20
1229.099999999994
 30
0.0
 11
480.0000000000008
 21
1229.149999999995
 31
0.0
  0
ARC
  5
BB9
330
1D9
100
AcDbEntity
  8
0
100
AcDbCircle
 10
479.6500000000005
 20
1229.149999999995
 30
0.0
 40
0.35
100
AcDbArc
 50
0.0
 51
90.0
  0
ARC
  5
BBA
330
1D9
100
AcDbEntity
  8
0
100
AcDbCircle
 10
483.2500000000008
 20
1233.149999999994
 30
0.0
 40
0.35
100
AcDbArc
 50
0.0
 51
90.0
  0
LINE
  5
BBB
330
1D9
100
AcDbEntity
  8
0
100
AcDbLine
 10
482.2000000000007
 20
1229.099999999994
 30
0.0
 11
482.2000000000007
 21
1233.149999999994
 31
0.0
  0
LINE
  5
BBC
330
1D9
100
AcDbEntity
  8
0
100
AcDbLine
 10
482.5500000000011
 20
1233.499999999995
 30
0.0
 11
483.2500000000008
 21
1233.499999999995
 31
0.0
  0
ARC
  5
BBD
330
1D9
100
AcDbEntity
  8
0
100
AcDbCircle
 10
482.5500000000011
 20
1233.149999999994
 30
0.0
 40
0.35
100
AcDbArc
 50
90.0
 51
180.0
  0
LINE
  5
BBE
330
1D9
100
AcDbEntity
  8
0
100
AcDbLine
 10
483.6000000000002
 20
1233.149999999994
 30
0.0
 11
483.6000000000002
 21
1229.099999999994
 31
0.0
  0
LINE
  5
BBF
330
1D9
100
AcDbEntity
  8
0
100
AcDbLine
 10
485.1000000000003
 20
1226.849999999995
 30
0.0
 11
485.1000000000003
 21
1233.149999999994
 31
0.0
  0
LINE
  5
BC0
330
1D9
100
AcDbEntity
  8
0
100
AcDbLine
 10
485.4500000000006
 20
1226.499999999995
 30
0.0
 11
486.1500000000005
 21
1226.499999999995
 31
0.0
  0
ARC
  5
BC1
330
1D9
100
AcDbEntity
  8
0
100
AcDbCircle
 10
485.4500000000006
 20
1226.849999999995
 30
0.0
 40
0.35
100
AcDbArc
 50
180.0
 51
270.0
  0
ARC
  5
BC2
330
1D9
100
AcDbEntity
  8
0
100
AcDbCircle
 10
485.4500000000006
 20
1233.149999999994
 30
0.0
 40
0.35
100
AcDbArc
 50
90.0
 51
180.0
  0
LINE
  5
BC3
330
1D9
100
AcDbEntity
  8
0
100
AcDbLine
 10
485.4500000000006
 20
1233.499999999995
 30
0.0
 11
486.1500000000005
 21
1233.499999999995
 31
0.0
  0
LINE
  5
BC4
330
1D9
100
AcDbEntity
  8
0
100
AcDbLine
 10
478.6000000000004
 20
1229.149999999995
 30
0.0
 11
478.6000000000004
 21
1229.099999999994
 31
0.0
  0
ARC
  5
BC5
330
1D9
100
AcDbEntity
  8
0
100
AcDbCircle
 10
478.9500000000006
 20
1229.149999999995
 30
0.0
 40
0.35
100
AcDbArc
 50
90.0
 51
180.0
  0
ARC
  5
BC6
330
1D9
100
AcDbEntity
  8
0
100
AcDbCircle
 10
481.1000000000003
 20
1229.099999999994
 30
0.0
 40
2.5
100
AcDbArc
 50
180.0
 51
0.0
  0
LINE
  5
BC7
330
1D9
100
AcDbEntity
  8
0
100
AcDbLine
 10
479.6500000000005
 20
1229.499999999995
 30
0.0
 11
478.9500000000006
 21
1229.499999999995
 31
0.0
  0
ARC
  5
BC8
330
1D9
100
AcDbEntity
  8
0
100
AcDbCircle
 10
460.6000000000003
 20
1167.499999999995
 30
0.0
 40
3.0
100
AcDbArc
 50
270.0
 51
0.0
  0
LINE
  5
BC9
330
1D9
100
AcDbEntity
  8
0
100
AcDbLine
 10
463.6000000000002
 20
1199.933407243249
 30
0.0
 11
463.6000000000002
 21
1167.499999999995
 31
0.0
  0
LINE
  5
BCA
330
1D9
100
AcDbEntity
  8
0
100
AcDbLine
 10
543.1000000000002
 20
1140.499999999994
 30
0.0
 11
543.1000000000002
 21
1170.499999999994
 31
0.0
  0
LINE
  5
BCB
330
1D9
100
AcDbEntity
  8
0
100
AcDbLine
 10
560.6000000000002
 20
1147.499999999995
 30
0.0
 11
560.6000000000002
 21
1163.499999999995
 31
0.0
  0
LINE
  5
BCC
330
1D9
100
AcDbEntity
  8
0
100
AcDbLine
 10
525.1857864376278
 20
1143.085786437623
 30
0.0
 11
528.6000000000004
 21
1146.499999999996
 31
0.0
  0
ARC
  5
BCD
330
1D9
100
AcDbEntity
  8
0
100
AcDbCircle
 10
523.7715728752545
 20
1144.499999999996
 30
0.0
 40
2.0
100
AcDbArc
 50
270.0
 51
314.9999999999933
  0
LINE
  5
BCE
330
1D9
100
AcDbEntity
  8
0
100
AcDbLine
 10
559.6000000000002
 20
1146.499999999994
 30
0.0
 11
560.6000000000002
 21
1147.499999999995
 31
0.0
  0
ARC
  5
BCF
330
1D9
100
AcDbEntity
  8
0
100
AcDbCircle
 10
545.6000000000002
 20
1199.93340724325
 30
0.0
 40
23.0
100
AcDbArc
 50
150.2003622032269
 51
180.0
  0
LINE
  5
BD0
330
1D9
100
AcDbEntity
  8
0
100
AcDbLine
 10
504.9800072854869
 20
1227.900236799994
 30
0.0
 11
507.1624260000008
 21
1227.900236799994
 31
0.0
  0
LINE
  5
BD1
330
1D9
100
AcDbEntity
  8
0
100
AcDbLine
 10
504.9800072854869
 20
1227.900236799994
 30
0.0
 11
506.607621335801
 21
1229.231462590969
 31
0.0
  0
LINE
  5
BD2
330
1D9
100
AcDbEntity
  8
0
100
AcDbLine
 10
507.6000000000004
 20
1227.462662799994
 30
0.0
 11
507.6000000000004
 21
1226.937573999995
 31
0.0
  0
ARC
  5
BD3
330
1D9
100
AcDbEntity
  8
0
100
AcDbCircle
 10
507.1624260000008
 20
1227.462662799994
 30
0.0
 40
0.4375740000000001
100
AcDbArc
 50
0.0
 51
90.0
  0
ARC
  5
BD4
330
1D9
100
AcDbEntity
  8
0
100
AcDbCircle
 10
507.1624260000008
 20
1226.937573999995
 30
0.0
 40
0.4375740000000001
100
AcDbArc
 50
270.0
 51
0.0
  0
LINE
  5
BD5
330
1D9
100
AcDbEntity
  8
0
100
AcDbLine
 10
503.1641013665757
 20
1231.094369473354
 30
0.0
 11
503.7078505776261
 21
1231.094369473354
 31
0.0
  0
ARC
  5
BD6
330
1D9
100
AcDbEntity
  8
0
100
AcDbCircle
 10
503.7078505776261
 20
1231.531943473354
 30
0.0
 40
0.4375740000000001
100
AcDbArc
 50
270.0
 51
342.3602986057798
  0
ARC
  5
BD7
330
1D9
100
AcDbEntity
  8
0
100
AcDbCircle
 10
505.0839495000007
 20
1231.094369473354
 30
0.0
 40
1.006420200000001
100
AcDbArc
 50
309.2797387857903
 51
162.3602986057799
  0
LINE
  5
BD8
330
1D9
100
AcDbEntity
  8
0
100
AcDbLine
 10
504.0761156930057
 20
1228.969885290287
 30
0.0
 11
505.7211213586079
 21
1230.315335686176
 31
0.0
  0
LINE
  5
BD9
330
1D9
100
AcDbEntity
  8
0
100
AcDbLine
 10
507.1624260000008
 20
1226.499999999995
 30
0.0
 11
503.148632870234
 21
1226.499999999995
 31
0.0
  0
SPLINE
  5
BDA
330
1D9
100
AcDbEntity
  8
0
100
AcDbSpline
210
0.0
220
0.0
230
1.0
 70
     8
 71
     3
 72
    45
 73
    41
 74
     0
 42
0.0000000001
 43
0.0000000001
 40
1.878706249774077
 40
1.878706249774077
 40
1.878706249774077
 40
1.878706249774077
 40
1.963495408493624
 40
1.963495408493624
 40
2.159844949342986
 40
2.159844949342986
 40
2.35619449019235
 40
2.35619449019235
 40
2.748893571891075
 40
2.748893571891075
 40
3.1415926535898
 40
3.1415926535898
 40
3.337942194439162
 40
3.337942194439162
 40
3.534291735288524
 40
3.534291735288524
 40
3.730641276137886
 40
3.730641276137886
 40
3.926990816987249
 40
3.926990816987249
 40
3.926990816987249
 40
4.123340357836611
 40
4.123340357836611
 40
4.319689898685974
 40
4.319689898685974
 40
4.516039439535338
 40
4.516039439535338
 40
4.7123889803847
 40
4.7123889803847
 40
5.105088062083424
 40
5.105088062083424
 40
5.49778714378215
 40
5.49778714378215
 40
5.694136684631511
 40
5.694136684631511
 40
5.890486225480874
 40
5.890486225480874
 40
6.086835766330237
 40
6.086835766330237
 40
6.179760109968325
 40
6.179760109968325
 40
6.179760109968325
 40
6.179760109968325
 10
497.5265624578768
 20
1228.459880087918
 30
0.0
 10
497.5385369927399
 20
1228.434664167662
 30
0.0
 10
497.5527425437429
 20
1228.408856006808
 30
0.0
 10
497.6084630925537
 20
1228.321571087858
 30
0.0
 10
497.6611942271912
 20
1228.258712030052
 30
0.0
 10
497.796479778081
 20
1228.139896024488
 30
0.0
 10
497.879243143334
 20
1228.084177200131
 30
0.0
 10
498.1576860958571
 20
1227.94707025028
 30
0.0
 10
498.3708177979288
 20
1227.900236799994
 30
0.0
 10
498.7970812020726
 20
1227.900236799994
 30
0.0
 10
499.0102129041442
 20
1227.94707025028
 30
0.0
 10
499.2886558566678
 20
1228.084177200131
 30
0.0
 10
499.3714192219202
 20
1228.139896024488
 30
0.0
 10
499.5067047728106
 20
1228.258712030052
 30
0.0
 10
499.5594359074474
 20
1228.321571087858
 30
0.0
 10
499.6372672710536
 20
1228.443492074084
 30
0.0
 10
499.6622437413293
 20
1228.50168402086
 30
0.0
 10
499.693465713065
 20
1228.610643817384
 30
0.0
 10
499.6997632000007
 20
1228.661396764202
 30
0.0
 10
499.6997632000007
 20
1228.709748699994
 30
0.0
 10
499.6997632000007
 20
1228.733924667892
 30
0.0
 10
499.6981888282671
 20
1228.758700888543
 30
0.0
 10
499.6911373383323
 20
1228.809785320467
 30
0.0
 10
499.6856602201313
 20
1228.836093531737
 30
0.0
 10
499.6700492342633
 20
1228.890573429999
 30
0.0
 10
499.6599023702273
 20
1228.918741391259
 30
0.0
 10
499.6337824681718
 20
1228.97669746249
 30
0.0
 10
499.6178094301521
 20
1229.006485572463
 30
0.0
 10
499.5594359074474
 20
1229.09792631213
 30
0.0
 10
499.5067047728106
 20
1229.160785369937
 30
0.0
 10
499.3714192219202
 20
1229.279601375501
 30
0.0
 10
499.2886558566678
 20
1229.33532019986
 30
0.0
 10
499.1494343804061
 20
1229.403873674785
 30
0.0
 10
499.1013082799608
 20
1229.423939134159
 30
0.0
 10
499.0024776665348
 20
1229.458427959184
 30
0.0
 10
498.9517731535534
 20
1229.472851324836
 30
0.0
 10
498.8486451858998
 20
1229.495985266561
 30
0.0
 10
498.7962217312269
 20
1229.504695842635
 30
0.0
 10
498.7183552511718
 20
1229.513268495882
 30
0.0
 10
498.6932457112916
 20
1229.515374638173
 30
0.0
 10
498.6680854727092
 20
1229.51682935605
 30
0.0
  0
ARC
  5
BDB
330
1D9
100
AcDbEntity
  8
0
100
AcDbCircle
 10
497.1312933181498
 20
1228.272174699995
 30
0.0
 40
0.4375740000000001
100
AcDbArc
 50
25.40210556077373
 51
90.0
  0
ARC
  5
BDC
330
1D9
100
AcDbEntity
  8
0
100
AcDbCircle
 10
497.3800196094635
 20
1231.947638773355
 30
0.0
 40
0.4375740000000001
100
AcDbArc
 50
270.0
 51
328.0113592811894
  0
LINE
  5
BDD
330
1D9
100
AcDbEntity
  8
0
100
AcDbLine
 10
497.3800196094635
 20
1231.510064773355
 30
0.0
 11
496.8000843811778
 21
1231.510064773355
 31
0.0
  0
LINE
  5
BDE
330
1D9
100
AcDbEntity
  8
0
100
AcDbLine
 10
497.1312933181498
 20
1228.709748699994
 30
0.0
 11
496.570144040691
 21
1228.709748699994
 31
0.0
  0
ARC
  5
BDF
330
1D9
100
AcDbEntity
  8
0
100
AcDbCircle
 10
496.8000843811778
 20
1231.947638773355
 30
0.0
 40
0.4375740000000001
100
AcDbArc
 50
160.522375924582
 51
269.999999999987
  0
ARC
  5
BE0
330
1D9
100
AcDbEntity
  8
0
100
AcDbCircle
 10
496.570144040691
 20
1228.272174699995
 30
0.0
 40
0.4375740000000001
100
AcDbArc
 50
90.0
 51
196.7108870644351
  0
ELLIPSE
  5
BE1
330
1D9
100
AcDbEntity
  8
0
100
AcDbEllipse
 10
498.5839495000008
 20
1231.510064773355
 30
0.0
 11
2.297263500000001
 21
0.0
 31
0.0
210
0.0
220
0.0
230
1.0
 40
0.8666666666666657
 41
-1.570796326794896
 42
-1.563306982750514
  0
LINE
  5
BE2
330
1D9
100
AcDbEntity
  8
0
100
AcDbLine
 10
498.2557690000012
 20
1230.485096656241
 30
0.0
 11
498.2557690000012
 21
1229.953673793797
 31
0.0
  0
ARC
  5
BE3
330
1D9
100
AcDbEntity
  8
0
100
AcDbCircle
 10
498.6933430000008
 20
1229.953673793797
 30
0.0
 40
0.4375740000000001
100
AcDbArc
 50
180.0
 51
266.6909493622575
  0
ELLIPSE
  5
BE4
330
1D9
100
AcDbEntity
  8
0
100
AcDbEllipse
 10
498.5839495000008
 20
1231.510064773355
 30
0.0
 11
0.8970267000000003
 21
0.0
 31
0.0
210
0.0
220
0.0
230
-1.0
 40
0.6585365853658524
 41
-2.857010560602968
 42
1.478418468920209
  0
ARC
  5
BE5
330
1D9
100
AcDbEntity
  8
0
100
AcDbCircle
 10
498.6933430000008
 20
1230.485096656241
 30
0.0
 40
0.4375740000000001
100
AcDbArc
 50
93.49116461146264
 51
180.0
  0
LINE
  5
BE6
330
1D9
100
AcDbEntity
  8
0
100
AcDbLine
 10
489.050000000001
 20
1233.499999999995
 30
0.0
 11
489.7500000000008
 21
1233.499999999995
 31
0.0
  0
LINE
  5
BE7
330
1D9
100
AcDbEntity
  8
0
100
AcDbLine
 10
489.050000000001
 20
1226.499999999995
 30
0.0
 11
489.7500000000008
 21
1226.499999999995
 31
0.0
  0
LINE
  5
BE8
330
1D9
100
AcDbEntity
  8
0
100
AcDbLine
 10
488.7000000000006
 20
1230.818008734452
 30
0.0
 11
488.7000000000006
 21
1233.149999999994
 31
0.0
  0
ARC
  5
BE9
330
1D9
100
AcDbEntity
  8
0
100
AcDbCircle
 10
489.050000000001
 20
1233.149999999994
 30
0.0
 40
0.35
100
AcDbArc
 50
90.0
 51
180.0
  0
ARC
  5
BEA
330
1D9
100
AcDbEntity
  8
0
100
AcDbCircle
 10
489.050000000001
 20
1226.849999999995
 30
0.0
 40
0.35
100
AcDbArc
 50
180.0
 51
270.0
  0
LINE
  5
BEB
330
1D9
100
AcDbEntity
  8
0
100
AcDbLine
 10
488.7000000000006
 20
1226.849999999995
 30
0.0
 11
488.7000000000006
 21
1229.418008734452
 31
0.0
  0
ARC
  5
BEC
330
1D9
100
AcDbEntity
  8
0
100
AcDbCircle
 10
489.7500000000008
 20
1226.849999999995
 30
0.0
 40
0.35
100
AcDbArc
 50
270.0
 51
0.0
  0
LINE
  5
BED
330
1D9
100
AcDbEntity
  8
0
100
AcDbLine
 10
490.1000000000003
 20
1233.149999999994
 30
0.0
 11
490.1000000000003
 21
1226.849999999995
 31
0.0
  0
ARC
  5
BEE
330
1D9
100
AcDbEntity
  8
0
100
AcDbCircle
 10
489.7500000000008
 20
1233.149999999994
 30
0.0
 40
0.35
100
AcDbArc
 50
0.0
 51
90.0
  0
LINE
  5
BEF
330
1D9
100
AcDbEntity
  8
0
100
AcDbLine
 10
491.9500000000006
 20
1230.699999999995
 30
0.0
 11
494.2500000000008
 21
1230.699999999995
 31
0.0
  0
LINE
  5
BF0
330
1D9
100
AcDbEntity
  8
0
100
AcDbLine
 10
494.2500000000008
 20
1229.299999999994
 30
0.0
 11
491.9500000000006
 21
1229.299999999994
 31
0.0
  0
ARC
  5
BF1
330
1D9
100
AcDbEntity
  8
0
100
AcDbCircle
 10
491.9500000000006
 20
1229.649999999995
 30
0.0
 40
0.35
100
AcDbArc
 50
180.0
 51
270.0
  0
ARC
  5
BF2
330
1D9
100
AcDbEntity
  8
0
100
AcDbCircle
 10
491.9500000000006
 20
1230.349999999995
 30
0.0
 40
0.35
100
AcDbArc
 50
90.0
 51
180.0
  0
LINE
  5
BF3
330
1D9
100
AcDbEntity
  8
0
100
AcDbLine
 10
491.6000000000003
 20
1229.649999999995
 30
0.0
 11
491.6000000000003
 21
1230.349999999995
 31
0.0
  0
ARC
  5
BF4
330
1D9
100
AcDbEntity
  8
0
100
AcDbCircle
 10
494.2500000000008
 20
1230.349999999995
 30
0.0
 40
0.35
100
AcDbArc
 50
0.0
 51
90.0
  0
ARC
  5
BF5
330
1D9
100
AcDbEntity
  8
0
100
AcDbCircle
 10
494.2500000000008
 20
1229.649999999995
 30
0.0
 40
0.35
100
AcDbArc
 50
270.0
 51
0.0
  0
LINE
  5
BF6
330
1D9
100
AcDbEntity
  8
0
100
AcDbLine
 10
494.6000000000004
 20
1230.349999999995
 30
0.0
 11
494.6000000000004
 21
1229.649999999995
 31
0.0
  0
LINE
  5
BF7
330
1D9
100
AcDbEntity
  8
0
100
AcDbLine
 10
486.5000000000008
 20
1229.418008734452
 30
0.0
 11
486.5000000000008
 21
1226.849999999995
 31
0.0
  0
LINE
  5
BF8
330
1D9
100
AcDbEntity
  8
0
100
AcDbLine
 10
486.5000000000008
 20
1233.149999999994
 30
0.0
 11
486.5000000000008
 21
1230.818008734452
 31
0.0
  0
LINE
  5
BF9
330
1D9
100
AcDbEntity
  8
0
100
AcDbLine
 10
486.5000000000008
 20
1230.818008734452
 30
0.0
 11
488.7000000000006
 21
1230.818008734452
 31
0.0
  0
LINE
  5
BFA
330
1D9
100
AcDbEntity
  8
0
100
AcDbLine
 10
488.7000000000006
 20
1229.418008734452
 30
0.0
 11
486.5000000000008
 21
1229.418008734452
 31
0.0
  0
ELLIPSE
  5
BFB
330
1D9
100
AcDbEntity
  8
0
100
AcDbEllipse
 10
498.5839495000008
 20
1231.510064773355
 30
0.0
 11
2.297263500000001
 21
0.0
 31
0.0
210
0.0
220
0.0
230
1.0
 40
0.8666666666666657
 41
-0.6772469303367651
 42
2.844163247626046
  0
ELLIPSE
  5
BFC
330
1D9
100
AcDbEntity
  8
0
100
AcDbEllipse
 10
498.5839495000008
 20
1228.709748699994
 30
0.0
 11
2.516050500000003
 21
0.0
 31
0.0
210
0.0
220
0.0
230
1.0
 40
0.878260869565217
 41
-2.883795523929818
 42
0.779115106733972
  0
ARC
  5
BFD
330
1D9
100
AcDbEntity
  8
0
100
AcDbCircle
 10
503.1641013665757
 20
1231.531943473354
 30
0.0
 40
0.4375740000000001
100
AcDbArc
 50
167.1604115930986
 51
270.0
  0
ARC
  5
BFE
330
1D9
100
AcDbEntity
  8
0
100
AcDbCircle
 10
503.148632870234
 20
1226.937573999995
 30
0.0
 40
0.4375740000000001
100
AcDbArc
 50
159.8782594025869
 51
270.0
  0
ARC
  5
BFF
330
1D9
100
AcDbEntity
  8
0
100
AcDbCircle
 10
506.8464281217329
 20
1225.582781867768
 30
0.0
 40
4.37574
100
AcDbArc
 50
129.2797387857903
 51
159.8782594025869
  0
ARC
  5
C00
330
1D9
100
AcDbEntity
  8
0
100
AcDbCircle
 10
505.0839495000007
 20
1231.094369473354
 30
0.0
 40
2.406657000000003
100
AcDbArc
 50
309.2797387857903
 51
167.1604115930986
  0
ARC
  5
C01
330
1D9
100
AcDbEntity
  8
0
100
AcDbCircle
 10
493.1000000000003
 20
1229.999999999995
 30
0.0
 40
37.5
100
AcDbArc
 50
28.68540201412095
 51
29.79963779679887
  0
ARC
  5
C02
330
1D9
100
AcDbEntity
  8
0
100
AcDbCircle
 10
526.2662479035553
 20
1247.499999999996
 30
0.0
 40
0.5
100
AcDbArc
 50
297.4361645917288
 51
90.0
  0
ARC
  5
C03
330
1D9
100
AcDbEntity
  8
0
100
AcDbCircle
 10
526.2662479035553
 20
1212.499999999995
 30
0.0
 40
0.5
100
AcDbArc
 50
270.0
 51
62.56383540827068
  0
ARC
  5
C04
330
1D9
100
AcDbEntity
  8
0
100
AcDbCircle
 10
493.1000000000003
 20
1229.999999999995
 30
0.0
 40
37.5
100
AcDbArc
 50
330.2003622032011
 51
331.314597985879
  0
ARC
  5
C05
330
1D9
100
AcDbEntity
  8
0
100
AcDbCircle
 10
493.1000000000003
 20
1229.999999999995
 30
0.0
 40
37.5
100
AcDbArc
 50
332.945810101155
 51
27.0541898988449
  0
ARC
  5
C06
330
1D9
100
AcDbEntity
  8
0
100
AcDbCircle
 10
525.6000000000012
 20
1167.499999999995
 30
0.0
 40
3.0
100
AcDbArc
 50
180.0
 51
270.0
  0
LINE
  5
C07
330
1D9
100
AcDbEntity
  8
0
100
AcDbLine
 10
522.6000000000002
 20
1199.933407243249
 30
0.0
 11
522.6000000000012
 21
1167.499999999995
 31
0.0
  0
LINE
  5
C08
330
1D9
100
AcDbEntity
  8
0
100
AcDbLine
 10
560.6000000000002
 20
1163.499999999995
 30
0.0
 11
559.6000000000002
 21
1164.499999999994
 31
0.0
  0
LINE
  5
C09
330
1D9
100
AcDbEntity
  8
0
100
AcDbLine
 10
426.6000000000003
 20
1313.499999999995
 30
0.0
 11
559.6000000000022
 21
1313.499999999994
 31
0.0
  0
LINE
  5
C0A
330
1D9
100
AcDbEntity
  8
0
100
AcDbLine
 10
462.428427124747
 20
1317.499999999995
 30
0.0
 11
523.7715728752545
 21
1317.499999999995
 31
0.0
  0
LINE
  5
C0B
330
1D9
100
AcDbEntity
  8
0
100
AcDbLine
 10
426.6000000000003
 20
1295.499999999996
 30
0.0
 11
559.6000000000002
 21
1295.499999999996
 31
0.0
  0
LINE
  5
C0C
330
1D9
100
AcDbEntity
  8
0
100
AcDbLine
 10
426.6000000000003
 20
1313.499999999995
 30
0.0
 11
425.6000000000002
 21
1312.499999999996
 31
0.0
  0
LINE
  5
C0D
330
1D9
100
AcDbEntity
  8
0
100
AcDbLine
 10
425.6000000000002
 20
1296.499999999995
 30
0.0
 11
426.6000000000003
 21
1295.499999999996
 31
0.0
  0
LINE
  5
C0E
330
1D9
100
AcDbEntity
  8
0
100
AcDbLine
 10
425.6000000000002
 20
1312.499999999996
 30
0.0
 11
425.6000000000002
 21
1296.499999999995
 31
0.0
  0
ARC
  5
C0F
330
1D9
100
AcDbEntity
  8
0
100
AcDbCircle
 10
462.428427124747
 20
1315.499999999995
 30
0.0
 40
2.0
100
AcDbArc
 50
90.0
 51
134.9999999999934
  0
LINE
  5
C10
330
1D9
100
AcDbEntity
  8
0
100
AcDbLine
 10
461.0142135623736
 20
1316.914213562367
 30
0.0
 11
457.6000000000004
 21
1313.499999999995
 31
0.0
  0
ARC
  5
C11
330
1D9
100
AcDbEntity
  8
0
100
AcDbCircle
 10
460.6000000000003
 20
1292.499999999995
 30
0.0
 40
3.0
100
AcDbArc
 50
0.0
 51
90.0
  0
LINE
  5
C12
330
1D9
100
AcDbEntity
  8
0
100
AcDbLine
 10
463.6000000000002
 20
1260.066592756742
 30
0.0
 11
463.6000000000002
 21
1292.499999999995
 31
0.0
  0
LINE
  5
C13
330
1D9
100
AcDbEntity
  8
0
100
AcDbLine
 10
443.1000000000003
 20
1319.499999999996
 30
0.0
 11
443.1000000000012
 21
1289.499999999994
 31
0.0
  0
ARC
  5
C14
330
1D9
100
AcDbEntity
  8
0
100
AcDbCircle
 10
523.7715728752545
 20
1315.499999999995
 30
0.0
 40
2.0
100
AcDbArc
 50
45.00000000000654
 51
90.0
  0
LINE
  5
C15
330
1D9
100
AcDbEntity
  8
0
100
AcDbLine
 10
525.1857864376278
 20
1316.914213562367
 30
0.0
 11
528.6000000000004
 21
1313.499999999995
 31
0.0
  0
ARC
  5
C16
330
1D9
100
AcDbEntity
  8
0
100
AcDbCircle
 10
525.6000000000012
 20
1292.499999999995
 30
0.0
 40
3.0
100
AcDbArc
 50
90.0
 51
180.0
  0
LINE
  5
C17
330
1D9
100
AcDbEntity
  8
0
100
AcDbLine
 10
522.6000000000002
 20
1260.066592756742
 30
0.0
 11
522.6000000000012
 21
1292.499999999995
 31
0.0
  0
LINE
  5
C18
330
1D9
100
AcDbEntity
  8
0
100
AcDbLine
 10
559.6000000000002
 20
1313.499999999995
 30
0.0
 11
560.6000000000002
 21
1312.499999999996
 31
0.0
  0
LINE
  5
C19
330
1D9
100
AcDbEntity
  8
0
100
AcDbLine
 10
560.6000000000002
 20
1296.499999999995
 30
0.0
 11
559.6000000000002
 21
1295.499999999996
 31
0.0
  0
LINE
  5
C1A
330
1D9
100
AcDbEntity
  8
0
100
AcDbLine
 10
543.1000000000002
 20
1319.499999999996
 30
0.0
 11
543.1000000000002
 21
1289.499999999994
 31
0.0
  0
LINE
  5
C1B
330
1D9
100
AcDbEntity
  8
0
100
AcDbLine
 10
560.6000000000002
 20
1312.499999999996
 30
0.0
 11
560.6000000000002
 21
1296.499999999995
 31
0.0
  0
ARC
  5
C1C
330
1D9
100
AcDbEntity
  8
0
100
AcDbCircle
 10
746.8000000000001
 20
1259.103264421708
 30
0.0
 40
24.0
100
AcDbArc
 50
332.9518894536401
 51
0.0
  0
LINE
  5
C1D
330
1D9
100
AcDbEntity
  8
0
100
AcDbLine
 10
733.7999999999992
 20
1147.499999999995
 30
0.0
 11
733.7999999999992
 21
1163.499999999995
 31
0.0
  0
LINE
  5
C1E
330
1D9
100
AcDbEntity
  8
0
100
AcDbLine
 10
751.2999999999992
 20
1140.499999999994
 30
0.0
 11
751.2999999999992
 21
1170.499999999994
 31
0.0
  0
LINE
  5
C1F
330
1D9
100
AcDbEntity
  8
0
100
AcDbLine
 10
733.7999999999992
 20
1147.499999999995
 30
0.0
 11
734.7999999999992
 21
1146.499999999994
 31
0.0
  0
ARC
  5
C20
330
1D9
100
AcDbEntity
  8
0
100
AcDbCircle
 10
768.628427124745
 20
1144.499999999996
 30
0.0
 40
2.0
100
AcDbArc
 50
225.0000000000064
 51
270.0
  0
LINE
  5
C21
330
1D9
100
AcDbEntity
  8
0
100
AcDbLine
 10
767.2142135623726
 20
1143.085786437622
 30
0.0
 11
763.7999999999992
 21
1146.499999999994
 31
0.0
  0
ARC
  5
C22
330
1D9
100
AcDbEntity
  8
0
100
AcDbCircle
 10
746.8000000000001
 20
1200.896735578282
 30
0.0
 40
24.0
100
AcDbArc
 50
0.0
 51
27.04811054635985
  0
ARC
  5
C23
330
1D9
100
AcDbEntity
  8
0
100
AcDbCircle
 10
803.7999999999984
 20
1229.999999999995
 30
0.0
 40
40.0
100
AcDbArc
 50
152.95188945364
 51
153.2563160496076
  0
ARC
  5
C24
330
1D9
100
AcDbEntity
  8
0
100
AcDbCircle
 10
767.8312635751534
 20
1247.499999999996
 30
0.0
 40
0.5
100
AcDbArc
 50
90.0
 51
244.4136211810492
  0
ARC
  5
C25
330
1D9
100
AcDbEntity
  8
0
100
AcDbCircle
 10
803.7999999999984
 20
1229.999999999995
 30
0.0
 40
40.0
100
AcDbArc
 50
206.7436839503921
 51
207.0481105463598
  0
ARC
  5
C26
330
1D9
100
AcDbEntity
  8
0
100
AcDbCircle
 10
767.8312635751534
 20
1212.499999999995
 30
0.0
 40
0.5
100
AcDbArc
 50
115.5863788189507
 51
270.0
  0
ARC
  5
C27
330
1D9
100
AcDbEntity
  8
0
100
AcDbCircle
 10
803.7999999999984
 20
1229.999999999995
 30
0.0
 40
40.0
100
AcDbArc
 50
154.7717221343563
 51
205.2282778656436
  0
LINE
  5
C28
330
1D9
100
AcDbEntity
  8
0
100
AcDbLine
 10
733.7999999999992
 20
1163.499999999995
 30
0.0
 11
734.7999999999992
 21
1164.499999999994
 31
0.0
  0
ARC
  5
C29
330
1D9
100
AcDbEntity
  8
0
100
AcDbCircle
 10
767.7999999999992
 20
1167.499999999995
 30
0.0
 40
3.0
100
AcDbArc
 50
270.0
 51
0.0
  0
LINE
  5
C2A
330
1D9
100
AcDbEntity
  8
0
100
AcDbLine
 10
770.7999999999993
 20
1200.896735578282
 30
0.0
 11
770.7999999999993
 21
1167.499999999995
 31
0.0
  0
LINE
  5
C2B
330
1D9
100
AcDbEntity
  8
0
100
AcDbLine
 10
733.7999999999992
 20
1312.499999999995
 30
0.0
 11
734.7999999999992
 21
1313.499999999995
 31
0.0
  0
ARC
  5
C2C
330
1D9
100
AcDbEntity
  8
0
100
AcDbCircle
 10
768.628427124745
 20
1315.499999999995
 30
0.0
 40
2.0
100
AcDbArc
 50
90.0
 51
134.9999999999934
  0
LINE
  5
C2D
330
1D9
100
AcDbEntity
  8
0
100
AcDbLine
 10
767.2142135623726
 20
1316.914213562368
 30
0.0
 11
763.7999999999992
 21
1313.499999999995
 31
0.0
  0
LINE
  5
C2E
330
1D9
100
AcDbEntity
  8
0
100
AcDbLine
 10
733.7999999999992
 20
1296.499999999995
 30
0.0
 11
734.7999999999992
 21
1295.499999999996
 31
0.0
  0
ARC
  5
C2F
330
1D9
100
AcDbEntity
  8
0
100
AcDbCircle
 10
767.7999999999992
 20
1292.499999999995
 30
0.0
 40
3.0
100
AcDbArc
 50
0.0
 51
90.0
  0
LINE
  5
C30
330
1D9
100
AcDbEntity
  8
0
100
AcDbLine
 10
770.7999999999993
 20
1259.103264421708
 30
0.0
 11
770.7999999999993
 21
1292.499999999995
 31
0.0
  0
LINE
  5
C31
330
1D9
100
AcDbEntity
  8
0
100
AcDbLine
 10
751.2999999999992
 20
1319.499999999996
 30
0.0
 11
751.2999999999992
 21
1289.499999999994
 31
0.0
  0
LINE
  5
C32
330
1D9
100
AcDbEntity
  8
0
100
AcDbLine
 10
733.7999999999992
 20
1312.499999999995
 30
0.0
 11
733.7999999999992
 21
1296.499999999995
 31
0.0
  0
LINE
  5
C33
330
1D9
100
AcDbEntity
  8
0
100
AcDbLine
 10
1047.999999999998
 20
1295.499999999996
 30
0.0
 11
1200.999999999998
 21
1295.499999999996
 31
0.0
  0
LINE
  5
C34
330
1D9
100
AcDbEntity
  8
0
100
AcDbLine
 10
1080.341195668359
 20
1211.999999999996
 30
0.0
 11
1168.658804331638
 21
1211.999999999996
 31
0.0
  0
LINE
  5
C35
330
1D9
100
AcDbEntity
  8
0
100
AcDbLine
 10
1080.159434164607
 20
1212.965792610235
 30
0.0
 11
1168.840565835391
 21
1212.965792610235
 31
0.0
  0
LINE
  5
C36
330
1D9
100
AcDbEntity
  8
0
100
AcDbLine
 10
1080.341195668359
 20
1247.999999999996
 30
0.0
 11
1168.658804331638
 21
1247.999999999996
 31
0.0
  0
LINE
  5
C37
330
1D9
100
AcDbEntity
  8
0
100
AcDbLine
 10
1080.159434164607
 20
1247.034207389756
 30
0.0
 11
1168.840565835389
 21
1247.034207389756
 31
0.0
  0
LINE
  5
C38
330
1D9
100
AcDbEntity
  8
0
100
AcDbLine
 10
1047.999999999998
 20
1146.499999999996
 30
0.0
 11
1200.999999999998
 21
1146.499999999996
 31
0.0
  0
LINE
  5
C39
330
1D9
100
AcDbEntity
  8
0
100
AcDbLine
 10
1047.999999999998
 20
1164.499999999996
 30
0.0
 11
1201.0
 21
1164.499999999994
 31
0.0
  0
ARC
  5
C3A
330
1D9
100
AcDbEntity
  8
0
100
AcDbCircle
 10
1166.671572875251
 20
1144.499999999996
 30
0.0
 40
2.0
100
AcDbArc
 50
270.0
 51
314.999999999991
  0
ARC
  5
C3B
330
1D9
100
AcDbEntity
  8
0
100
AcDbCircle
 10
1124.5
 20
1229.999999999996
 30
0.0
 40
47.5
100
AcDbArc
 50
331.9275130641402
 51
337.7315045306675
  0
ARC
  5
C3C
330
1D9
100
AcDbEntity
  8
0
100
AcDbCircle
 10
1124.5
 20
1229.999999999996
 30
0.0
 40
47.5
100
AcDbArc
 50
22.26849546933244
 51
28.07248693585979
  0
LINE
  5
C3D
330
1D9
100
AcDbEntity
  8
0
100
AcDbLine
 10
1047.999999999998
 20
1313.499999999996
 30
0.0
 11
1200.999999999998
 21
1313.499999999996
 31
0.0
  0
ARC
  5
C3E
330
1D9
100
AcDbEntity
  8
0
100
AcDbCircle
 10
1166.671572875251
 20
1315.499999999996
 30
0.0
 40
2.0
100
AcDbArc
 50
45.00000000000886
 51
90.0
  0
ARC
  5
C3F
330
1D9
100
AcDbEntity
  8
0
100
AcDbCircle
 10
860.7999999999984
 20
1259.103264421708
 30
0.0
 40
24.0
100
AcDbArc
 50
180.0
 51
207.0481105463598
  0
LINE
  5
C40
330
1D9
100
AcDbEntity
  8
0
100
AcDbLine
 10
803.7999999999993
 20
1323.499999999995
 30
0.0
 11
803.8000000000003
 21
1136.499999999996
 31
0.0
  0
LINE
  5
C41
330
1D9
100
AcDbEntity
  8
0
100
AcDbLine
 10
873.7999999999992
 20
1147.499999999995
 30
0.0
 11
873.7999999999992
 21
1163.499999999995
 31
0.0
  0
LINE
  5
C42
330
1D9
100
AcDbEntity
  8
0
100
AcDbLine
 10
856.2999999999993
 20
1140.499999999994
 30
0.0
 11
856.2999999999993
 21
1170.499999999994
 31
0.0
  0
LINE
  5
C43
330
1D9
100
AcDbEntity
  8
0
100
AcDbLine
 10
803.7999999999993
 20
1146.499999999996
 30
0.0
 11
872.8000000000001
 21
1146.499999999996
 31
0.0
  0
LINE
  5
C44
330
1D9
100
AcDbEntity
  8
0
100
AcDbLine
 10
873.7999999999992
 20
1147.499999999995
 30
0.0
 11
872.7999999999992
 21
1146.499999999994
 31
0.0
  0
LINE
  5
C45
330
1D9
100
AcDbEntity
  8
0
100
AcDbLine
 10
840.3857864376259
 20
1143.085786437622
 30
0.0
 11
843.7999999999993
 21
1146.499999999994
 31
0.0
  0
ARC
  5
C46
330
1D9
100
AcDbEntity
  8
0
100
AcDbCircle
 10
838.9715728752534
 20
1144.499999999996
 30
0.0
 40
2.0
100
AcDbArc
 50
270.0
 51
314.9999999999933
  0
ARC
  5
C47
330
1D9
100
AcDbEntity
  8
0
100
AcDbCircle
 10
791.8000000000001
 20
1229.099999999994
 30
0.0
 40
2.5
100
AcDbArc
 50
180.0
 51
0.0
  0
LINE
  5
C48
330
1D9
100
AcDbEntity
  8
0
100
AcDbLine
 10
790.3499999999993
 20
1229.499999999995
 30
0.0
 11
789.6499999999997
 21
1229.499999999995
 31
0.0
  0
LINE
  5
C49
330
1D9
100
AcDbEntity
  8
0
100
AcDbLine
 10
789.3000000000001
 20
1229.149999999995
 30
0.0
 11
789.3000000000001
 21
1229.099999999994
 31
0.0
  0
ARC
  5
C4A
330
1D9
100
AcDbEntity
  8
0
100
AcDbCircle
 10
789.6499999999997
 20
1229.149999999995
 30
0.0
 40
0.35
100
AcDbArc
 50
90.0
 51
180.0
  0
ARC
  5
C4B
330
1D9
100
AcDbEntity
  8
0
100
AcDbCircle
 10
811.3618625999997
 20
1228.252549599995
 30
0.0
 40
0.4381374000000001
100
AcDbArc
 50
270.0
 51
0.0
  0
ELLIPSE
  5
C4C
330
1D9
100
AcDbEntity
  8
0
100
AcDbEllipse
 10
815.7999999999997
 20
1229.829844239995
 30
0.0
 11
0.0
 21
3.329844239999959
 31
0.0
210
0.0
220
0.0
230
-1.0
 40
0.7894736842105356
 41
0.0
 42
6.283185307179585
  0
ELLIPSE
  5
C4D
330
1D9
100
AcDbEntity
  8
0
100
AcDbEllipse
 10
815.7999999999997
 20
1229.829844239995
 30
0.0
 11
0.0
 21
1.927804560000039
 31
0.0
210
0.0
220
0.0
230
-1.0
 40
0.6363636363636646
 41
0.0
 42
6.283185307179585
  0
LINE
  5
C4E
330
1D9
100
AcDbEntity
  8
0
100
AcDbLine
 10
810.9237252000003
 20
1227.814412199994
 30
0.0
 11
811.3618625999997
 21
1227.814412199994
 31
0.0
  0
LINE
  5
C4F
330
1D9
100
AcDbEntity
  8
0
100
AcDbLine
 10
809.5216855199996
 20
1227.814412199994
 30
0.0
 11
809.5216855199996
 21
1226.938137399995
 31
0.0
  0
LINE
  5
C50
330
1D9
100
AcDbEntity
  8
0
100
AcDbLine
 10
809.9598229200001
 20
1226.499999999995
 30
0.0
 11
810.4855877999996
 21
1226.499999999995
 31
0.0
  0
LINE
  5
C51
330
1D9
100
AcDbEntity
  8
0
100
AcDbLine
 10
810.9237251999994
 20
1226.938137399995
 30
0.0
 11
810.9237252000003
 21
1227.814412199994
 31
0.0
  0
ARC
  5
C52
330
1D9
100
AcDbEntity
  8
0
100
AcDbCircle
 10
809.9598229200001
 20
1226.938137399995
 30
0.0
 40
0.4381374000000001
100
AcDbArc
 50
180.0
 51
270.0
  0
ARC
  5
C53
330
1D9
100
AcDbEntity
  8
0
100
AcDbCircle
 10
810.4855877999996
 20
1226.938137399995
 30
0.0
 40
0.4381374000000001
100
AcDbArc
 50
270.0
 51
0.0
  0
LINE
  5
C54
330
1D9
100
AcDbEntity
  8
0
100
AcDbLine
 10
809.7516715822266
 20
1233.533880338226
 30
0.0
 11
810.4855877999996
 21
1233.533880338226
 31
0.0
  0
ARC
  5
C55
330
1D9
100
AcDbEntity
  8
0
100
AcDbCircle
 10
810.4855877999996
 20
1233.095742938226
 30
0.0
 40
0.4381374000000001
100
AcDbArc
 50
0.0
 51
90.0
  0
ARC
  5
C56
330
1D9
100
AcDbEntity
  8
0
100
AcDbCircle
 10
809.7516715822266
 20
1233.095742938226
 30
0.0
 40
0.4381374000000001
100
AcDbArc
 50
90.0
 51
145.3915493329206
  0
LINE
  5
C57
330
1D9
100
AcDbEntity
  8
0
100
AcDbLine
 10
811.3618625999997
 20
1229.216451879995
 30
0.0
 11
810.9237252000003
 21
1229.216451879995
 31
0.0
  0
LINE
  5
C58
330
1D9
100
AcDbEntity
  8
0
100
AcDbLine
 10
809.5216855199996
 20
1229.216451879995
 30
0.0
 11
808.2458142201621
 21
1229.216451879995
 31
0.0
  0
LINE
  5
C59
330
1D9
100
AcDbEntity
  8
0
100
AcDbLine
 10
811.8000000000003
 20
1228.252549599995
 30
0.0
 11
811.8000000000003
 21
1228.778314479995
 31
0.0
  0
LINE
  5
C5A
330
1D9
100
AcDbEntity
  8
0
100
AcDbLine
 10
810.9237252000003
 20
1229.216451879995
 30
0.0
 11
810.9237251999994
 21
1233.095742938226
 31
0.0
  0
LINE
  5
C5B
330
1D9
100
AcDbEntity
  8
0
100
AcDbLine
 10
809.5216855199996
 20
1231.065349139353
 30
0.0
 11
809.5216855199996
 21
1229.216451879995
 31
0.0
  0
LINE
  5
C5C
330
1D9
100
AcDbEntity
  8
0
100
AcDbLine
 10
809.5216855199996
 20
1231.065349139353
 30
0.0
 11
808.2458142201621
 21
1229.216451879995
 31
0.0
  0
ARC
  5
C5D
330
1D9
100
AcDbEntity
  8
0
100
AcDbCircle
 10
811.3618625999997
 20
1228.778314479995
 30
0.0
 40
0.4381374000000001
100
AcDbArc
 50
0.0
 51
90.0
  0
ARC
  5
C5E
330
1D9
100
AcDbEntity
  8
0
100
AcDbCircle
 10
806.9804885999992
 20
1228.252549599995
 30
0.0
 40
0.4381374000000001
100
AcDbArc
 50
180.0
 51
270.0
  0
LINE
  5
C5F
330
1D9
100
AcDbEntity
  8
0
100
AcDbLine
 10
805.3000000000002
 20
1230.349999999995
 30
0.0
 11
805.3000000000002
 21
1229.649999999995
 31
0.0
  0
ARC
  5
C60
330
1D9
100
AcDbEntity
  8
0
100
AcDbCircle
 10
804.9499999999996
 20
1230.349999999995
 30
0.0
 40
0.35
100
AcDbArc
 50
0.0
 51
90.0
  0
LINE
  5
C61
330
1D9
100
AcDbEntity
  8
0
100
AcDbLine
 10
806.5423511999997
 20
1228.252549599995
 30
0.0
 11
806.5423511999997
 21
1229.079951830087
 31
0.0
  0
ARC
  5
C62
330
1D9
100
AcDbEntity
  8
0
100
AcDbCircle
 10
804.9499999999996
 20
1229.649999999995
 30
0.0
 40
0.35
100
AcDbArc
 50
270.0
 51
0.0
  0
ARC
  5
C63
330
1D9
100
AcDbEntity
  8
0
100
AcDbCircle
 10
806.9804885999992
 20
1229.079951830087
 30
0.0
 40
0.4381374000000001
100
AcDbArc
 50
145.3915493329206
 51
180.0
  0
LINE
  5
C64
330
1D9
100
AcDbEntity
  8
0
100
AcDbLine
 10
799.3999999999997
 20
1226.849999999995
 30
0.0
 11
799.3999999999997
 21
1229.418008734452
 31
0.0
  0
LINE
  5
C65
330
1D9
100
AcDbEntity
  8
0
100
AcDbLine
 10
800.8000000000002
 20
1233.149999999994
 30
0.0
 11
800.8000000000002
 21
1226.849999999995
 31
0.0
  0
ARC
  5
C66
330
1D9
100
AcDbEntity
  8
0
100
AcDbCircle
 10
791.8000000000001
 20
1229.099999999994
 30
0.0
 40
1.099999999999965
100
AcDbArc
 50
180.0
 51
0.0
  0
LINE
  5
C67
330
1D9
100
AcDbEntity
  8
0
100
AcDbLine
 10
797.1999999999996
 20
1229.418008734452
 30
0.0
 11
797.1999999999996
 21
1226.849999999995
 31
0.0
  0
LINE
  5
C68
330
1D9
100
AcDbEntity
  8
0
100
AcDbLine
 10
795.8000000000001
 20
1226.849999999995
 30
0.0
 11
795.8000000000001
 21
1233.149999999994
 31
0.0
  0
LINE
  5
C69
330
1D9
100
AcDbEntity
  8
0
100
AcDbLine
 10
799.75
 20
1226.499999999995
 30
0.0
 11
800.4499999999996
 21
1226.499999999995
 31
0.0
  0
ARC
  5
C6A
330
1D9
100
AcDbEntity
  8
0
100
AcDbCircle
 10
799.75
 20
1226.849999999995
 30
0.0
 40
0.35
100
AcDbArc
 50
180.0
 51
270.0
  0
ARC
  5
C6B
330
1D9
100
AcDbEntity
  8
0
100
AcDbCircle
 10
800.4499999999996
 20
1226.849999999995
 30
0.0
 40
0.35
100
AcDbArc
 50
270.0
 51
0.0
  0
ARC
  5
C6C
330
1D9
100
AcDbEntity
  8
0
100
AcDbCircle
 10
796.8499999999993
 20
1226.849999999995
 30
0.0
 40
0.35
100
AcDbArc
 50
270.0
 51
0.0
  0
LINE
  5
C6D
330
1D9
100
AcDbEntity
  8
0
100
AcDbLine
 10
796.1499999999997
 20
1226.499999999995
 30
0.0
 11
796.8499999999993
 21
1226.499999999995
 31
0.0
  0
ARC
  5
C6E
330
1D9
100
AcDbEntity
  8
0
100
AcDbCircle
 10
796.1499999999997
 20
1226.849999999995
 30
0.0
 40
0.35
100
AcDbArc
 50
180.0
 51
270.0
  0
LINE
  5
C6F
330
1D9
100
AcDbEntity
  8
0
100
AcDbLine
 10
799.75
 20
1233.499999999995
 30
0.0
 11
800.4499999999996
 21
1233.499999999995
 31
0.0
  0
ARC
  5
C70
330
1D9
100
AcDbEntity
  8
0
100
AcDbCircle
 10
799.75
 20
1233.149999999994
 30
0.0
 40
0.35
100
AcDbArc
 50
90.0
 51
180.0
  0
LINE
  5
C71
330
1D9
100
AcDbEntity
  8
0
100
AcDbLine
 10
799.3999999999997
 20
1230.818008734452
 30
0.0
 11
799.3999999999997
 21
1233.149999999994
 31
0.0
  0
ARC
  5
C72
330
1D9
100
AcDbEntity
  8
0
100
AcDbCircle
 10
800.4499999999996
 20
1233.149999999994
 30
0.0
 40
0.35
100
AcDbArc
 50
0.0
 51
90.0
  0
LINE
  5
C73
330
1D9
100
AcDbEntity
  8
0
100
AcDbLine
 10
802.3000000000001
 20
1229.649999999995
 30
0.0
 11
802.3000000000001
 21
1230.349999999995
 31
0.0
  0
ARC
  5
C74
330
1D9
100
AcDbEntity
  8
0
100
AcDbCircle
 10
802.6499999999996
 20
1230.349999999995
 30
0.0
 40
0.35
100
AcDbArc
 50
90.0
 51
180.0
  0
ARC
  5
C75
330
1D9
100
AcDbEntity
  8
0
100
AcDbCircle
 10
802.6499999999996
 20
1229.649999999995
 30
0.0
 40
0.35
100
AcDbArc
 50
180.0
 51
270.0
  0
LINE
  5
C76
330
1D9
100
AcDbEntity
  8
0
100
AcDbLine
 10
790.6999999999997
 20
1229.099999999994
 30
0.0
 11
790.6999999999997
 21
1229.149999999995
 31
0.0
  0
ARC
  5
C77
330
1D9
100
AcDbEntity
  8
0
100
AcDbCircle
 10
790.3499999999993
 20
1229.149999999995
 30
0.0
 40
0.35
100
AcDbArc
 50
0.0
 51
90.0
  0
ARC
  5
C78
330
1D9
100
AcDbEntity
  8
0
100
AcDbCircle
 10
796.1499999999997
 20
1233.149999999994
 30
0.0
 40
0.35
100
AcDbArc
 50
90.0
 51
180.0
  0
ARC
  5
C79
330
1D9
100
AcDbEntity
  8
0
100
AcDbCircle
 10
796.8499999999993
 20
1233.149999999994
 30
0.0
 40
0.35
100
AcDbArc
 50
0.0
 51
90.0
  0
LINE
  5
C7A
330
1D9
100
AcDbEntity
  8
0
100
AcDbLine
 10
796.1499999999997
 20
1233.499999999995
 30
0.0
 11
796.8499999999993
 21
1233.499999999995
 31
0.0
  0
LINE
  5
C7B
330
1D9
100
AcDbEntity
  8
0
100
AcDbLine
 10
797.1999999999996
 20
1233.149999999994
 30
0.0
 11
797.1999999999996
 21
1230.818008734452
 31
0.0
  0
ARC
  5
C7C
330
1D9
100
AcDbEntity
  8
0
100
AcDbCircle
 10
793.25
 20
1233.149999999994
 30
0.0
 40
0.35
100
AcDbArc
 50
90.0
 51
180.0
  0
LINE
  5
C7D
330
1D9
100
AcDbEntity
  8
0
100
AcDbLine
 10
793.25
 20
1233.499999999995
 30
0.0
 11
793.9499999999997
 21
1233.499999999995
 31
0.0
  0
ARC
  5
C7E
330
1D9
100
AcDbEntity
  8
0
100
AcDbCircle
 10
793.9499999999997
 20
1233.149999999994
 30
0.0
 40
0.35
100
AcDbArc
 50
0.0
 51
90.0
  0
LINE
  5
C7F
330
1D9
100
AcDbEntity
  8
0
100
AcDbLine
 10
794.3000000000003
 20
1233.149999999994
 30
0.0
 11
794.3000000000003
 21
1229.099999999994
 31
0.0
  0
LINE
  5
C80
330
1D9
100
AcDbEntity
  8
0
100
AcDbLine
 10
792.8999999999997
 20
1229.099999999994
 30
0.0
 11
792.8999999999997
 21
1233.149999999994
 31
0.0
  0
LINE
  5
C81
330
1D9
100
AcDbEntity
  8
0
100
AcDbLine
 10
799.3999999999997
 20
1229.418008734452
 30
0.0
 11
797.1999999999996
 21
1229.418008734452
 31
0.0
  0
LINE
  5
C82
330
1D9
100
AcDbEntity
  8
0
100
AcDbLine
 10
797.1999999999996
 20
1230.818008734452
 30
0.0
 11
799.3999999999997
 21
1230.818008734452
 31
0.0
  0
LINE
  5
C83
330
1D9
100
AcDbEntity
  8
0
100
AcDbLine
 10
804.9499999999996
 20
1229.299999999994
 30
0.0
 11
802.6499999999996
 21
1229.299999999994
 31
0.0
  0
LINE
  5
C84
330
1D9
100
AcDbEntity
  8
0
100
AcDbLine
 10
802.6499999999996
 20
1230.699999999995
 30
0.0
 11
804.9499999999996
 21
1230.699999999995
 31
0.0
  0
LINE
  5
C85
330
1D9
100
AcDbEntity
  8
0
100
AcDbLine
 10
809.5216855199996
 20
1227.814412199994
 30
0.0
 11
806.9804885999992
 21
1227.814412199994
 31
0.0
  0
LINE
  5
C86
330
1D9
100
AcDbEntity
  8
0
100
AcDbLine
 10
809.3910614528478
 20
1233.344589710092
 30
0.0
 11
806.6198784706212
 21
1229.328798601954
 31
0.0
  0
ARC
  5
C87
330
1D9
100
AcDbEntity
  8
0
100
AcDbCircle
 10
860.7999999999984
 20
1200.896735578282
 30
0.0
 40
24.0
100
AcDbArc
 50
152.95188945364
 51
180.0
  0
ARC
  5
C88
330
1D9
100
AcDbEntity
  8
0
100
AcDbCircle
 10
839.7687364248449
 20
1247.499999999996
 30
0.0
 40
0.5
100
AcDbArc
 50
295.5863788189506
 51
90.0
  0
ARC
  5
C89
330
1D9
100
AcDbEntity
  8
0
100
AcDbCircle
 10
803.8000000000003
 20
1229.999999999995
 30
0.0
 40
40.0
100
AcDbArc
 50
26.74368395039223
 51
27.04811054635985
  0
ARC
  5
C8A
330
1D9
100
AcDbEntity
  8
0
100
AcDbCircle
 10
839.7687364248449
 20
1212.499999999995
 30
0.0
 40
0.5
100
AcDbArc
 50
270.0
 51
64.41362118104921
  0
ARC
  5
C8B
330
1D9
100
AcDbEntity
  8
0
100
AcDbCircle
 10
803.8000000000003
 20
1229.999999999995
 30
0.0
 40
40.0
100
AcDbArc
 50
332.9518894536401
 51
333.2563160496076
  0
ARC
  5
C8C
330
1D9
100
AcDbEntity
  8
0
100
AcDbCircle
 10
803.8000000000003
 20
1229.999999999995
 30
0.0
 40
40.0
100
AcDbArc
 50
334.7717221343563
 51
25.22827786564364
  0
ARC
  5
C8D
330
1D9
100
AcDbEntity
  8
0
100
AcDbCircle
 10
839.7999999999992
 20
1167.499999999995
 30
0.0
 40
3.0
100
AcDbArc
 50
180.0
 51
270.0
  0
LINE
  5
C8E
330
1D9
100
AcDbEntity
  8
0
100
AcDbLine
 10
873.7999999999992
 20
1163.499999999995
 30
0.0
 11
872.7999999999992
 21
1164.499999999994
 31
0.0
  0
LINE
  5
C8F
330
1D9
100
AcDbEntity
  8
0
100
AcDbLine
 10
836.7999999999993
 20
1200.896735578282
 30
0.0
 11
836.7999999999993
 21
1167.499999999995
 31
0.0
  0
LINE
  5
C90
330
1D9
100
AcDbEntity
  8
0
100
AcDbLine
 10
803.7999999999993
 20
1313.499999999995
 30
0.0
 11
872.7999999999992
 21
1313.499999999994
 31
0.0
  0
LINE
  5
C91
330
1D9
100
AcDbEntity
  8
0
100
AcDbLine
 10
873.7999999999992
 20
1312.499999999995
 30
0.0
 11
872.7999999999992
 21
1313.499999999995
 31
0.0
  0
ARC
  5
C92
330
1D9
100
AcDbEntity
  8
0
100
AcDbCircle
 10
838.9715728752534
 20
1315.499999999995
 30
0.0
 40
2.0
100
AcDbArc
 50
45.00000000000654
 51
90.0
  0
LINE
  5
C93
330
1D9
100
AcDbEntity
  8
0
100
AcDbLine
 10
840.3857864376259
 20
1316.914213562368
 30
0.0
 11
843.7999999999993
 21
1313.499999999995
 31
0.0
  0
ARC
  5
C94
330
1D9
100
AcDbEntity
  8
0
100
AcDbCircle
 10
839.7999999999992
 20
1292.499999999995
 30
0.0
 40
3.0
100
AcDbArc
 50
90.0
 51
180.0
  0
LINE
  5
C95
330
1D9
100
AcDbEntity
  8
0
100
AcDbLine
 10
836.7999999999993
 20
1259.103264421708
 30
0.0
 11
836.7999999999993
 21
1292.499999999995
 31
0.0
  0
LINE
  5
C96
330
1D9
100
AcDbEntity
  8
0
100
AcDbLine
 10
873.7999999999992
 20
1296.499999999995
 30
0.0
 11
872.7999999999992
 21
1295.499999999996
 31
0.0
  0
LINE
  5
C97
330
1D9
100
AcDbEntity
  8
0
100
AcDbLine
 10
873.7999999999992
 20
1312.499999999995
 30
0.0
 11
873.7999999999992
 21
1296.499999999995
 31
0.0
  0
LINE
  5
C98
330
1D9
100
AcDbEntity
  8
0
100
AcDbLine
 10
856.2999999999993
 20
1319.499999999996
 30
0.0
 11
856.2999999999993
 21
1289.499999999994
 31
0.0
  0
ARC
  5
C99
330
1D9
100
AcDbEntity
  8
0
100
AcDbCircle
 10
1191.999999999998
 20
1265.999999999998
 30
0.0
 40
29.0
100
AcDbArc
 50
180.0
 51
208.0724869358596
  0
ARC
  5
C9A
330
1D9
100
AcDbEntity
  8
0
100
AcDbCircle
 10
1057.0
 20
1265.999999999998
 30
0.0
 40
29.0
100
AcDbArc
 50
331.9275130641402
 51
0.0
  0
LINE
  5
C9B
330
1D9
100
AcDbEntity
  8
0
100
AcDbLine
 10
1124.499999999998
 20
1323.499999999996
 30
0.0
 11
1124.5
 21
1136.499999999996
 31
0.0
  0
LINE
  5
C9C
330
1D9
100
AcDbEntity
  8
0
100
AcDbLine
 10
1064.499999999998
 20
1139.499999999996
 30
0.0
 11
1064.499999999998
 21
1171.499999999996
 31
0.0
  0
LINE
  5
C9D
330
1D9
100
AcDbEntity
  8
0
100
AcDbLine
 10
1046.999999999998
 20
1147.499999999996
 30
0.0
 11
1046.999999999998
 21
1163.499999999996
 31
0.0
  0
LINE
  5
C9E
330
1D9
100
AcDbEntity
  8
0
100
AcDbLine
 10
1047.999999999998
 20
1146.499999999996
 30
0.0
 11
1046.999999999998
 21
1147.499999999996
 31
0.0
  0
LINE
  5
C9F
330
1D9
100
AcDbEntity
  8
0
100
AcDbLine
 10
1046.999999999998
 20
1163.499999999996
 30
0.0
 11
1047.999999999998
 21
1164.499999999996
 31
0.0
  0
LINE
  5
CA0
330
1D9
100
AcDbEntity
  8
0
100
AcDbLine
 10
1082.328427124745
 20
1142.499999999996
 30
0.0
 11
1166.671572875251
 21
1142.499999999996
 31
0.0
  0
LINE
  5
CA1
330
1D9
100
AcDbEntity
  8
0
100
AcDbLine
 10
1077.5
 20
1146.499999999996
 30
0.0
 11
1080.914213562373
 21
1143.085786437622
 31
0.0
  0
ARC
  5
CA2
330
1D9
100
AcDbEntity
  8
0
100
AcDbCircle
 10
1082.328427124745
 20
1144.499999999996
 30
0.0
 40
2.0
100
AcDbArc
 50
225.0000000000088
 51
270.0
  0
LINE
  5
CA3
330
1D9
100
AcDbEntity
  8
0
100
AcDbLine
 10
1117.899999999999
 20
1230.699999999996
 30
0.0
 11
1120.099999999998
 21
1230.699999999996
 31
0.0
  0
LINE
  5
CA4
330
1D9
100
AcDbEntity
  8
0
100
AcDbLine
 10
1120.099999999998
 20
1229.299999999994
 30
0.0
 11
1117.899999999999
 21
1229.299999999994
 31
0.0
  0
ARC
  5
CA5
330
1D9
100
AcDbEntity
  8
0
100
AcDbCircle
 10
1057.0
 20
1193.999999999993
 30
0.0
 40
29.0
100
AcDbArc
 50
0.0
 51
28.07248693585979
  0
ARC
  5
CA6
330
1D9
100
AcDbEntity
  8
0
100
AcDbCircle
 10
1124.499999999998
 20
1229.999999999996
 30
0.0
 40
47.5
100
AcDbArc
 50
158.9848438308978
 51
201.0151561691019
  0
ARC
  5
CA7
330
1D9
100
AcDbEntity
  8
0
100
AcDbCircle
 10
1112.5
 20
1229.099999999996
 30
0.0
 40
1.099999999999965
100
AcDbArc
 50
180.0
 51
0.0
  0
ARC
  5
CA8
330
1D9
100
AcDbEntity
  8
0
100
AcDbCircle
 10
1112.5
 20
1229.099999999996
 30
0.0
 40
2.5
100
AcDbArc
 50
180.0
 51
0.0
  0
ARC
  5
CA9
330
1D9
100
AcDbEntity
  8
0
100
AcDbCircle
 10
1111.049999999999
 20
1229.149999999996
 30
0.0
 40
0.35
100
AcDbArc
 50
0.0
 51
90.0
  0
LINE
  5
CAA
330
1D9
100
AcDbEntity
  8
0
100
AcDbLine
 10
1111.399999999999
 20
1229.099999999996
 30
0.0
 11
1111.399999999999
 21
1229.149999999996
 31
0.0
  0
ARC
  5
CAB
330
1D9
100
AcDbEntity
  8
0
100
AcDbCircle
 10
1110.349999999999
 20
1229.149999999996
 30
0.0
 40
0.35
100
AcDbArc
 50
90.0
 51
180.0
  0
LINE
  5
CAC
330
1D9
100
AcDbEntity
  8
0
100
AcDbLine
 10
1111.049999999999
 20
1229.499999999996
 30
0.0
 11
1110.349999999999
 21
1229.499999999996
 31
0.0
  0
LINE
  5
CAD
330
1D9
100
AcDbEntity
  8
0
100
AcDbLine
 10
1110.0
 20
1229.149999999996
 30
0.0
 11
1110.0
 21
1229.099999999996
 31
0.0
  0
LINE
  5
CAE
330
1D9
100
AcDbEntity
  8
0
100
AcDbLine
 10
1117.899999999999
 20
1229.299999999994
 30
0.0
 11
1117.899999999999
 21
1226.849999999996
 31
0.0
  0
ARC
  5
CAF
330
1D9
100
AcDbEntity
  8
0
100
AcDbCircle
 10
1117.549999999999
 20
1233.149999999996
 30
0.0
 40
0.35
100
AcDbArc
 50
0.0
 51
90.0
  0
ARC
  5
CB0
330
1D9
100
AcDbEntity
  8
0
100
AcDbCircle
 10
1117.549999999999
 20
1226.849999999996
 30
0.0
 40
0.35
100
AcDbArc
 50
270.0
 51
0.0
  0
LINE
  5
CB1
330
1D9
100
AcDbEntity
  8
0
100
AcDbLine
 10
1116.849999999999
 20
1226.499999999996
 30
0.0
 11
1117.549999999999
 21
1226.499999999996
 31
0.0
  0
ARC
  5
CB2
330
1D9
100
AcDbEntity
  8
0
100
AcDbCircle
 10
1116.849999999999
 20
1226.849999999996
 30
0.0
 40
0.35
100
AcDbArc
 50
180.0
 51
270.0
  0
LINE
  5
CB3
330
1D9
100
AcDbEntity
  8
0
100
AcDbLine
 10
1116.5
 20
1226.849999999996
 30
0.0
 11
1116.5
 21
1233.149999999996
 31
0.0
  0
LINE
  5
CB4
330
1D9
100
AcDbEntity
  8
0
100
AcDbLine
 10
1117.899999999999
 20
1233.149999999996
 30
0.0
 11
1117.899999999999
 21
1230.699999999996
 31
0.0
  0
ARC
  5
CB5
330
1D9
100
AcDbEntity
  8
0
100
AcDbCircle
 10
1116.849999999999
 20
1233.149999999996
 30
0.0
 40
0.35
100
AcDbArc
 50
90.0
 51
180.0
  0
LINE
  5
CB6
330
1D9
100
AcDbEntity
  8
0
100
AcDbLine
 10
1116.849999999999
 20
1233.499999999996
 30
0.0
 11
1117.549999999999
 21
1233.499999999996
 31
0.0
  0
LINE
  5
CB7
330
1D9
100
AcDbEntity
  8
0
100
AcDbLine
 10
1115.0
 20
1233.149999999996
 30
0.0
 11
1115.0
 21
1229.099999999996
 31
0.0
  0
ARC
  5
CB8
330
1D9
100
AcDbEntity
  8
0
100
AcDbCircle
 10
1113.949999999998
 20
1233.149999999996
 30
0.0
 40
0.35
100
AcDbArc
 50
90.0
 51
180.0
  0
LINE
  5
CB9
330
1D9
100
AcDbEntity
  8
0
100
AcDbLine
 10
1113.949999999998
 20
1233.499999999996
 30
0.0
 11
1114.649999999999
 21
1233.499999999996
 31
0.0
  0
LINE
  5
CBA
330
1D9
100
AcDbEntity
  8
0
100
AcDbLine
 10
1113.599999999999
 20
1229.099999999996
 30
0.0
 11
1113.599999999999
 21
1233.149999999996
 31
0.0
  0
ARC
  5
CBB
330
1D9
100
AcDbEntity
  8
0
100
AcDbCircle
 10
1114.649999999999
 20
1233.149999999996
 30
0.0
 40
0.35
100
AcDbArc
 50
0.0
 51
90.0
  0
ARC
  5
CBC
330
1D9
100
AcDbEntity
  8
0
100
AcDbCircle
 10
1124.499999999998
 20
1229.999999999996
 30
0.0
 40
47.5
100
AcDbArc
 50
202.2684954693323
 51
208.0724869358596
  0
ARC
  5
CBD
330
1D9
100
AcDbEntity
  8
0
100
AcDbCircle
 10
1080.341195668359
 20
1247.499999999996
 30
0.0
 40
0.5
100
AcDbArc
 50
90.0
 51
248.6832857044264
  0
ARC
  5
CBE
330
1D9
100
AcDbEntity
  8
0
100
AcDbCircle
 10
1124.499999999998
 20
1229.999999999996
 30
0.0
 40
47.5
100
AcDbArc
 50
151.9275130641401
 51
157.7315045306675
  0
ARC
  5
CBF
330
1D9
100
AcDbEntity
  8
0
100
AcDbCircle
 10
1080.341195668359
 20
1212.499999999996
 30
0.0
 40
0.5
100
AcDbArc
 50
111.3167142955735
 51
270.0
  0
ARC
  5
CC0
330
1D9
100
AcDbEntity
  8
0
100
AcDbCircle
 10
1083.0
 20
1167.499999999996
 30
0.0
 40
3.0
100
AcDbArc
 50
270.0
 51
0.0
  0
LINE
  5
CC1
330
1D9
100
AcDbEntity
  8
0
100
AcDbLine
 10
1086.0
 20
1193.999999999993
 30
0.0
 11
1086.0
 21
1167.499999999996
 31
0.0
  0
ARC
  5
CC2
330
1D9
100
AcDbEntity
  8
0
100
AcDbCircle
 10
1130.049999999999
 20
1228.95941216279
 30
0.0
 40
2.449999999999997
100
AcDbArc
 50
209.9999999999953
 51
109.0881237431214
  0
LINE
  5
CC3
330
1D9
100
AcDbEntity
  8
0
100
AcDbLine
 10
1126.0
 20
1230.349999999996
 30
0.0
 11
1126.0
 21
1229.649999999996
 31
0.0
  0
ARC
  5
CC4
330
1D9
100
AcDbEntity
  8
0
100
AcDbCircle
 10
1125.649999999999
 20
1229.649999999996
 30
0.0
 40
0.35
100
AcDbArc
 50
270.0
 51
0.0
  0
ARC
  5
CC5
330
1D9
100
AcDbEntity
  8
0
100
AcDbCircle
 10
1125.649999999999
 20
1230.349999999996
 30
0.0
 40
0.35
100
AcDbArc
 50
0.0
 51
90.0
  0
LINE
  5
CC6
330
1D9
100
AcDbEntity
  8
0
100
AcDbLine
 10
1123.0
 20
1229.649999999996
 30
0.0
 11
1123.0
 21
1230.349999999996
 31
0.0
  0
ARC
  5
CC7
330
1D9
100
AcDbEntity
  8
0
100
AcDbCircle
 10
1123.349999999999
 20
1230.349999999996
 30
0.0
 40
0.35
100
AcDbArc
 50
90.0
 51
180.0
  0
ARC
  5
CC8
330
1D9
100
AcDbEntity
  8
0
100
AcDbCircle
 10
1123.349999999999
 20
1229.649999999996
 30
0.0
 40
0.35
100
AcDbArc
 50
180.0
 51
270.0
  0
LINE
  5
CC9
330
1D9
100
AcDbEntity
  8
0
100
AcDbLine
 10
1125.649999999999
 20
1229.299999999994
 30
0.0
 11
1123.349999999999
 21
1229.299999999994
 31
0.0
  0
LINE
  5
CCA
330
1D9
100
AcDbEntity
  8
0
100
AcDbLine
 10
1123.349999999999
 20
1230.699999999996
 30
0.0
 11
1125.649999999999
 21
1230.699999999996
 31
0.0
  0
ARC
  5
CCB
330
1D9
100
AcDbEntity
  8
0
100
AcDbCircle
 10
1121.149999999998
 20
1233.149999999996
 30
0.0
 40
0.35
100
AcDbArc
 50
0.0
 51
90.0
  0
ARC
  5
CCC
330
1D9
100
AcDbEntity
  8
0
100
AcDbCircle
 10
1121.149999999998
 20
1226.849999999996
 30
0.0
 40
0.35
100
AcDbArc
 50
270.0
 51
0.0
  0
LINE
  5
CCD
330
1D9
100
AcDbEntity
  8
0
100
AcDbLine
 10
1121.499999999999
 20
1233.149999999996
 30
0.0
 11
1121.499999999999
 21
1226.849999999996
 31
0.0
  0
LINE
  5
CCE
330
1D9
100
AcDbEntity
  8
0
100
AcDbLine
 10
1120.099999999998
 20
1230.699999999996
 30
0.0
 11
1120.099999999998
 21
1233.149999999996
 31
0.0
  0
ARC
  5
CCF
330
1D9
100
AcDbEntity
  8
0
100
AcDbCircle
 10
1120.449999999998
 20
1233.149999999996
 30
0.0
 40
0.35
100
AcDbArc
 50
90.0
 51
180.0
  0
ARC
  5
CD0
330
1D9
100
AcDbEntity
  8
0
100
AcDbCircle
 10
1120.449999999998
 20
1226.849999999996
 30
0.0
 40
0.35
100
AcDbArc
 50
180.0
 51
270.0
  0
LINE
  5
CD1
330
1D9
100
AcDbEntity
  8
0
100
AcDbLine
 10
1120.099999999998
 20
1226.849999999996
 30
0.0
 11
1120.099999999998
 21
1229.299999999994
 31
0.0
  0
LINE
  5
CD2
330
1D9
100
AcDbEntity
  8
0
100
AcDbLine
 10
1120.449999999998
 20
1233.499999999996
 30
0.0
 11
1121.149999999998
 21
1233.499999999996
 31
0.0
  0
LINE
  5
CD3
330
1D9
100
AcDbEntity
  8
0
100
AcDbLine
 10
1120.449999999998
 20
1226.499999999996
 30
0.0
 11
1121.149999999998
 21
1226.499999999996
 31
0.0
  0
ARC
  5
CD4
330
1D9
100
AcDbEntity
  8
0
100
AcDbCircle
 10
1191.999999999998
 20
1193.999999999993
 30
0.0
 40
29.0
100
AcDbArc
 50
151.9275130641401
 51
180.0
  0
ELLIPSE
  5
CD5
330
1D9
100
AcDbEntity
  8
0
100
AcDbEllipse
 10
1136.499999999998
 20
1229.999999999996
 30
0.0
 11
0.0
 21
1.925000000000038
 31
0.0
210
0.0
220
0.0
230
-1.0
 40
0.6363636363636646
 41
0.0
 42
6.283185307179585
  0
ELLIPSE
  5
CD6
330
1D9
100
AcDbEntity
  8
0
100
AcDbEllipse
 10
1136.499999999998
 20
1229.999999999996
 30
0.0
 11
0.0
 21
3.324999999999958
 31
0.0
210
0.0
220
0.0
230
-1.0
 40
0.7894736842105358
 41
0.0
 42
6.283185307179585
  0
LINE
  5
CD7
330
1D9
100
AcDbEntity
  8
0
100
AcDbLine
 10
1131.799999999999
 20
1233.15925466279
 30
0.0
 11
1131.799999999999
 21
1232.45925466279
 31
0.0
  0
ARC
  5
CD8
330
1D9
100
AcDbEntity
  8
0
100
AcDbCircle
 10
1131.449999999998
 20
1232.45925466279
 30
0.0
 40
0.35
100
AcDbArc
 50
270.0
 51
0.0
  0
ARC
  5
CD9
330
1D9
100
AcDbEntity
  8
0
100
AcDbCircle
 10
1131.449999999998
 20
1233.15925466279
 30
0.0
 40
0.35
100
AcDbArc
 50
0.0
 51
90.0
  0
LINE
  5
CDA
330
1D9
100
AcDbEntity
  8
0
100
AcDbLine
 10
1129.123987041125
 20
1228.25941216279
 30
0.0
 11
1128.231346652051
 21
1228.25941216279
 31
0.0
  0
LINE
  5
CDB
330
1D9
100
AcDbEntity
  8
0
100
AcDbLine
 10
1127.735418454665
 20
1230.039916672752
 30
0.0
 11
1128.010993965308
 21
1233.189759172752
 31
0.0
  0
LINE
  5
CDC
330
1D9
100
AcDbEntity
  8
0
100
AcDbLine
 10
1129.248796043297
 20
1231.274703120697
 30
0.0
 11
1129.321809842359
 21
1232.10925466279
 31
0.0
  0
LINE
  5
CDD
330
1D9
100
AcDbEntity
  8
0
100
AcDbLine
 10
1128.084086598999
 20
1229.659412162789
 30
0.0
 11
1129.123987041125
 21
1229.659412162789
 31
0.0
  0
ARC
  5
CDE
330
1D9
100
AcDbEntity
  8
0
100
AcDbCircle
 10
1128.084086598999
 20
1230.00941216279
 30
0.0
 40
0.35
100
AcDbArc
 50
175.0000000000007
 51
270.0
  0
ARC
  5
CDF
330
1D9
100
AcDbEntity
  8
0
100
AcDbCircle
 10
1128.231346652051
 20
1227.90941216279
 30
0.0
 40
0.35
100
AcDbArc
 50
90.0
 51
209.9999999999953
  0
ARC
  5
CE0
330
1D9
100
AcDbEntity
  8
0
100
AcDbCircle
 10
1129.123987041125
 20
1227.90941216279
 30
0.0
 40
0.35
100
AcDbArc
 50
48.59037789073066
 51
90.0
  0
ARC
  5
CE1
330
1D9
100
AcDbEntity
  8
0
100
AcDbCircle
 10
1129.123987041125
 20
1230.00941216279
 30
0.0
 40
0.35
100
AcDbArc
 50
270.0
 51
311.4096221092693
  0
ARC
  5
CE2
330
1D9
100
AcDbEntity
  8
0
100
AcDbCircle
 10
1128.359662109641
 20
1233.15925466279
 30
0.0
 40
0.35
100
AcDbArc
 50
90.0
 51
175.0000000000007
  0
ARC
  5
CE3
330
1D9
100
AcDbEntity
  8
0
100
AcDbCircle
 10
1130.049999999999
 20
1228.95941216279
 30
0.0
 40
1.05
100
AcDbArc
 50
228.5903778907306
 51
131.4096221092692
  0
LINE
  5
CE4
330
1D9
100
AcDbEntity
  8
0
100
AcDbLine
 10
1128.359662109641
 20
1233.50925466279
 30
0.0
 11
1131.449999999998
 21
1233.50925466279
 31
0.0
  0
LINE
  5
CE5
330
1D9
100
AcDbEntity
  8
0
100
AcDbLine
 10
1131.449999999998
 20
1232.10925466279
 30
0.0
 11
1129.321809842359
 21
1232.10925466279
 31
0.0
  0
ARC
  5
CE6
330
1D9
100
AcDbEntity
  8
0
100
AcDbCircle
 10
1165.999999999998
 20
1167.499999999996
 30
0.0
 40
3.0
100
AcDbArc
 50
180.0
 51
270.0
  0
LINE
  5
CE7
330
1D9
100
AcDbEntity
  8
0
100
AcDbLine
 10
1162.999999999998
 20
1193.999999999993
 30
0.0
 11
1162.999999999998
 21
1167.499999999996
 31
0.0
  0
LINE
  5
CE8
330
1D9
100
AcDbEntity
  8
0
100
AcDbLine
 10
1047.999999999998
 20
1313.499999999996
 30
0.0
 11
1046.999999999998
 21
1312.499999999996
 31
0.0
  0
LINE
  5
CE9
330
1D9
100
AcDbEntity
  8
0
100
AcDbLine
 10
1046.999999999998
 20
1296.499999999996
 30
0.0
 11
1047.999999999998
 21
1295.499999999996
 31
0.0
  0
LINE
  5
CEA
330
1D9
100
AcDbEntity
  8
0
100
AcDbLine
 10
1064.499999999998
 20
1320.499999999995
 30
0.0
 11
1064.499999999998
 21
1288.499999999995
 31
0.0
  0
LINE
  5
CEB
330
1D9
100
AcDbEntity
  8
0
100
AcDbLine
 10
1046.999999999998
 20
1312.499999999996
 30
0.0
 11
1046.999999999998
 21
1296.499999999996
 31
0.0
  0
LINE
  5
CEC
330
1D9
100
AcDbEntity
  8
0
100
AcDbLine
 10
1082.328427124745
 20
1317.499999999996
 30
0.0
 11
1166.671572875251
 21
1317.499999999996
 31
0.0
  0
LINE
  5
CED
330
1D9
100
AcDbEntity
  8
0
100
AcDbLine
 10
1077.5
 20
1313.499999999996
 30
0.0
 11
1080.914213562373
 21
1316.914213562369
 31
0.0
  0
ARC
  5
CEE
330
1D9
100
AcDbEntity
  8
0
100
AcDbCircle
 10
1082.328427124745
 20
1315.499999999996
 30
0.0
 40
2.0
100
AcDbArc
 50
90.0
 51
134.9999999999911
  0
LINE
  5
CEF
330
1D9
100
AcDbEntity
  8
0
100
AcDbLine
 10
1086.0
 20
1265.999999999999
 30
0.0
 11
1086.0
 21
1292.499999999996
 31
0.0
  0
ARC
  5
CF0
330
1D9
100
AcDbEntity
  8
0
100
AcDbCircle
 10
1083.0
 20
1292.499999999996
 30
0.0
 40
3.0
100
AcDbArc
 50
0.0
 51
90.0
  0
LINE
  5
CF1
330
1D9
100
AcDbEntity
  8
0
100
AcDbLine
 10
1162.999999999998
 20
1265.999999999999
 30
0.0
 11
1162.999999999998
 21
1292.499999999996
 31
0.0
  0
ARC
  5
CF2
330
1D9
100
AcDbEntity
  8
0
100
AcDbCircle
 10
1165.999999999998
 20
1292.499999999996
 30
0.0
 40
3.0
100
AcDbArc
 50
90.0
 51
180.0
  0
LINE
  5
CF3
330
1D9
100
AcDbEntity
  8
0
100
AcDbLine
 10
1201.999999999999
 20
1147.499999999996
 30
0.0
 11
1201.999999999999
 21
1163.499999999996
 31
0.0
  0
LINE
  5
CF4
330
1D9
100
AcDbEntity
  8
0
100
AcDbLine
 10
1184.499999999998
 20
1139.499999999996
 30
0.0
 11
1184.499999999998
 21
1171.499999999996
 31
0.0
  0
LINE
  5
CF5
330
1D9
100
AcDbEntity
  8
0
100
AcDbLine
 10
1171.499999999997
 20
1146.499999999996
 30
0.0
 11
1168.085786437624
 21
1143.085786437622
 31
0.0
  0
LINE
  5
CF6
330
1D9
100
AcDbEntity
  8
0
100
AcDbLine
 10
1200.999999999998
 20
1146.499999999996
 30
0.0
 11
1201.999999999999
 21
1147.499999999996
 31
0.0
  0
ARC
  5
CF7
330
1D9
100
AcDbEntity
  8
0
100
AcDbCircle
 10
1168.658804331638
 20
1247.499999999996
 30
0.0
 40
0.5
100
AcDbArc
 50
291.3167142955734
 51
90.0
  0
ARC
  5
CF8
330
1D9
100
AcDbEntity
  8
0
100
AcDbCircle
 10
1168.658804331638
 20
1212.499999999996
 30
0.0
 40
0.5
100
AcDbArc
 50
270.0
 51
68.68328570442645
  0
ARC
  5
CF9
330
1D9
100
AcDbEntity
  8
0
100
AcDbCircle
 10
1124.5
 20
1229.999999999996
 30
0.0
 40
47.5
100
AcDbArc
 50
338.9848438308979
 51
21.01515616910207
  0
LINE
  5
CFA
330
1D9
100
AcDbEntity
  8
0
100
AcDbLine
 10
1201.999999999999
 20
1163.499999999996
 30
0.0
 11
1200.999999999998
 21
1164.499999999996
 31
0.0
  0
LINE
  5
CFB
330
1D9
100
AcDbEntity
  8
0
100
AcDbLine
 10
1171.499999999997
 20
1313.499999999996
 30
0.0
 11
1168.085786437624
 21
1316.914213562369
 31
0.0
  0
LINE
  5
CFC
330
1D9
100
AcDbEntity
  8
0
100
AcDbLine
 10
1200.999999999998
 20
1313.499999999996
 30
0.0
 11
1201.999999999999
 21
1312.499999999996
 31
0.0
  0
LINE
  5
CFD
330
1D9
100
AcDbEntity
  8
0
100
AcDbLine
 10
1201.999999999999
 20
1296.499999999996
 30
0.0
 11
1200.999999999998
 21
1295.499999999996
 31
0.0
  0
LINE
  5
CFE
330
1D9
100
AcDbEntity
  8
0
100
AcDbLine
 10
1184.499999999998
 20
1320.499999999995
 30
0.0
 11
1184.499999999998
 21
1288.499999999995
 31
0.0
  0
LINE
  5
CFF
330
1D9
100
AcDbEntity
  8
0
100
AcDbLine
 10
1201.999999999999
 20
1312.499999999996
 30
0.0
 11
1201.999999999999
 21
1296.499999999996
 31
0.0
  0
ARC
  5
D00
330
1D9
100
AcDbEntity
  8
0
100
AcDbCircle
 10
1547.699999999999
 20
1267.735924528222
 30
0.0
 40
35.0
100
AcDbArc
 50
180.0
 51
203.9389262492057
  0
ARC
  5
D01
330
1D9
100
AcDbEntity
  8
0
100
AcDbCircle
 10
1377.699999999999
 20
1267.735924528222
 30
0.0
 40
35.0
100
AcDbArc
 50
336.0610737507942
 51
0.0
  0
LINE
  5
D02
330
1D9
100
AcDbEntity
  8
0
100
AcDbLine
 10
1462.699999999999
 20
1323.499999999996
 30
0.0
 11
1462.699999999999
 21
1136.499999999995
 31
0.0
  0
LINE
  5
D03
330
1D9
100
AcDbEntity
  8
0
100
AcDbLine
 10
1407.403074226499
 20
1211.999999999995
 30
0.0
 11
1517.9969257735
 21
1211.999999999995
 31
0.0
  0
LINE
  5
D04
330
1D9
100
AcDbEntity
  8
0
100
AcDbLine
 10
1407.254268290168
 20
1212.977343475192
 30
0.0
 11
1518.14573170983
 21
1212.977343475192
 31
0.0
  0
LINE
  5
D05
330
1D9
100
AcDbEntity
  8
0
100
AcDbLine
 10
1407.254268290168
 20
1247.0226565248
 30
0.0
 11
1518.14573170983
 21
1247.0226565248
 31
0.0
  0
LINE
  5
D06
330
1D9
100
AcDbEntity
  8
0
100
AcDbLine
 10
1407.403074226499
 20
1247.999999999996
 30
0.0
 11
1517.9969257735
 21
1247.999999999996
 31
0.0
  0
LINE
  5
D07
330
1D9
100
AcDbEntity
  8
0
100
AcDbLine
 10
1513.871572875252
 20
1142.499999999996
 30
0.0
 11
1411.528427124746
 21
1142.499999999996
 31
0.0
  0
LINE
  5
D08
330
1D9
100
AcDbEntity
  8
0
100
AcDbLine
 10
1376.199999999999
 20
1146.499999999996
 30
0.0
 11
1549.199999999999
 21
1146.499999999996
 31
0.0
  0
LINE
  5
D09
330
1D9
100
AcDbEntity
  8
0
100
AcDbLine
 10
1376.199999999999
 20
1166.499999999994
 30
0.0
 11
1549.199999999999
 21
1166.499999999994
 31
0.0
  0
LINE
  5
D0A
330
1D9
100
AcDbEntity
  8
0
100
AcDbLine
 10
1392.699999999999
 20
1140.499999999996
 30
0.0
 11
1392.699999999999
 21
1172.499999999994
 31
0.0
  0
LINE
  5
D0B
330
1D9
100
AcDbEntity
  8
0
100
AcDbLine
 10
1375.199999999999
 20
1147.499999999996
 30
0.0
 11
1375.199999999999
 21
1165.499999999995
 31
0.0
  0
ARC
  5
D0C
330
1D9
100
AcDbEntity
  8
0
100
AcDbCircle
 10
1411.528427124746
 20
1144.499999999996
 30
0.0
 40
2.0
100
AcDbArc
 50
225.0000000000088
 51
270.0
  0
LINE
  5
D0D
330
1D9
100
AcDbEntity
  8
0
100
AcDbLine
 10
1410.114213562373
 20
1143.085786437623
 30
0.0
 11
1406.699999999999
 21
1146.499999999996
 31
0.0
  0
LINE
  5
D0E
330
1D9
100
AcDbEntity
  8
0
100
AcDbLine
 10
1375.199999999999
 20
1147.499999999996
 30
0.0
 11
1376.199999999999
 21
1146.499999999996
 31
0.0
  0
ARC
  5
D0F
330
1D9
100
AcDbEntity
  8
0
100
AcDbCircle
 10
1409.699999999999
 20
1169.499999999995
 30
0.0
 40
3.0
100
AcDbArc
 50
270.0
 51
0.0
  0
ARC
  5
D10
330
1D9
100
AcDbEntity
  8
0
100
AcDbCircle
 10
1377.699999999999
 20
1192.264075471769
 30
0.0
 40
35.0
100
AcDbArc
 50
0.0
 51
23.93892624920569
  0
ARC
  5
D11
330
1D9
100
AcDbEntity
  8
0
100
AcDbCircle
 10
1462.699999999999
 20
1229.999999999996
 30
0.0
 40
58.0
100
AcDbArc
 50
156.0610737507943
 51
161.9199873755833
  0
ARC
  5
D12
330
1D9
100
AcDbEntity
  8
0
100
AcDbCircle
 10
1462.699999999999
 20
1229.999999999996
 30
0.0
 40
58.0
100
AcDbArc
 50
198.0800126244164
 51
203.9389262492057
  0
ARC
  5
D13
330
1D9
100
AcDbEntity
  8
0
100
AcDbCircle
 10
1407.403074226499
 20
1247.499999999996
 30
0.0
 40
0.5
100
AcDbArc
 50
90.0
 51
252.6857770200537
  0
ARC
  5
D14
330
1D9
100
AcDbEntity
  8
0
100
AcDbCircle
 10
1407.403074226499
 20
1212.499999999995
 30
0.0
 40
0.5
100
AcDbArc
 50
107.3142229799461
 51
270.0
  0
ARC
  5
D15
330
1D9
100
AcDbEntity
  8
0
100
AcDbCircle
 10
1462.699999999999
 20
1229.999999999996
 30
0.0
 40
58.0
100
AcDbArc
 50
162.9327423516562
 51
197.0672576483437
  0
LINE
  5
D16
330
1D9
100
AcDbEntity
  8
0
100
AcDbLine
 10
1375.199999999999
 20
1165.499999999995
 30
0.0
 11
1376.199999999999
 21
1166.499999999994
 31
0.0
  0
LINE
  5
D17
330
1D9
100
AcDbEntity
  8
0
100
AcDbLine
 10
1456.1
 20
1230.699999999996
 30
0.0
 11
1458.299999999999
 21
1230.699999999996
 31
0.0
  0
LINE
  5
D18
330
1D9
100
AcDbEntity
  8
0
100
AcDbLine
 10
1458.299999999999
 20
1229.299999999996
 30
0.0
 11
1456.1
 21
1229.299999999996
 31
0.0
  0
ARC
  5
D19
330
1D9
100
AcDbEntity
  8
0
100
AcDbCircle
 10
1455.049999999999
 20
1233.149999999996
 30
0.0
 40
0.35
100
AcDbArc
 50
90.0
 51
180.0
  0
ARC
  5
D1A
330
1D9
100
AcDbEntity
  8
0
100
AcDbCircle
 10
1455.75
 20
1233.149999999996
 30
0.0
 40
0.35
100
AcDbArc
 50
0.0
 51
90.0
  0
LINE
  5
D1B
330
1D9
100
AcDbEntity
  8
0
100
AcDbLine
 10
1455.049999999999
 20
1233.499999999996
 30
0.0
 11
1455.75
 21
1233.499999999996
 31
0.0
  0
LINE
  5
D1C
330
1D9
100
AcDbEntity
  8
0
100
AcDbLine
 10
1456.1
 20
1233.149999999996
 30
0.0
 11
1456.1
 21
1230.699999999996
 31
0.0
  0
ARC
  5
D1D
330
1D9
100
AcDbEntity
  8
0
100
AcDbCircle
 10
1455.049999999999
 20
1226.849999999996
 30
0.0
 40
0.35
100
AcDbArc
 50
180.0
 51
270.0
  0
LINE
  5
D1E
330
1D9
100
AcDbEntity
  8
0
100
AcDbLine
 10
1455.049999999999
 20
1226.499999999996
 30
0.0
 11
1455.75
 21
1226.499999999996
 31
0.0
  0
ARC
  5
D1F
330
1D9
100
AcDbEntity
  8
0
100
AcDbCircle
 10
1455.75
 20
1226.849999999996
 30
0.0
 40
0.35
100
AcDbArc
 50
270.0
 51
0.0
  0
LINE
  5
D20
330
1D9
100
AcDbEntity
  8
0
100
AcDbLine
 10
1456.1
 20
1229.299999999996
 30
0.0
 11
1456.1
 21
1226.849999999996
 31
0.0
  0
LINE
  5
D21
330
1D9
100
AcDbEntity
  8
0
100
AcDbLine
 10
1454.699999999999
 20
1226.849999999996
 30
0.0
 11
1454.699999999999
 21
1233.149999999996
 31
0.0
  0
LINE
  5
D22
330
1D9
100
AcDbEntity
  8
0
100
AcDbLine
 10
1453.199999999999
 20
1233.149999999996
 30
0.0
 11
1453.199999999999
 21
1229.099999999996
 31
0.0
  0
ARC
  5
D23
330
1D9
100
AcDbEntity
  8
0
100
AcDbCircle
 10
1450.699999999999
 20
1229.099999999996
 30
0.0
 40
1.099999999999965
100
AcDbArc
 50
180.0
 51
0.0
  0
LINE
  5
D24
330
1D9
100
AcDbEntity
  8
0
100
AcDbLine
 10
1449.6
 20
1229.099999999996
 30
0.0
 11
1449.6
 21
1229.149999999996
 31
0.0
  0
ARC
  5
D25
330
1D9
100
AcDbEntity
  8
0
100
AcDbCircle
 10
1449.25
 20
1229.149999999996
 30
0.0
 40
0.35
100
AcDbArc
 50
0.0
 51
90.0
  0
LINE
  5
D26
330
1D9
100
AcDbEntity
  8
0
100
AcDbLine
 10
1452.149999999999
 20
1233.499999999996
 30
0.0
 11
1452.849999999999
 21
1233.499999999996
 31
0.0
  0
ARC
  5
D27
330
1D9
100
AcDbEntity
  8
0
100
AcDbCircle
 10
1452.149999999999
 20
1233.149999999996
 30
0.0
 40
0.35
100
AcDbArc
 50
90.0
 51
180.0
  0
LINE
  5
D28
330
1D9
100
AcDbEntity
  8
0
100
AcDbLine
 10
1451.799999999999
 20
1229.099999999996
 30
0.0
 11
1451.799999999999
 21
1233.149999999996
 31
0.0
  0
LINE
  5
D29
330
1D9
100
AcDbEntity
  8
0
100
AcDbLine
 10
1448.199999999999
 20
1229.149999999996
 30
0.0
 11
1448.199999999999
 21
1229.099999999996
 31
0.0
  0
ARC
  5
D2A
330
1D9
100
AcDbEntity
  8
0
100
AcDbCircle
 10
1448.55
 20
1229.149999999996
 30
0.0
 40
0.35
100
AcDbArc
 50
90.0
 51
180.0
  0
LINE
  5
D2B
330
1D9
100
AcDbEntity
  8
0
100
AcDbLine
 10
1449.25
 20
1229.499999999996
 30
0.0
 11
1448.55
 21
1229.499999999996
 31
0.0
  0
ARC
  5
D2C
330
1D9
100
AcDbEntity
  8
0
100
AcDbCircle
 10
1452.849999999999
 20
1233.149999999996
 30
0.0
 40
0.35
100
AcDbArc
 50
0.0
 51
90.0
  0
ARC
  5
D2D
330
1D9
100
AcDbEntity
  8
0
100
AcDbCircle
 10
1450.699999999999
 20
1229.099999999996
 30
0.0
 40
2.5
100
AcDbArc
 50
180.0
 51
0.0
  0
ARC
  5
D2E
330
1D9
100
AcDbEntity
  8
0
100
AcDbCircle
 10
1459.349999999998
 20
1233.149999999996
 30
0.0
 40
0.35
100
AcDbArc
 50
0.0
 51
90.0
  0
ARC
  5
D2F
330
1D9
100
AcDbEntity
  8
0
100
AcDbCircle
 10
1458.649999999999
 20
1233.149999999996
 30
0.0
 40
0.35
100
AcDbArc
 50
90.0
 51
180.0
  0
LINE
  5
D30
330
1D9
100
AcDbEntity
  8
0
100
AcDbLine
 10
1458.649999999999
 20
1233.499999999996
 30
0.0
 11
1459.349999999998
 21
1233.499999999996
 31
0.0
  0
LINE
  5
D31
330
1D9
100
AcDbEntity
  8
0
100
AcDbLine
 10
1458.299999999999
 20
1230.699999999996
 30
0.0
 11
1458.299999999999
 21
1233.149999999996
 31
0.0
  0
ARC
  5
D32
330
1D9
100
AcDbEntity
  8
0
100
AcDbCircle
 10
1458.649999999999
 20
1226.849999999996
 30
0.0
 40
0.35
100
AcDbArc
 50
180.0
 51
270.0
  0
LINE
  5
D33
330
1D9
100
AcDbEntity
  8
0
100
AcDbLine
 10
1458.649999999999
 20
1226.499999999996
 30
0.0
 11
1459.349999999998
 21
1226.499999999996
 31
0.0
  0
ARC
  5
D34
330
1D9
100
AcDbEntity
  8
0
100
AcDbCircle
 10
1459.349999999998
 20
1226.849999999996
 30
0.0
 40
0.35
100
AcDbArc
 50
270.0
 51
0.0
  0
LINE
  5
D35
330
1D9
100
AcDbEntity
  8
0
100
AcDbLine
 10
1458.299999999999
 20
1226.849999999996
 30
0.0
 11
1458.299999999999
 21
1229.299999999996
 31
0.0
  0
LINE
  5
D36
330
1D9
100
AcDbEntity
  8
0
100
AcDbLine
 10
1459.699999999999
 20
1233.149999999996
 30
0.0
 11
1459.699999999999
 21
1226.849999999996
 31
0.0
  0
LINE
  5
D37
330
1D9
100
AcDbEntity
  8
0
100
AcDbLine
 10
1412.7
 20
1169.499999999995
 30
0.0
 11
1412.7
 21
1192.264075471769
 31
0.0
  0
LINE
  5
D38
330
1D9
100
AcDbEntity
  8
0
100
AcDbLine
 10
1532.699999999999
 20
1140.499999999996
 30
0.0
 11
1532.699999999999
 21
1172.499999999994
 31
0.0
  0
LINE
  5
D39
330
1D9
100
AcDbEntity
  8
0
100
AcDbLine
 10
1550.2
 20
1147.499999999996
 30
0.0
 11
1550.2
 21
1165.499999999995
 31
0.0
  0
LINE
  5
D3A
330
1D9
100
AcDbEntity
  8
0
100
AcDbLine
 10
1550.2
 20
1147.499999999996
 30
0.0
 11
1549.199999999999
 21
1146.499999999996
 31
0.0
  0
LINE
  5
D3B
330
1D9
100
AcDbEntity
  8
0
100
AcDbLine
 10
1515.285786437626
 20
1143.085786437623
 30
0.0
 11
1518.699999999999
 21
1146.499999999996
 31
0.0
  0
ARC
  5
D3C
330
1D9
100
AcDbEntity
  8
0
100
AcDbCircle
 10
1513.871572875252
 20
1144.499999999996
 30
0.0
 40
2.0
100
AcDbArc
 50
270.0
 51
314.999999999991
  0
ARC
  5
D3D
330
1D9
100
AcDbEntity
  8
0
100
AcDbCircle
 10
1476.15
 20
1233.149842499996
 30
0.0
 40
0.3500000000000001
100
AcDbArc
 50
0.0
 51
90.0
  0
LINE
  5
D3E
330
1D9
100
AcDbEntity
  8
0
100
AcDbLine
 10
1476.5
 20
1233.149842499996
 30
0.0
 11
1476.5
 21
1232.537342499996
 31
0.0
  0
ARC
  5
D3F
330
1D9
100
AcDbEntity
  8
0
100
AcDbCircle
 10
1476.0625
 20
1232.537342499996
 30
0.0
 40
0.4375
100
AcDbArc
 50
270.0
 51
0.0
  0
LINE
  5
D40
330
1D9
100
AcDbEntity
  8
0
100
AcDbLine
 10
1473.948796043297
 20
1231.265290957903
 30
0.0
 11
1474.021809842359
 21
1232.099842499996
 31
0.0
  0
ARC
  5
D41
330
1D9
100
AcDbEntity
  8
0
100
AcDbCircle
 10
1473.791485524366
 20
1230.087499999996
 30
0.0
 40
0.4375
100
AcDbArc
 50
270.0
 51
310.1191668983923
  0
LINE
  5
D42
330
1D9
100
AcDbEntity
  8
0
100
AcDbLine
 10
1476.0625
 20
1232.099842499996
 30
0.0
 11
1474.021809842359
 21
1232.099842499996
 31
0.0
  0
ARC
  5
D43
330
1D9
100
AcDbEntity
  8
0
100
AcDbCircle
 10
1473.791485524366
 20
1227.812499999995
 30
0.0
 40
0.4375
100
AcDbArc
 50
49.8808331016075
 51
90.0
  0
ARC
  5
D44
330
1D9
100
AcDbEntity
  8
0
100
AcDbCircle
 10
1468.25
 20
1231.049842499996
 30
0.0
 40
2.449999999999997
100
AcDbArc
 50
29.99999999999534
 51
161.0739618011078
  0
ARC
  5
D45
330
1D9
100
AcDbEntity
  8
0
100
AcDbCircle
 10
1471.312027517718
 20
1229.999921249995
 30
0.0
 40
5.68702751771854
100
AcDbArc
 50
161.0739618011078
 51
198.9260381988921
  0
ARC
  5
D46
330
1D9
100
AcDbEntity
  8
0
100
AcDbCircle
 10
1473.139841087367
 20
1233.062342499996
 30
0.0
 40
0.4375
100
AcDbArc
 50
90.0
 51
175.0000000000007
  0
ARC
  5
D47
330
1D9
100
AcDbEntity
  8
0
100
AcDbCircle
 10
1472.879576092843
 20
1230.087499999996
 30
0.0
 40
0.4375
100
AcDbArc
 50
175.0000000000007
 51
270.0
  0
LINE
  5
D48
330
1D9
100
AcDbEntity
  8
0
100
AcDbLine
 10
1472.443740912428
 20
1230.125630637448
 30
0.0
 11
1472.704005906953
 21
1233.100473137448
 31
0.0
  0
LINE
  5
D49
330
1D9
100
AcDbEntity
  8
0
100
AcDbLine
 10
1469.176012958872
 20
1231.749842499996
 30
0.0
 11
1470.068653347946
 21
1231.749842499996
 31
0.0
  0
ARC
  5
D4A
330
1D9
100
AcDbEntity
  8
0
100
AcDbCircle
 10
1469.176012958872
 20
1232.099842499996
 30
0.0
 40
0.35
100
AcDbArc
 50
228.5903778907306
 51
270.0
  0
ARC
  5
D4B
330
1D9
100
AcDbEntity
  8
0
100
AcDbCircle
 10
1470.068653347946
 20
1232.099842499996
 30
0.0
 40
0.35
100
AcDbArc
 50
270.0
 51
29.99999999999534
  0
ARC
  5
D4C
330
1D9
100
AcDbEntity
  8
0
100
AcDbCircle
 10
1469.176012958872
 20
1232.099842499996
 30
0.0
 40
0.35
100
AcDbArc
 50
228.5903778907306
 51
270.0
  0
ARC
  5
D4D
330
1D9
100
AcDbEntity
  8
0
100
AcDbCircle
 10
1468.25
 20
1231.049842499996
 30
0.0
 40
1.05
100
AcDbArc
 50
48.59037789073066
 51
173.6115009952246
  0
ARC
  5
D4E
330
1D9
100
AcDbEntity
  8
0
100
AcDbCircle
 10
1473.089804228411
 20
1227.812499999995
 30
0.0
 40
0.4375
100
AcDbArc
 50
90.0
 51
214.417388710453
  0
CIRCLE
  5
D4F
330
1D9
100
AcDbEntity
  8
0
100
AcDbCircle
 10
1468.25
 20
1228.949999999995
 30
0.0
 40
1.05
  0
ARC
  5
D50
330
1D9
100
AcDbEntity
  8
0
100
AcDbCircle
 10
1468.25
 20
1228.949999999995
 30
0.0
 40
2.449999999999977
100
AcDbArc
 50
198.9260381988921
 51
115.2082844923947
  0
LINE
  5
D51
330
1D9
100
AcDbEntity
  8
0
100
AcDbLine
 10
1472.879576092843
 20
1229.649999999995
 30
0.0
 11
1473.791485524366
 21
1229.649999999995
 31
0.0
  0
LINE
  5
D52
330
1D9
100
AcDbEntity
  8
0
100
AcDbLine
 10
1473.139841087367
 20
1233.499842499996
 30
0.0
 11
1476.15
 21
1233.499842499996
 31
0.0
  0
LINE
  5
D53
330
1D9
100
AcDbEntity
  8
0
100
AcDbLine
 10
1473.791485524366
 20
1228.249999999995
 30
0.0
 11
1473.089804228411
 21
1228.249999999995
 31
0.0
  0
ARC
  5
D54
330
1D9
100
AcDbEntity
  8
0
100
AcDbCircle
 10
1474.75
 20
1228.949999999995
 30
0.0
 40
1.05
100
AcDbArc
 50
229.8808331016072
 51
130.1191668983924
  0
ARC
  5
D55
330
1D9
100
AcDbEntity
  8
0
100
AcDbCircle
 10
1474.75
 20
1228.949999999995
 30
0.0
 40
2.449999999999997
100
AcDbArc
 50
214.417388710453
 51
109.0881237431214
  0
LINE
  5
D56
330
1D9
100
AcDbEntity
  8
0
100
AcDbLine
 10
1461.549999999999
 20
1230.699999999996
 30
0.0
 11
1463.849999999998
 21
1230.699999999996
 31
0.0
  0
LINE
  5
D57
330
1D9
100
AcDbEntity
  8
0
100
AcDbLine
 10
1463.849999999998
 20
1229.299999999994
 30
0.0
 11
1461.549999999999
 21
1229.299999999994
 31
0.0
  0
ARC
  5
D58
330
1D9
100
AcDbEntity
  8
0
100
AcDbCircle
 10
1461.549999999999
 20
1230.349999999996
 30
0.0
 40
0.35
100
AcDbArc
 50
90.0
 51
180.0
  0
LINE
  5
D59
330
1D9
100
AcDbEntity
  8
0
100
AcDbLine
 10
1461.199999999999
 20
1229.649999999996
 30
0.0
 11
1461.199999999999
 21
1230.349999999996
 31
0.0
  0
ARC
  5
D5A
330
1D9
100
AcDbEntity
  8
0
100
AcDbCircle
 10
1463.849999999998
 20
1230.349999999996
 30
0.0
 40
0.35
100
AcDbArc
 50
0.0
 51
90.0
  0
LINE
  5
D5B
330
1D9
100
AcDbEntity
  8
0
100
AcDbLine
 10
1464.199999999999
 20
1230.349999999996
 30
0.0
 11
1464.199999999999
 21
1229.649999999996
 31
0.0
  0
ARC
  5
D5C
330
1D9
100
AcDbEntity
  8
0
100
AcDbCircle
 10
1461.549999999999
 20
1229.649999999996
 30
0.0
 40
0.35
100
AcDbArc
 50
180.0
 51
270.0
  0
ARC
  5
D5D
330
1D9
100
AcDbEntity
  8
0
100
AcDbCircle
 10
1463.849999999998
 20
1229.649999999996
 30
0.0
 40
0.35
100
AcDbArc
 50
270.0
 51
0.0
  0
ARC
  5
D5E
330
1D9
100
AcDbEntity
  8
0
100
AcDbCircle
 10
1462.699999999999
 20
1229.999999999996
 30
0.0
 40
58.0
100
AcDbArc
 50
18.08001262441654
 51
23.93892624920569
  0
ARC
  5
D5F
330
1D9
100
AcDbEntity
  8
0
100
AcDbCircle
 10
1517.9969257735
 20
1247.499999999996
 30
0.0
 40
0.5
100
AcDbArc
 50
287.3142229799461
 51
90.0
  0
ARC
  5
D60
330
1D9
100
AcDbEntity
  8
0
100
AcDbCircle
 10
1517.9969257735
 20
1212.499999999995
 30
0.0
 40
0.5
100
AcDbArc
 50
270.0
 51
72.68577702005377
  0
ARC
  5
D61
330
1D9
100
AcDbEntity
  8
0
100
AcDbCircle
 10
1462.699999999999
 20
1229.999999999996
 30
0.0
 40
58.0
100
AcDbArc
 50
336.0610737507942
 51
341.9199873755833
  0
ARC
  5
D62
330
1D9
100
AcDbEntity
  8
0
100
AcDbCircle
 10
1462.699999999999
 20
1229.999999999996
 30
0.0
 40
58.0
100
AcDbArc
 50
342.9327423516562
 51
17.06725764834371
  0
LINE
  5
D63
330
1D9
100
AcDbEntity
  8
0
100
AcDbLine
 10
1550.2
 20
1165.499999999995
 30
0.0
 11
1549.199999999999
 21
1166.499999999994
 31
0.0
  0
ARC
  5
D64
330
1D9
100
AcDbEntity
  8
0
100
AcDbCircle
 10
1515.699999999999
 20
1169.499999999995
 30
0.0
 40
3.0
100
AcDbArc
 50
180.0
 51
270.0
  0
LINE
  5
D65
330
1D9
100
AcDbEntity
  8
0
100
AcDbLine
 10
1512.699999999999
 20
1169.499999999995
 30
0.0
 11
1512.699999999999
 21
1192.264075471769
 31
0.0
  0
ARC
  5
D66
330
1D9
100
AcDbEntity
  8
0
100
AcDbCircle
 10
1547.699999999999
 20
1192.264075471769
 30
0.0
 40
35.0
100
AcDbArc
 50
156.0610737507943
 51
180.0
  0
LINE
  5
D67
330
1D9
100
AcDbEntity
  8
0
100
AcDbLine
 10
1513.871572875252
 20
1317.499999999996
 30
0.0
 11
1411.528427124746
 21
1317.499999999996
 31
0.0
  0
LINE
  5
D68
330
1D9
100
AcDbEntity
  8
0
100
AcDbLine
 10
1376.199999999999
 20
1313.499999999996
 30
0.0
 11
1549.199999999999
 21
1313.499999999996
 31
0.0
  0
LINE
  5
D69
330
1D9
100
AcDbEntity
  8
0
100
AcDbLine
 10
1549.199999999999
 20
1293.499999999996
 30
0.0
 11
1376.199999999999
 21
1293.499999999996
 31
0.0
  0
ARC
  5
D6A
330
1D9
100
AcDbEntity
  8
0
100
AcDbCircle
 10
1411.528427124746
 20
1315.499999999996
 30
0.0
 40
2.0
100
AcDbArc
 50
90.0
 51
134.9999999999911
  0
ARC
  5
D6B
330
1D9
100
AcDbEntity
  8
0
100
AcDbCircle
 10
1409.699999999999
 20
1290.499999999996
 30
0.0
 40
3.0
100
AcDbArc
 50
0.0
 51
90.0
  0
LINE
  5
D6C
330
1D9
100
AcDbEntity
  8
0
100
AcDbLine
 10
1410.114213562373
 20
1316.914213562369
 30
0.0
 11
1406.699999999999
 21
1313.499999999996
 31
0.0
  0
LINE
  5
D6D
330
1D9
100
AcDbEntity
  8
0
100
AcDbLine
 10
1375.199999999999
 20
1312.499999999996
 30
0.0
 11
1376.199999999999
 21
1313.499999999996
 31
0.0
  0
LINE
  5
D6E
330
1D9
100
AcDbEntity
  8
0
100
AcDbLine
 10
1375.199999999999
 20
1294.499999999996
 30
0.0
 11
1376.199999999999
 21
1293.499999999996
 31
0.0
  0
LINE
  5
D6F
330
1D9
100
AcDbEntity
  8
0
100
AcDbLine
 10
1375.199999999999
 20
1312.499999999996
 30
0.0
 11
1375.199999999999
 21
1294.499999999996
 31
0.0
  0
LINE
  5
D70
330
1D9
100
AcDbEntity
  8
0
100
AcDbLine
 10
1392.699999999999
 20
1319.499999999996
 30
0.0
 11
1392.699999999999
 21
1287.499999999996
 31
0.0
  0
LINE
  5
D71
330
1D9
100
AcDbEntity
  8
0
100
AcDbLine
 10
1412.7
 20
1290.499999999996
 30
0.0
 11
1412.7
 21
1267.735924528222
 31
0.0
  0
LINE
  5
D72
330
1D9
100
AcDbEntity
  8
0
100
AcDbLine
 10
1550.2
 20
1312.499999999996
 30
0.0
 11
1549.199999999999
 21
1313.499999999996
 31
0.0
  0
ARC
  5
D73
330
1D9
100
AcDbEntity
  8
0
100
AcDbCircle
 10
1513.871572875252
 20
1315.499999999996
 30
0.0
 40
2.0
100
AcDbArc
 50
45.00000000000886
 51
90.0
  0
LINE
  5
D74
330
1D9
100
AcDbEntity
  8
0
100
AcDbLine
 10
1515.285786437626
 20
1316.914213562369
 30
0.0
 11
1518.699999999999
 21
1313.499999999996
 31
0.0
  0
LINE
  5
D75
330
1D9
100
AcDbEntity
  8
0
100
AcDbLine
 10
1512.699999999999
 20
1290.499999999996
 30
0.0
 11
1512.699999999999
 21
1267.735924528222
 31
0.0
  0
LINE
  5
D76
330
1D9
100
AcDbEntity
  8
0
100
AcDbLine
 10
1550.2
 20
1294.499999999996
 30
0.0
 11
1549.199999999999
 21
1293.499999999996
 31
0.0
  0
ARC
  5
D77
330
1D9
100
AcDbEntity
  8
0
100
AcDbCircle
 10
1515.699999999999
 20
1290.499999999996
 30
0.0
 40
3.0
100
AcDbArc
 50
90.0
 51
180.0
  0
LINE
  5
D78
330
1D9
100
AcDbEntity
  8
0
100
AcDbLine
 10
1550.2
 20
1312.499999999996
 30
0.0
 11
1550.2
 21
1294.499999999996
 31
0.0
  0
LINE
  5
D79
330
1D9
100
AcDbEntity
  8
0
100
AcDbLine
 10
1532.699999999999
 20
1319.499999999996
 30
0.0
 11
1532.699999999999
 21
1287.499999999996
 31
0.0
  0
TEXT
  5
D7A
330
1D9
100
AcDbEntity
  8
0
100
AcDbText
 10
1710.4
 20
1017.500000000001
 30
0.0
 40
15.0
  1
ハイパー２０：ＪＨ－８０
 72
     4
 11
1815.9
 21
1025.000000000001
 31
0.0
100
AcDbText
  0
LINE
  5
D7B
330
1D9
100
AcDbEntity
  8
0
100
AcDbLine
 10
1636.8
 20
1010.0
 30
0.0
 11
1636.8
 21
1420.0
 31
0.0
  0
LINE
  5
D7C
330
1D9
100
AcDbEntity
  8
0
100
AcDbLine
 10
1995.0
 20
1420.0
 30
0.0
 11
1995.0
 21
0.0
 31
0.0
  0
LINE
  5
D7D
330
1D9
100
AcDbEntity
  8
0
100
AcDbLine
 10
1857.499999999999
 20
163.4999999999999
 30
0.0
 11
1857.499999999999
 21
217.5
 31
0.0
  0
LINE
  5
D7E
330
1D9
100
AcDbEntity
  8
0
100
AcDbLine
 10
1882.5
 20
173.5
 30
0.0
 11
1882.5
 21
207.5
 31
0.0
  0
LINE
  5
D7F
330
1D9
100
AcDbEntity
  8
0
100
AcDbLine
 10
1642.5
 20
426.4999999999999
 30
0.0
 11
1642.5
 21
158.4999999999999
 31
0.0
  0
LINE
  5
D80
330
1D9
100
AcDbEntity
  8
0
100
AcDbLine
 10
1829.085786437626
 20
168.0857864376267
 30
0.0
 11
1833.5
 21
172.5
 31
0.0
  0
ARC
  5
D81
330
1D9
100
AcDbEntity
  8
0
100
AcDbCircle
 10
1827.671572875252
 20
169.5
 30
0.0
 40
2.0
100
AcDbArc
 50
270.0
 51
314.9999999999956
  0
LINE
  5
D82
330
1D9
100
AcDbEntity
  8
0
100
AcDbLine
 10
1882.5
 20
173.5
 30
0.0
 11
1881.5
 21
172.5
 31
0.0
  0
ELLIPSE
  5
D83
330
1D9
100
AcDbEntity
  8
0
100
AcDbEllipse
 10
1659.0
 20
292.5
 30
0.0
 11
0.0
 21
6.647624999999917
 31
0.0
210
0.0
220
0.0
230
-1.0
 40
0.7894736842105358
 41
0.0
 42
6.283185307179585
  0
LINE
  5
D84
330
1D9
100
AcDbEntity
  8
0
100
AcDbLine
 10
1631.0
 20
298.7977499999996
 30
0.0
 11
1631.0
 21
286.2022499999998
 31
0.0
  0
LINE
  5
D85
330
1D9
100
AcDbEntity
  8
0
100
AcDbLine
 10
1621.0
 20
286.2022499999998
 30
0.0
 11
1621.0
 21
298.7977499999996
 31
0.0
  0
LINE
  5
D86
330
1D9
100
AcDbEntity
  8
0
100
AcDbLine
 10
1615.200999999998
 20
290.5025000000001
 30
0.0
 11
1615.200999999998
 21
298.7977499999996
 31
0.0
  0
LINE
  5
D87
330
1D9
100
AcDbEntity
  8
0
100
AcDbLine
 10
1618.0
 20
298.7977499999996
 30
0.0
 11
1618.0
 21
290.5025000000001
 31
0.0
  0
ELLIPSE
  5
D88
330
1D9
100
AcDbEntity
  8
0
100
AcDbEllipse
 10
1645.968821874999
 20
289.918786875
 30
0.0
 11
5.031178125000009
 21
0.0
 31
0.0
210
0.0
220
0.0
230
1.0
 40
0.878260869565217
 41
-2.88378744090019
 42
0.7791151067340026
  0
LINE
  5
D89
330
1D9
100
AcDbEntity
  8
0
100
AcDbLine
 10
1633.0
 20
291.8002499999998
 30
0.0
 11
1633.0
 21
293.1997499999998
 31
0.0
  0
LINE
  5
D8A
330
1D9
100
AcDbEntity
  8
0
100
AcDbLine
 10
1639.0
 20
293.1997499999998
 30
0.0
 11
1639.0
 21
291.8002499999998
 31
0.0
  0
LINE
  5
D8B
330
1D9
100
AcDbEntity
  8
0
100
AcDbLine
 10
1645.312581249999
 20
293.4688315985577
 30
0.0
 11
1645.312581249999
 21
292.4061807969728
 31
0.0
  0
ARC
  5
D8C
330
1D9
100
AcDbEntity
  8
0
100
AcDbCircle
 10
1630.300249999999
 20
286.2022499999998
 30
0.0
 40
0.69975
100
AcDbArc
 50
270.0
 51
0.0
  0
ARC
  5
D8D
330
1D9
100
AcDbEntity
  8
0
100
AcDbCircle
 10
1613.0
 20
290.5025000000001
 30
0.0
 40
5.0
100
AcDbArc
 50
180.0
 51
0.0
  0
ARC
  5
D8E
330
1D9
100
AcDbEntity
  8
0
100
AcDbCircle
 10
1613.0
 20
290.5025000000001
 30
0.0
 40
2.20100000000002
100
AcDbArc
 50
180.0
 51
0.0
  0
LINE
  5
D8F
330
1D9
100
AcDbEntity
  8
0
100
AcDbLine
 10
1623.798999999999
 20
291.1005
 30
0.0
 11
1623.798999999999
 21
286.2022499999998
 31
0.0
  0
LINE
  5
D90
330
1D9
100
AcDbEntity
  8
0
100
AcDbLine
 10
1628.200999999999
 20
286.2022499999998
 30
0.0
 11
1628.200999999999
 21
291.1005
 31
0.0
  0
LINE
  5
D91
330
1D9
100
AcDbEntity
  8
0
100
AcDbLine
 10
1621.699749999999
 20
285.5025000000001
 30
0.0
 11
1623.099249999999
 21
285.5025000000001
 31
0.0
  0
ARC
  5
D92
330
1D9
100
AcDbEntity
  8
0
100
AcDbCircle
 10
1621.699749999999
 20
286.2022499999998
 30
0.0
 40
0.69975
100
AcDbArc
 50
180.0
 51
270.0
  0
ARC
  5
D93
330
1D9
100
AcDbEntity
  8
0
100
AcDbCircle
 10
1623.099249999999
 20
286.2022499999998
 30
0.0
 40
0.69975
100
AcDbArc
 50
270.0
 51
0.0
  0
ARC
  5
D94
330
1D9
100
AcDbEntity
  8
0
100
AcDbCircle
 10
1628.900749999998
 20
286.2022499999998
 30
0.0
 40
0.69975
100
AcDbArc
 50
180.0
 51
270.0
  0
ARC
  5
D95
330
1D9
100
AcDbEntity
  8
0
100
AcDbCircle
 10
1608.699999999999
 20
290.8024999999998
 30
0.0
 40
0.7
100
AcDbArc
 50
90.0
 51
180.0
  0
ARC
  5
D96
330
1D9
100
AcDbEntity
  8
0
100
AcDbCircle
 10
1610.098999999999
 20
290.8024999999998
 30
0.0
 40
0.7
100
AcDbArc
 50
0.0
 51
90.0
  0
LINE
  5
D97
330
1D9
100
AcDbEntity
  8
0
100
AcDbLine
 10
1610.098999999999
 20
291.5025000000001
 30
0.0
 11
1608.699999999999
 21
291.5025000000001
 31
0.0
  0
LINE
  5
D98
330
1D9
100
AcDbEntity
  8
0
100
AcDbLine
 10
1608.0
 20
290.5025000000001
 30
0.0
 11
1608.0
 21
290.8024999999998
 31
0.0
  0
LINE
  5
D99
330
1D9
100
AcDbEntity
  8
0
100
AcDbLine
 10
1610.798999999999
 20
290.5025000000001
 30
0.0
 11
1610.798999999999
 21
290.8024999999998
 31
0.0
  0
LINE
  5
D9A
330
1D9
100
AcDbEntity
  8
0
100
AcDbLine
 10
1628.200999999999
 20
291.1005
 30
0.0
 11
1623.798999999999
 21
291.1005
 31
0.0
  0
LINE
  5
D9B
330
1D9
100
AcDbEntity
  8
0
100
AcDbLine
 10
1628.900749999998
 20
285.5025000000001
 30
0.0
 11
1630.300249999999
 21
285.5025000000001
 31
0.0
  0
ARC
  5
D9C
330
1D9
100
AcDbEntity
  8
0
100
AcDbCircle
 10
1641.941949610357
 20
289.0437993750001
 30
0.0
 40
0.8749874999999999
100
AcDbArc
 50
90.0
 51
196.7108870644411
  0
SPLINE
  5
D9D
330
1D9
100
AcDbEntity
  8
0
100
AcDbSpline
210
0.0
220
0.0
230
1.0
 70
     8
 71
     3
 72
    45
 73
    41
 74
     0
 42
0.0000000001
 43
0.0000000001
 40
1.878706249774077
 40
1.878706249774077
 40
1.878706249774077
 40
1.878706249774077
 40
1.963495408493624
 40
1.963495408493624
 40
2.159844949342986
 40
2.159844949342986
 40
2.35619449019235
 40
2.35619449019235
 40
2.748893571891075
 40
2.748893571891075
 40
3.1415926535898
 40
3.1415926535898
 40
3.337942194439162
 40
3.337942194439162
 40
3.534291735288524
 40
3.534291735288524
 40
3.730641276137886
 40
3.730641276137886
 40
3.926990816987249
 40
3.926990816987249
 40
3.926990816987249
 40
4.123340357836611
 40
4.123340357836611
 40
4.319689898685974
 40
4.319689898685974
 40
4.516039439535338
 40
4.516039439535338
 40
4.7123889803847
 40
4.7123889803847
 40
5.105088062083424
 40
5.105088062083424
 40
5.49778714378215
 40
5.49778714378215
 40
5.694136684631511
 40
5.694136684631511
 40
5.890486225480874
 40
5.890486225480874
 40
6.086835766330237
 40
6.086835766330237
 40
6.179760109968325
 40
6.179760109968325
 40
6.179760109968325
 40
6.179760109968325
 10
1643.85443563514
 20
289.4191413014301
 30
0.0
 10
1643.878380312663
 20
289.3687187099918
 30
0.0
 10
1643.906786204144
 20
289.317111854592
 30
0.0
 10
1644.018206863742
 20
289.1425740323761
 30
0.0
 10
1644.123649791494
 20
289.0168789731583
 30
0.0
 10
1644.394171271196
 20
288.7792905431583
 30
0.0
 10
1644.559667644505
 20
288.6678733318336
 30
0.0
 10
1645.11645141804
 20
288.3937097222897
 30
0.0
 10
1645.542636646519
 20
288.30006
 30
0.0
 10
1646.395007103478
 20
288.30006
 30
0.0
 10
1646.821192331958
 20
288.3937097222897
 30
0.0
 10
1647.377976105493
 20
288.6678733318336
 30
0.0
 10
1647.543472478802
 20
288.7792905431583
 30
0.0
 10
1647.813993958504
 20
289.0168789731583
 30
0.0
 10
1647.919436886257
 20
289.1425740323761
 30
0.0
 10
1648.075071065304
 20
289.3863712848034
 30
0.0
 10
1648.12501484461
 20
289.502733833835
 30
0.0
 10
1648.187447336015
 20
289.7206134609628
 30
0.0
 10
1648.200039999998
 20
289.822100738666
 30
0.0
 10
1648.200039999998
 20
289.918786875
 30
0.0
 10
1648.200039999998
 20
289.9671299431671
 30
0.0
 10
1648.196891834003
 20
290.0166732966763
 30
0.0
 10
1648.182791440586
 20
290.1188234230026
 30
0.0
 10
1648.171839213164
 20
290.1714301958191
 30
0.0
 10
1648.140622967461
 20
290.2803700093832
 30
0.0
 10
1648.12033296121
 20
290.3366956000323
 30
0.0
 10
1648.06810273775
 20
290.4525864844923
 30
0.0
 10
1648.036162520544
 20
290.5121517783036
 30
0.0
 10
1647.919436886257
 20
290.6949997176239
 30
0.0
 10
1647.813993958504
 20
290.8206947768417
 30
0.0
 10
1647.543472478802
 20
291.0582832068417
 30
0.0
 10
1647.377976105493
 20
291.1697004181664
 30
0.0
 10
1647.099584218724
 20
291.3067822229387
 30
0.0
 10
1647.003349670254
 20
291.3469057817747
 30
0.0
 10
1646.805724693986
 20
291.4158707814936
 30
0.0
 10
1646.704334266191
 20
291.444712222376
 30
0.0
 10
1646.498116157716
 20
291.4909716204102
 30
0.0
 10
1646.393288477036
 20
291.5083895775623
 30
0.0
 10
1646.23758407797
 20
291.5255317396476
 30
0.0
 10
1646.187374208265
 20
291.5297432517091
 30
0.0
 10
1646.137062959753
 20
291.5326521538776
 30
0.0
  0
ARC
  5
D9E
330
1D9
100
AcDbEntity
  8
0
100
AcDbCircle
 10
1638.300249999999
 20
291.8002499999998
 30
0.0
 40
0.69975
100
AcDbArc
 50
270.0
 51
0.0
  0
ARC
  5
D9F
330
1D9
100
AcDbEntity
  8
0
100
AcDbCircle
 10
1633.699749999999
 20
291.8002499999998
 30
0.0
 40
0.69975
100
AcDbArc
 50
180.0
 51
270.0
  0
ARC
  5
DA0
330
1D9
100
AcDbEntity
  8
0
100
AcDbCircle
 10
1646.187568749999
 20
292.4061807969728
 30
0.0
 40
0.8749874999999999
100
AcDbArc
 50
180.0
 51
266.6909493622838
  0
LINE
  5
DA1
330
1D9
100
AcDbEntity
  8
0
100
AcDbLine
 10
1638.300249999999
 20
291.1005
 30
0.0
 11
1633.699749999999
 21
291.1005
 31
0.0
  0
LINE
  5
DA2
330
1D9
100
AcDbEntity
  8
0
100
AcDbLine
 10
1643.064042338469
 20
289.918786875
 30
0.0
 11
1641.941949610357
 21
289.918786875
 31
0.0
  0
ARC
  5
DA3
330
1D9
100
AcDbEntity
  8
0
100
AcDbCircle
 10
1643.064042338469
 20
289.0437993749997
 30
0.0
 40
0.8749874999999999
100
AcDbArc
 50
25.40210556077942
 51
90.0
  0
ELLIPSE
  5
DA4
330
1D9
100
AcDbEntity
  8
0
100
AcDbEllipse
 10
1645.968821874999
 20
295.5183918795001
 30
0.0
 11
4.593684375000003
 21
0.0
 31
0.0
210
0.0
220
0.0
230
1.0
 40
0.8666666666666657
 41
-1.570796326794896
 42
-1.563306982750564
  0
ARC
  5
DA5
330
1D9
100
AcDbEntity
  8
0
100
AcDbCircle
 10
1630.300249999999
 20
298.7977499999996
 30
0.0
 40
0.69975
100
AcDbArc
 50
0.0
 51
90.0
  0
LINE
  5
DA6
330
1D9
100
AcDbEntity
  8
0
100
AcDbLine
 10
1621.699749999999
 20
299.4975
 30
0.0
 11
1623.098999999999
 21
299.4974999999994
 31
0.0
  0
ARC
  5
DA7
330
1D9
100
AcDbEntity
  8
0
100
AcDbCircle
 10
1617.300249999999
 20
298.7977499999996
 30
0.0
 40
0.69975
100
AcDbArc
 50
0.0
 51
90.0
  0
ARC
  5
DA8
330
1D9
100
AcDbEntity
  8
0
100
AcDbCircle
 10
1615.900749999999
 20
298.7977499999996
 30
0.0
 40
0.69975
100
AcDbArc
 50
90.0
 51
180.0
  0
LINE
  5
DA9
330
1D9
100
AcDbEntity
  8
0
100
AcDbLine
 10
1615.900749999999
 20
299.4975
 30
0.0
 11
1617.300249999999
 21
299.4975
 31
0.0
  0
ARC
  5
DAA
330
1D9
100
AcDbEntity
  8
0
100
AcDbCircle
 10
1621.699749999999
 20
298.7977499999996
 30
0.0
 40
0.69975
100
AcDbArc
 50
90.0
 51
180.0
  0
ARC
  5
DAB
330
1D9
100
AcDbEntity
  8
0
100
AcDbCircle
 10
1623.098999999999
 20
298.7974999999996
 30
0.0
 40
0.7
100
AcDbArc
 50
0.0
 51
90.0
  0
ARC
  5
DAC
330
1D9
100
AcDbEntity
  8
0
100
AcDbCircle
 10
1628.900999999999
 20
298.7974999999996
 30
0.0
 40
0.7
100
AcDbArc
 50
90.0
 51
180.0
  0
LINE
  5
DAD
330
1D9
100
AcDbEntity
  8
0
100
AcDbLine
 10
1623.798999999999
 20
293.8994999999999
 30
0.0
 11
1628.200999999999
 21
293.8994999999999
 31
0.0
  0
LINE
  5
DAE
330
1D9
100
AcDbEntity
  8
0
100
AcDbLine
 10
1623.798999999999
 20
298.7974999999996
 30
0.0
 11
1623.798999999999
 21
293.8994999999999
 31
0.0
  0
LINE
  5
DAF
330
1D9
100
AcDbEntity
  8
0
100
AcDbLine
 10
1628.200999999999
 20
293.8994999999999
 30
0.0
 11
1628.200999999999
 21
298.7974999999996
 31
0.0
  0
LINE
  5
DB0
330
1D9
100
AcDbEntity
  8
0
100
AcDbLine
 10
1628.900999999999
 20
299.4974999999994
 30
0.0
 11
1630.300249999999
 21
299.4975
 31
0.0
  0
ELLIPSE
  5
DB1
330
1D9
100
AcDbEntity
  8
0
100
AcDbEllipse
 10
1645.968821874999
 20
295.5183918795001
 30
0.0
 11
4.593684375000003
 21
0.0
 31
0.0
210
0.0
220
0.0
230
1.0
 40
0.8666666666666657
 41
-0.677246930336754
 42
2.844163247626044
  0
ELLIPSE
  5
DB2
330
1D9
100
AcDbEntity
  8
0
100
AcDbEllipse
 10
1645.968821874999
 20
295.5183918795001
 30
0.0
 11
1.793724375
 21
0.0
 31
0.0
210
0.0
220
0.0
230
-1.0
 40
0.6585365853658525
 41
-2.857010560602958
 42
1.478418468920262
  0
LINE
  5
DB3
330
1D9
100
AcDbEntity
  8
0
100
AcDbLine
 10
1633.699749999999
 20
293.8994999999999
 30
0.0
 11
1638.300249999999
 21
293.8994999999999
 31
0.0
  0
ARC
  5
DB4
330
1D9
100
AcDbEntity
  8
0
100
AcDbCircle
 10
1633.699749999999
 20
293.1997499999998
 30
0.0
 40
0.69975
100
AcDbArc
 50
90.0
 51
180.0
  0
ARC
  5
DB5
330
1D9
100
AcDbEntity
  8
0
100
AcDbCircle
 10
1642.401745950341
 20
296.3933793794998
 30
0.0
 40
0.8749874999999999
100
AcDbArc
 50
160.5223759245719
 51
270.0
  0
LINE
  5
DB6
330
1D9
100
AcDbEntity
  8
0
100
AcDbLine
 10
1643.561403689511
 20
295.5183918795001
 30
0.0
 11
1642.401745950341
 21
295.5183918795001
 31
0.0
  0
ARC
  5
DB7
330
1D9
100
AcDbEntity
  8
0
100
AcDbCircle
 10
1643.561403689511
 20
296.3933793794998
 30
0.0
 40
0.8749874999999999
100
AcDbArc
 50
270.0
 51
328.0113592811918
  0
ARC
  5
DB8
330
1D9
100
AcDbEntity
  8
0
100
AcDbCircle
 10
1638.300249999999
 20
293.1997499999998
 30
0.0
 40
0.69975
100
AcDbArc
 50
0.0
 51
90.0
  0
ARC
  5
DB9
330
1D9
100
AcDbEntity
  8
0
100
AcDbCircle
 10
1646.187568749999
 20
293.4688315985577
 30
0.0
 40
0.8749874999999999
100
AcDbArc
 50
93.49116461146264
 51
180.0
  0
ELLIPSE
  5
DBA
330
1D9
100
AcDbEntity
  8
0
100
AcDbEllipse
 10
1671.999954172465
 20
292.5
 30
0.0
 11
0.0
 21
3.848625000000076
 31
0.0
210
0.0
220
0.0
230
-1.0
 40
0.6363636363636644
 41
0.0
 42
6.283185307179585
  0
ELLIPSE
  5
DBB
330
1D9
100
AcDbEntity
  8
0
100
AcDbEllipse
 10
1671.999954172465
 20
292.5
 30
0.0
 11
0.0
 21
6.647624999999917
 31
0.0
210
0.0
220
0.0
230
-1.0
 40
0.7894736842105358
 41
0.0
 42
6.283185307179585
  0
ELLIPSE
  5
DBC
330
1D9
100
AcDbEntity
  8
0
100
AcDbEllipse
 10
1659.0
 20
292.5
 30
0.0
 11
0.0
 21
3.848625000000076
 31
0.0
210
0.0
220
0.0
230
-1.0
 40
0.6363636363636644
 41
0.0
 42
6.283185307179585
  0
LINE
  5
DBD
330
1D9
100
AcDbEntity
  8
0
100
AcDbLine
 10
1857.499999999999
 20
421.4999999999999
 30
0.0
 11
1857.499999999999
 21
367.5
 31
0.0
  0
LINE
  5
DBE
330
1D9
100
AcDbEntity
  8
0
100
AcDbLine
 10
1882.5
 20
411.5
 30
0.0
 11
1882.5
 21
377.4999999999999
 31
0.0
  0
ARC
  5
DBF
330
1D9
100
AcDbEntity
  8
0
100
AcDbCircle
 10
1642.5
 20
292.5
 30
0.0
 40
180.0
100
AcDbArc
 50
352.3347541499635
 51
7.665245850036428
  0
ARC
  5
DC0
330
1D9
100
AcDbEntity
  8
0
100
AcDbCircle
 10
1642.5
 20
292.5
 30
0.0
 40
180.0
100
AcDbArc
 50
343.7540116015243
 51
351.6948904719363
  0
ARC
  5
DC1
330
1D9
100
AcDbEntity
  8
0
100
AcDbCircle
 10
1820.755434699758
 20
267.5
 30
0.0
 40
1.0
100
AcDbArc
 50
270.0
 51
82.17559900224348
  0
ARC
  5
DC2
330
1D9
100
AcDbEntity
  8
0
100
AcDbCircle
 10
1822.295946574953
 20
219.4999999999999
 30
0.0
 40
11.0
100
AcDbArc
 50
175.5231875228443
 51
270.0
  0
ARC
  5
DC3
330
1D9
100
AcDbEntity
  8
0
100
AcDbCircle
 10
1919.0
 20
211.9286030901784
 30
0.0
 40
108.0
100
AcDbArc
 50
163.7540116015244
 51
175.5231875228443
  0
ARC
  5
DC4
330
1D9
100
AcDbEntity
  8
0
100
AcDbCircle
 10
1822.295946574953
 20
365.5
 30
0.0
 40
11.0
100
AcDbArc
 50
90.0
 51
184.4768124771555
  0
ARC
  5
DC5
330
1D9
100
AcDbEntity
  8
0
100
AcDbCircle
 10
1919.0
 20
373.0713969098214
 30
0.0
 40
108.0
100
AcDbArc
 50
184.4768124771555
 51
196.2459883984754
  0
ARC
  5
DC6
330
1D9
100
AcDbEntity
  8
0
100
AcDbCircle
 10
1820.755434699758
 20
317.5
 30
0.0
 40
1.0
100
AcDbArc
 50
277.8244009977565
 51
90.0
  0
ARC
  5
DC7
330
1D9
100
AcDbEntity
  8
0
100
AcDbCircle
 10
1642.5
 20
292.5
 30
0.0
 40
180.0
100
AcDbArc
 50
8.305109528063601
 51
16.2459883984755
  0
LINE
  5
DC8
330
1D9
100
AcDbEntity
  8
0
100
AcDbLine
 10
1882.5
 20
207.5
 30
0.0
 11
1881.5
 21
208.4999999999999
 31
0.0
  0
LINE
  5
DC9
330
1D9
100
AcDbEntity
  8
0
100
AcDbLine
 10
1882.5
 20
377.4999999999999
 30
0.0
 11
1881.5
 21
376.5
 31
0.0
  0
ARC
  5
DCA
330
1D9
100
AcDbEntity
  8
0
100
AcDbCircle
 10
1827.671572875252
 20
415.5
 30
0.0
 40
2.0
100
AcDbArc
 50
45.00000000000425
 51
90.0
  0
LINE
  5
DCB
330
1D9
100
AcDbEntity
  8
0
100
AcDbLine
 10
1829.085786437626
 20
416.9142135623729
 30
0.0
 11
1833.5
 21
412.5
 31
0.0
  0
LINE
  5
DCC
330
1D9
100
AcDbEntity
  8
0
100
AcDbLine
 10
1882.5
 20
411.5
 30
0.0
 11
1881.5
 21
412.5
 31
0.0
  0
LINE
  5
DCD
330
1D9
100
AcDbEntity
  8
0
100
AcDbLine
 10
1747.5
 20
909.9999999999964
 30
0.0
 11
1752.5
 21
904.9999999999963
 31
0.0
  0
LINE
  5
DCE
330
1D9
100
AcDbEntity
  8
0
100
AcDbLine
 10
1748.085786437626
 20
909.4142135623696
 30
0.0
 11
1752.5
 21
904.9999999999963
 31
0.0
  0
LINE
  5
DCF
330
1D9
100
AcDbEntity
  8
0
100
AcDbLine
 10
1748.085786437626
 20
685.5857864376234
 30
0.0
 11
1752.5
 21
689.9999999999961
 31
0.0
  0
ARC
  5
DD0
330
1D9
100
AcDbEntity
  8
0
100
AcDbCircle
 10
1642.5
 20
797.4999999999964
 30
0.0
 40
107.4999999999999
100
AcDbArc
 50
12.62709066116463
 51
23.66013615810212
  0
LINE
  5
DD1
330
1D9
100
AcDbEntity
  8
0
100
AcDbLine
 10
1642.5
 20
915.9999999999964
 30
0.0
 11
1642.5
 21
678.9999999999962
 31
0.0
  0
ARC
  5
DD2
330
1D9
100
AcDbEntity
  8
0
100
AcDbCircle
 10
1652.35402342523
 20
795.9999649999968
 30
0.0
 40
3.499964999999996
100
AcDbArc
 50
214.4173887104479
 51
109.0881237431214
  0
ARC
  5
DD3
330
1D9
100
AcDbEntity
  8
0
100
AcDbCircle
 10
1654.229004675229
 20
801.1246887522466
 30
0.0
 40
0.62499375
100
AcDbArc
 50
270.0
 51
0.0
  0
LINE
  5
DD4
330
1D9
100
AcDbEntity
  8
0
100
AcDbLine
 10
1633.0
 20
796.4999999999961
 30
0.0
 11
1629.5
 21
796.4999999999961
 31
0.0
  0
LINE
  5
DD5
330
1D9
100
AcDbEntity
  8
0
100
AcDbLine
 10
1629.5
 20
798.4999999999961
 30
0.0
 11
1633.0
 21
798.4999999999961
 31
0.0
  0
LINE
  5
DD6
330
1D9
100
AcDbEntity
  8
0
100
AcDbLine
 10
1628.0
 20
802.4999999999961
 30
0.0
 11
1629.0
 21
802.4999999999961
 31
0.0
  0
LINE
  5
DD7
330
1D9
100
AcDbEntity
  8
0
100
AcDbLine
 10
1628.0
 20
792.4999999999961
 30
0.0
 11
1629.0
 21
792.4999999999961
 31
0.0
  0
ARC
  5
DD8
330
1D9
100
AcDbEntity
  8
0
100
AcDbCircle
 10
1628.0
 20
792.9999999999964
 30
0.0
 40
0.5
100
AcDbArc
 50
180.0
 51
270.0
  0
ARC
  5
DD9
330
1D9
100
AcDbEntity
  8
0
100
AcDbCircle
 10
1622.5
 20
795.4999999999961
 30
0.0
 40
3.0
100
AcDbArc
 50
180.0
 51
0.0
  0
LINE
  5
DDA
330
1D9
100
AcDbEntity
  8
0
100
AcDbLine
 10
1621.0
 20
796.4999999999961
 30
0.0
 11
1620.0
 21
796.4999999999961
 31
0.0
  0
ARC
  5
DDB
330
1D9
100
AcDbEntity
  8
0
100
AcDbCircle
 10
1620.0
 20
795.9999999999961
 30
0.0
 40
0.5
100
AcDbArc
 50
90.0
 51
180.0
  0
LINE
  5
DDC
330
1D9
100
AcDbEntity
  8
0
100
AcDbLine
 10
1619.5
 20
795.4999999999961
 30
0.0
 11
1619.5
 21
795.9999999999961
 31
0.0
  0
ARC
  5
DDD
330
1D9
100
AcDbEntity
  8
0
100
AcDbCircle
 10
1625.0
 20
801.9999999999964
 30
0.0
 40
0.5
100
AcDbArc
 50
0.0
 51
90.0
  0
ARC
  5
DDE
330
1D9
100
AcDbEntity
  8
0
100
AcDbCircle
 10
1628.0
 20
801.9999999999964
 30
0.0
 40
0.5
100
AcDbArc
 50
90.0
 51
180.0
  0
LINE
  5
DDF
330
1D9
100
AcDbEntity
  8
0
100
AcDbLine
 10
1625.499999999999
 20
801.9999999999964
 30
0.0
 11
1625.499999999999
 21
795.4999999999961
 31
0.0
  0
LINE
  5
DE0
330
1D9
100
AcDbEntity
  8
0
100
AcDbLine
 10
1627.499999999999
 20
792.9999999999964
 30
0.0
 11
1627.499999999999
 21
801.9999999999964
 31
0.0
  0
ARC
  5
DE1
330
1D9
100
AcDbEntity
  8
0
100
AcDbCircle
 10
1624.0
 20
801.9999999999964
 30
0.0
 40
0.5
100
AcDbArc
 50
90.0
 51
180.0
  0
ARC
  5
DE2
330
1D9
100
AcDbEntity
  8
0
100
AcDbCircle
 10
1622.5
 20
795.4999999999961
 30
0.0
 40
1.0
100
AcDbArc
 50
180.0
 51
0.0
  0
ARC
  5
DE3
330
1D9
100
AcDbEntity
  8
0
100
AcDbCircle
 10
1621.0
 20
795.9999999999961
 30
0.0
 40
0.5
100
AcDbArc
 50
0.0
 51
90.0
  0
LINE
  5
DE4
330
1D9
100
AcDbEntity
  8
0
100
AcDbLine
 10
1621.5
 20
795.4999999999961
 30
0.0
 11
1621.5
 21
795.9999999999961
 31
0.0
  0
LINE
  5
DE5
330
1D9
100
AcDbEntity
  8
0
100
AcDbLine
 10
1623.499999999999
 20
795.4999999999961
 30
0.0
 11
1623.499999999999
 21
801.9999999999964
 31
0.0
  0
LINE
  5
DE6
330
1D9
100
AcDbEntity
  8
0
100
AcDbLine
 10
1624.0
 20
802.4999999999961
 30
0.0
 11
1625.0
 21
802.4999999999961
 31
0.0
  0
ARC
  5
DE7
330
1D9
100
AcDbEntity
  8
0
100
AcDbCircle
 10
1629.0
 20
792.9999999999964
 30
0.0
 40
0.5
100
AcDbArc
 50
270.0
 51
0.0
  0
ARC
  5
DE8
330
1D9
100
AcDbEntity
  8
0
100
AcDbCircle
 10
1629.0
 20
801.9999999999964
 30
0.0
 40
0.5
100
AcDbArc
 50
0.0
 51
90.0
  0
LINE
  5
DE9
330
1D9
100
AcDbEntity
  8
0
100
AcDbLine
 10
1629.5
 20
796.4999999999961
 30
0.0
 11
1629.5
 21
792.9999999999964
 31
0.0
  0
LINE
  5
DEA
330
1D9
100
AcDbEntity
  8
0
100
AcDbLine
 10
1629.5
 20
801.9999999999964
 30
0.0
 11
1629.5
 21
798.4999999999961
 31
0.0
  0
LINE
  5
DEB
330
1D9
100
AcDbEntity
  8
0
100
AcDbLine
 10
1644.900009496951
 20
802.4996750022465
 30
0.0
 11
1645.999984999999
 21
802.4996750022465
 31
0.0
  0
LINE
  5
DEC
330
1D9
100
AcDbEntity
  8
0
100
AcDbLine
 10
1645.999984999999
 20
792.4999999999968
 30
0.0
 11
1644.999995
 21
792.4999999999968
 31
0.0
  0
ARC
  5
DED
330
1D9
100
AcDbEntity
  8
0
100
AcDbCircle
 10
1644.999995
 20
792.9999949999965
 30
0.0
 40
0.4999950000000001
100
AcDbArc
 50
180.0
 51
270.0
  0
ARC
  5
DEE
330
1D9
100
AcDbEntity
  8
0
100
AcDbCircle
 10
1633.5
 20
792.9999999999964
 30
0.0
 40
0.5
100
AcDbArc
 50
180.0
 51
270.0
  0
ARC
  5
DEF
330
1D9
100
AcDbEntity
  8
0
100
AcDbCircle
 10
1634.5
 20
792.9999999999964
 30
0.0
 40
0.5
100
AcDbArc
 50
270.0
 51
0.0
  0
LINE
  5
DF0
330
1D9
100
AcDbEntity
  8
0
100
AcDbLine
 10
1633.5
 20
792.4999999999961
 30
0.0
 11
1634.5
 21
792.4999999999961
 31
0.0
  0
ARC
  5
DF1
330
1D9
100
AcDbEntity
  8
0
100
AcDbCircle
 10
1637.5
 20
796.9999999999964
 30
0.0
 40
0.5
100
AcDbArc
 50
180.0
 51
270.0
  0
ARC
  5
DF2
330
1D9
100
AcDbEntity
  8
0
100
AcDbCircle
 10
1637.5
 20
797.9999999999964
 30
0.0
 40
0.5
100
AcDbArc
 50
90.0
 51
180.0
  0
ARC
  5
DF3
330
1D9
100
AcDbEntity
  8
0
100
AcDbCircle
 10
1633.5
 20
801.9999999999964
 30
0.0
 40
0.5
100
AcDbArc
 50
90.0
 51
180.0
  0
LINE
  5
DF4
330
1D9
100
AcDbEntity
  8
0
100
AcDbLine
 10
1633.5
 20
802.4999999999961
 30
0.0
 11
1634.5
 21
802.4999999999961
 31
0.0
  0
ARC
  5
DF5
330
1D9
100
AcDbEntity
  8
0
100
AcDbCircle
 10
1634.5
 20
801.9999999999964
 30
0.0
 40
0.5
100
AcDbArc
 50
0.0
 51
90.0
  0
LINE
  5
DF6
330
1D9
100
AcDbEntity
  8
0
100
AcDbLine
 10
1637.0
 20
796.9999999999964
 30
0.0
 11
1637.0
 21
797.9999999999964
 31
0.0
  0
LINE
  5
DF7
330
1D9
100
AcDbEntity
  8
0
100
AcDbLine
 10
1633.0
 20
792.9999999999964
 30
0.0
 11
1633.0
 21
796.4999999999961
 31
0.0
  0
LINE
  5
DF8
330
1D9
100
AcDbEntity
  8
0
100
AcDbLine
 10
1635.0
 20
801.9999999999964
 30
0.0
 11
1635.0
 21
792.9999999999964
 31
0.0
  0
LINE
  5
DF9
330
1D9
100
AcDbEntity
  8
0
100
AcDbLine
 10
1633.0
 20
798.4999999999961
 30
0.0
 11
1633.0
 21
801.9999999999964
 31
0.0
  0
ARC
  5
DFA
330
1D9
100
AcDbEntity
  8
0
100
AcDbCircle
 10
1643.000015
 20
800.7838458337591
 30
0.0
 40
0.4999950000000001
100
AcDbArc
 50
97.86423407796238
 51
180.0
  0
LINE
  5
DFB
330
1D9
100
AcDbEntity
  8
0
100
AcDbLine
 10
1644.5
 20
799.9997000022467
 30
0.0
 11
1643.000015
 21
799.9997000022467
 31
0.0
  0
ARC
  5
DFC
330
1D9
100
AcDbEntity
  8
0
100
AcDbCircle
 10
1643.000015
 20
800.4996950022464
 30
0.0
 40
0.4999950000000001
100
AcDbArc
 50
180.0
 51
270.0
  0
LINE
  5
DFD
330
1D9
100
AcDbEntity
  8
0
100
AcDbLine
 10
1642.500019999999
 20
800.4996950022464
 30
0.0
 11
1642.500019999999
 21
800.7838458337591
 31
0.0
  0
ARC
  5
DFE
330
1D9
100
AcDbEntity
  8
0
100
AcDbCircle
 10
1644.900009496951
 20
801.9996800022466
 30
0.0
 40
0.4999950000000001
100
AcDbArc
 50
90.0
 51
157.7047632776233
  0
ELLIPSE
  5
DFF
330
1D9
100
AcDbEntity
  8
0
100
AcDbEllipse
 10
1642.500019999999
 20
802.4996750022465
 30
0.0
 11
-1.99998
 21
0.0
 31
0.0
210
0.0
220
0.0
230
-1.0
 40
0.6249999999999995
 41
-2.890721121359375
 42
-1.788300676620698
  0
LINE
  5
E00
330
1D9
100
AcDbEntity
  8
0
100
AcDbLine
 10
1641.499999999999
 20
797.9999999999964
 30
0.0
 11
1641.499999999999
 21
796.9999999999964
 31
0.0
  0
ARC
  5
E01
330
1D9
100
AcDbEntity
  8
0
100
AcDbCircle
 10
1641.0
 20
796.9999999999964
 30
0.0
 40
0.5
100
AcDbArc
 50
270.0
 51
0.0
  0
ARC
  5
E02
330
1D9
100
AcDbEntity
  8
0
100
AcDbCircle
 10
1641.0
 20
797.9999999999964
 30
0.0
 40
0.5
100
AcDbArc
 50
0.0
 51
90.0
  0
LINE
  5
E03
330
1D9
100
AcDbEntity
  8
0
100
AcDbLine
 10
1644.5
 20
792.9999949999965
 30
0.0
 11
1644.5
 21
799.9997000022467
 31
0.0
  0
LINE
  5
E04
330
1D9
100
AcDbEntity
  8
0
100
AcDbLine
 10
1641.0
 20
796.4999999999961
 30
0.0
 11
1637.5
 21
796.4999999999961
 31
0.0
  0
LINE
  5
E05
330
1D9
100
AcDbEntity
  8
0
100
AcDbLine
 10
1637.5
 20
798.4999999999961
 30
0.0
 11
1641.0
 21
798.4999999999961
 31
0.0
  0
ARC
  5
E06
330
1D9
100
AcDbEntity
  8
0
100
AcDbCircle
 10
1645.999984999999
 20
792.9999949999965
 30
0.0
 40
0.4999950000000001
100
AcDbArc
 50
270.0
 51
0.0
  0
LINE
  5
E07
330
1D9
100
AcDbEntity
  8
0
100
AcDbLine
 10
1654.229004675229
 20
800.4996950022464
 30
0.0
 11
1651.313762174175
 21
800.4996950022464
 31
0.0
  0
LINE
  5
E08
330
1D9
100
AcDbEntity
  8
0
100
AcDbLine
 10
1650.053819409454
 20
802.4996750022465
 30
0.0
 11
1654.35400342523
 21
802.4996750022465
 31
0.0
  0
ARC
  5
E09
330
1D9
100
AcDbEntity
  8
0
100
AcDbCircle
 10
1652.35402342523
 20
795.9999649999968
 30
0.0
 40
1.499984999999998
100
AcDbArc
 50
229.8808331016072
 51
130.1191668983924
  0
LINE
  5
E0A
330
1D9
100
AcDbEntity
  8
0
100
AcDbLine
 10
1651.209457789999
 20
799.3074904357072
 30
0.0
 11
1651.313762174175
 21
800.4996950022464
 31
0.0
  0
ARC
  5
E0B
330
1D9
100
AcDbEntity
  8
0
100
AcDbCircle
 10
1650.053819409454
 20
801.8746812522467
 30
0.0
 40
0.62499375
100
AcDbArc
 50
90.0
 51
174.9999999999995
  0
ARC
  5
E0C
330
1D9
100
AcDbEntity
  8
0
100
AcDbCircle
 10
1645.999984999999
 20
801.9996800022466
 30
0.0
 40
0.4999950000000001
100
AcDbArc
 50
0.0
 51
90.0
  0
LINE
  5
E0D
330
1D9
100
AcDbEntity
  8
0
100
AcDbLine
 10
1650.98473072453
 20
794.9999749999965
 30
0.0
 11
1649.982338897186
 21
794.9999749999965
 31
0.0
  0
ARC
  5
E0E
330
1D9
100
AcDbEntity
  8
0
100
AcDbCircle
 10
1649.982338897186
 20
794.3749812499961
 30
0.0
 40
0.62499375
100
AcDbArc
 50
90.0
 51
214.4173887104479
  0
LINE
  5
E0F
330
1D9
100
AcDbEntity
  8
0
100
AcDbLine
 10
1649.682015992489
 20
796.9999549999966
 30
0.0
 11
1650.98473072453
 21
796.9999549999966
 31
0.0
  0
ARC
  5
E10
330
1D9
100
AcDbEntity
  8
0
100
AcDbCircle
 10
1649.682015992489
 20
797.6249487499967
 30
0.0
 40
0.62499375
100
AcDbArc
 50
174.9999999999995
 51
270.0
  0
ARC
  5
E11
330
1D9
100
AcDbEntity
  8
0
100
AcDbCircle
 10
1650.98473072453
 20
794.3749812499961
 30
0.0
 40
0.62499375
100
AcDbArc
 50
49.8808331016075
 51
90.0
  0
ARC
  5
E12
330
1D9
100
AcDbEntity
  8
0
100
AcDbCircle
 10
1650.98473072453
 20
797.6249487499967
 30
0.0
 40
0.62499375
100
AcDbArc
 50
270.0
 51
310.1191668983923
  0
LINE
  5
E13
330
1D9
100
AcDbEntity
  8
0
100
AcDbLine
 10
1649.059400532399
 20
797.6794205444901
 30
0.0
 11
1649.431203949364
 21
801.9291530467404
 31
0.0
  0
LINE
  5
E14
330
1D9
100
AcDbEntity
  8
0
100
AcDbLine
 10
1646.49998
 20
801.9996800022466
 30
0.0
 11
1646.49998
 21
792.9999949999965
 31
0.0
  0
LINE
  5
E15
330
1D9
100
AcDbEntity
  8
0
100
AcDbLine
 10
1654.85399842523
 20
801.9996800022466
 30
0.0
 11
1654.85399842523
 21
801.1246887522466
 31
0.0
  0
ARC
  5
E16
330
1D9
100
AcDbEntity
  8
0
100
AcDbCircle
 10
1654.35400342523
 20
801.9996800022466
 30
0.0
 40
0.4999950000000001
100
AcDbArc
 50
0.0
 51
90.0
  0
ARC
  5
E17
330
1D9
100
AcDbEntity
  8
0
100
AcDbCircle
 10
1742.5
 20
724.9999999999961
 30
0.0
 40
7.0
100
AcDbArc
 50
180.0
 51
270.0
  0
ARC
  5
E18
330
1D9
100
AcDbEntity
  8
0
100
AcDbCircle
 10
1746.671572875253
 20
686.9999999999962
 30
0.0
 40
2.0
100
AcDbArc
 50
270.0
 51
314.9999999999956
  0
ELLIPSE
  5
E19
330
1D9
100
AcDbEntity
  8
0
100
AcDbEllipse
 10
1662.10392592523
 20
797.4999499999968
 30
0.0
 11
0.0
 21
4.749952499999943
 31
0.0
210
0.0
220
0.0
230
-1.0
 40
0.7894736842105358
 41
0.0
 42
6.283185307179585
  0
ELLIPSE
  5
E1A
330
1D9
100
AcDbEntity
  8
0
100
AcDbEllipse
 10
1662.10392592523
 20
797.4999499999968
 30
0.0
 11
0.0
 21
2.749972500000055
 31
0.0
210
0.0
220
0.0
230
-1.0
 40
0.6363636363636647
 41
0.0
 42
6.283185307179585
  0
ARC
  5
E1B
330
1D9
100
AcDbEntity
  8
0
100
AcDbCircle
 10
1642.5
 20
797.4999999999964
 30
0.0
 40
107.4999999999999
100
AcDbArc
 50
348.4515160324721
 51
11.54848396752768
  0
ARC
  5
E1C
330
1D9
100
AcDbEntity
  8
0
100
AcDbCircle
 10
1747.618980208143
 20
774.9999999999961
 30
0.0
 40
1.0
100
AcDbArc
 50
270.0
 51
78.18502307390978
  0
ARC
  5
E1D
330
1D9
100
AcDbEntity
  8
0
100
AcDbCircle
 10
1747.618980208143
 20
819.9999999999969
 30
0.0
 40
1.0
100
AcDbArc
 50
281.8149769260902
 51
90.0
  0
ARC
  5
E1E
330
1D9
100
AcDbEntity
  8
0
100
AcDbCircle
 10
1800.499999999999
 20
728.2739210990503
 30
0.0
 40
65.0
100
AcDbArc
 50
156.3398638418978
 51
180.0
  0
LINE
  5
E1F
330
1D9
100
AcDbEntity
  8
0
100
AcDbLine
 10
1735.5
 20
728.2739210990503
 30
0.0
 11
1735.5
 21
724.9999999999961
 31
0.0
  0
ARC
  5
E20
330
1D9
100
AcDbEntity
  8
0
100
AcDbCircle
 10
1642.5
 20
797.4999999999964
 30
0.0
 40
107.4999999999999
100
AcDbArc
 50
336.3398638418978
 51
347.3729093388353
  0
ARC
  5
E21
330
1D9
100
AcDbEntity
  8
0
100
AcDbCircle
 10
1746.671572875253
 20
907.9999999999964
 30
0.0
 40
2.0
100
AcDbArc
 50
45.00000000000425
 51
90.0
  0
ARC
  5
E22
330
1D9
100
AcDbEntity
  8
0
100
AcDbCircle
 10
1742.5
 20
869.9999999999961
 30
0.0
 40
7.0
100
AcDbArc
 50
90.0
 51
180.0
  0
ARC
  5
E23
330
1D9
100
AcDbEntity
  8
0
100
AcDbCircle
 10
1800.499999999999
 20
866.7260789009421
 30
0.0
 40
65.0
100
AcDbArc
 50
180.0
 51
203.6601361581021
  0
LINE
  5
E24
330
1D9
100
AcDbEntity
  8
0
100
AcDbLine
 10
1735.5
 20
866.7260789009421
 30
0.0
 11
1735.5
 21
869.9999999999961
 31
0.0
  0
LINE
  5
E25
330
1D9
100
AcDbEntity
  8
0
100
AcDbLine
 10
1772.5
 20
683.9999999999962
 30
0.0
 11
1772.5
 21
723.9999999999961
 31
0.0
  0
LINE
  5
E26
330
1D9
100
AcDbEntity
  8
0
100
AcDbLine
 10
1795.0
 20
690.9999999999961
 30
0.0
 11
1795.0
 21
716.9999999999961
 31
0.0
  0
LINE
  5
E27
330
1D9
100
AcDbEntity
  8
0
100
AcDbLine
 10
1794.0
 20
689.9999999999961
 30
0.0
 11
1795.0
 21
690.9999999999961
 31
0.0
  0
LINE
  5
E28
330
1D9
100
AcDbEntity
  8
0
100
AcDbLine
 10
1795.0
 20
716.9999999999961
 30
0.0
 11
1794.0
 21
717.9999999999964
 31
0.0
  0
LINE
  5
E29
330
1D9
100
AcDbEntity
  8
0
100
AcDbLine
 10
1772.5
 20
910.9999999999963
 30
0.0
 11
1772.5
 21
870.9999999999961
 31
0.0
  0
LINE
  5
E2A
330
1D9
100
AcDbEntity
  8
0
100
AcDbLine
 10
1794.0
 20
904.9999999999963
 30
0.0
 11
1795.0
 21
903.9999999999963
 31
0.0
  0
LINE
  5
E2B
330
1D9
100
AcDbEntity
  8
0
100
AcDbLine
 10
1795.0
 20
877.9999999999962
 30
0.0
 11
1794.0
 21
876.9999999999964
 31
0.0
  0
LINE
  5
E2C
330
1D9
100
AcDbEntity
  8
0
100
AcDbLine
 10
1795.0
 20
903.9999999999963
 30
0.0
 11
1795.0
 21
877.9999999999962
 31
0.0
  0
LINE
  5
E2D
330
1D9
100
AcDbEntity
  8
0
100
AcDbLine
 10
1716.899999999999
 20
1313.499999999996
 30
0.0
 11
1914.9
 21
1313.499999999996
 31
0.0
  0
LINE
  5
E2E
330
1D9
100
AcDbEntity
  8
0
100
AcDbLine
 10
1753.814213562373
 20
1316.914213562369
 30
0.0
 11
1750.4
 21
1313.499999999996
 31
0.0
  0
LINE
  5
E2F
330
1D9
100
AcDbEntity
  8
0
100
AcDbLine
 10
1716.899999999999
 20
1291.499999999996
 30
0.0
 11
1914.9
 21
1291.499999999996
 31
0.0
  0
LINE
  5
E30
330
1D9
100
AcDbEntity
  8
0
100
AcDbLine
 10
1716.899999999999
 20
1146.499999999994
 30
0.0
 11
1914.900000000002
 21
1146.499999999997
 31
0.0
  0
LINE
  5
E31
330
1D9
100
AcDbEntity
  8
0
100
AcDbLine
 10
1716.899999999999
 20
1168.499999999996
 30
0.0
 11
1914.900000000002
 21
1168.499999999994
 31
0.0
  0
LINE
  5
E32
330
1D9
100
AcDbEntity
  8
0
100
AcDbLine
 10
1753.814213562373
 20
1143.085786437623
 30
0.0
 11
1750.4
 21
1146.499999999996
 31
0.0
  0
ARC
  5
E33
330
1D9
100
AcDbEntity
  8
0
100
AcDbCircle
 10
1815.9
 20
1229.999999999996
 30
0.0
 40
65.0
100
AcDbArc
 50
164.822239576484
 51
195.1777604235157
  0
LINE
  5
E34
330
1D9
100
AcDbEntity
  8
0
100
AcDbLine
 10
1735.899999999999
 20
1139.499999999996
 30
0.0
 11
1735.899999999999
 21
1175.499999999996
 31
0.0
  0
LINE
  5
E35
330
1D9
100
AcDbEntity
  8
0
100
AcDbLine
 10
1715.899999999999
 20
1147.499999999995
 30
0.0
 11
1715.899999999999
 21
1167.499999999996
 31
0.0
  0
LINE
  5
E36
330
1D9
100
AcDbEntity
  8
0
100
AcDbLine
 10
1715.899999999999
 20
1147.499999999995
 30
0.0
 11
1716.899999999999
 21
1146.499999999994
 31
0.0
  0
LINE
  5
E37
330
1D9
100
AcDbEntity
  8
0
100
AcDbLine
 10
1716.899999999999
 20
1168.499999999996
 30
0.0
 11
1715.899999999999
 21
1167.499999999996
 31
0.0
  0
LINE
  5
E38
330
1D9
100
AcDbEntity
  8
0
100
AcDbLine
 10
1716.899999999999
 20
1313.499999999996
 30
0.0
 11
1715.899999999999
 21
1312.499999999996
 31
0.0
  0
LINE
  5
E39
330
1D9
100
AcDbEntity
  8
0
100
AcDbLine
 10
1715.899999999999
 20
1292.499999999996
 30
0.0
 11
1716.899999999999
 21
1291.499999999996
 31
0.0
  0
LINE
  5
E3A
330
1D9
100
AcDbEntity
  8
0
100
AcDbLine
 10
1735.899999999999
 20
1320.499999999995
 30
0.0
 11
1735.899999999999
 21
1284.499999999995
 31
0.0
  0
LINE
  5
E3B
330
1D9
100
AcDbEntity
  8
0
100
AcDbLine
 10
1715.899999999999
 20
1312.499999999996
 30
0.0
 11
1715.899999999999
 21
1292.499999999996
 31
0.0
  0
ARC
  5
E3C
330
1D9
100
AcDbEntity
  8
0
100
AcDbCircle
 10
1911.9
 20
1269.999999999996
 30
0.0
 40
39.0
100
AcDbArc
 50
180.0
 51
202.6198649480347
  0
ARC
  5
E3D
330
1D9
100
AcDbEntity
  8
0
100
AcDbCircle
 10
1719.9
 20
1269.999999999996
 30
0.0
 40
39.0
100
AcDbArc
 50
337.3801350519651
 51
0.0
  0
LINE
  5
E3E
330
1D9
100
AcDbEntity
  8
0
100
AcDbLine
 10
1815.9
 20
1323.499999999996
 30
0.0
 11
1815.9
 21
1136.499999999995
 31
0.0
  0
LINE
  5
E3F
330
1D9
100
AcDbEntity
  8
0
100
AcDbLine
 10
1753.167317551962
 20
1247.017947963063
 30
0.0
 11
1878.632682448038
 21
1247.017947963063
 31
0.0
  0
LINE
  5
E40
330
1D9
100
AcDbEntity
  8
0
100
AcDbLine
 10
1753.300079872255
 20
1247.999999999995
 30
0.0
 11
1878.499920127745
 21
1247.999999999995
 31
0.0
  0
LINE
  5
E41
330
1D9
100
AcDbEntity
  8
0
100
AcDbLine
 10
1753.300079872255
 20
1211.999999999996
 30
0.0
 11
1878.499920127745
 21
1211.999999999996
 31
0.0
  0
LINE
  5
E42
330
1D9
100
AcDbEntity
  8
0
100
AcDbLine
 10
1753.167317551962
 20
1212.982052036928
 30
0.0
 11
1878.632682448038
 21
1212.982052036928
 31
0.0
  0
LINE
  5
E43
330
1D9
100
AcDbEntity
  8
0
100
AcDbLine
 10
1755.228427124746
 20
1142.499999999996
 30
0.0
 11
1876.571572875254
 21
1142.499999999996
 31
0.0
  0
ARC
  5
E44
330
1D9
100
AcDbEntity
  8
0
100
AcDbCircle
 10
1755.228427124746
 20
1144.499999999996
 30
0.0
 40
2.0
100
AcDbArc
 50
225.0000000000088
 51
270.0
  0
ARC
  5
E45
330
1D9
100
AcDbEntity
  8
0
100
AcDbCircle
 10
1815.9
 20
1229.999999999996
 30
0.0
 40
65.0
100
AcDbArc
 50
196.0766498316075
 51
202.6198649480347
  0
ARC
  5
E46
330
1D9
100
AcDbEntity
  8
0
100
AcDbCircle
 10
1815.9
 20
1229.999999999996
 30
0.0
 40
65.0
100
AcDbArc
 50
157.3801350519651
 51
163.9233501683923
  0
ARC
  5
E47
330
1D9
100
AcDbEntity
  8
0
100
AcDbCircle
 10
1753.300079872255
 20
1247.499999999995
 30
0.0
 40
0.5
100
AcDbArc
 50
90.0
 51
254.6018706504114
  0
ARC
  5
E48
330
1D9
100
AcDbEntity
  8
0
100
AcDbCircle
 10
1753.300079872255
 20
1212.499999999996
 30
0.0
 40
0.5
100
AcDbArc
 50
105.3981293495885
 51
270.0
  0
LINE
  5
E49
330
1D9
100
AcDbEntity
  8
0
100
AcDbLine
 10
1758.9
 20
1189.999999999997
 30
0.0
 11
1758.9
 21
1171.499999999996
 31
0.0
  0
ARC
  5
E4A
330
1D9
100
AcDbEntity
  8
0
100
AcDbCircle
 10
1755.9
 20
1171.499999999996
 30
0.0
 40
3.0
100
AcDbArc
 50
270.0
 51
0.0
  0
ARC
  5
E4B
330
1D9
100
AcDbEntity
  8
0
100
AcDbCircle
 10
1719.9
 20
1189.999999999996
 30
0.0
 40
39.0
100
AcDbArc
 50
0.0
 51
22.61986494803478
  0
ARC
  5
E4C
330
1D9
100
AcDbEntity
  8
0
100
AcDbCircle
 10
1803.9
 20
1229.099999999996
 30
0.0
 40
1.099999999999965
100
AcDbArc
 50
180.0
 51
0.0
  0
ARC
  5
E4D
330
1D9
100
AcDbEntity
  8
0
100
AcDbCircle
 10
1803.9
 20
1229.099999999996
 30
0.0
 40
2.5
100
AcDbArc
 50
180.0
 51
0.0
  0
LINE
  5
E4E
330
1D9
100
AcDbEntity
  8
0
100
AcDbLine
 10
1801.4
 20
1229.149999999996
 30
0.0
 11
1801.4
 21
1229.099999999996
 31
0.0
  0
LINE
  5
E4F
330
1D9
100
AcDbEntity
  8
0
100
AcDbLine
 10
1802.45
 20
1229.499999999996
 30
0.0
 11
1801.75
 21
1229.499999999996
 31
0.0
  0
ARC
  5
E50
330
1D9
100
AcDbEntity
  8
0
100
AcDbCircle
 10
1801.75
 20
1229.149999999996
 30
0.0
 40
0.35
100
AcDbArc
 50
90.0
 51
180.0
  0
LINE
  5
E51
330
1D9
100
AcDbEntity
  8
0
100
AcDbLine
 10
1802.799999999999
 20
1229.099999999996
 30
0.0
 11
1802.799999999999
 21
1229.149999999996
 31
0.0
  0
ARC
  5
E52
330
1D9
100
AcDbEntity
  8
0
100
AcDbCircle
 10
1802.45
 20
1229.149999999996
 30
0.0
 40
0.35
100
AcDbArc
 50
0.0
 51
90.0
  0
ELLIPSE
  5
E53
330
1D9
100
AcDbEntity
  8
0
100
AcDbEllipse
 10
1827.899999999999
 20
1229.999999999996
 30
0.0
 11
0.0
 21
1.925000000000038
 31
0.0
210
0.0
220
0.0
230
-1.0
 40
0.6363636363636646
 41
0.0
 42
6.283185307179585
  0
ELLIPSE
  5
E54
330
1D9
100
AcDbEntity
  8
0
100
AcDbEllipse
 10
1827.899999999999
 20
1229.999999999996
 30
0.0
 11
0.0
 21
3.324999999999958
 31
0.0
210
0.0
220
0.0
230
-1.0
 40
0.7894736842105358
 41
0.0
 42
6.283185307179585
  0
SPLINE
  5
E55
330
1D9
100
AcDbEntity
  8
0
100
AcDbSpline
210
0.0
220
0.0
230
1.0
 70
    11
 71
     3
 72
    46
 73
    42
 74
     0
 42
0.0000000001
 43
0.0000000001
 40
0.0
 40
0.0
 40
0.0
 40
0.0
 40
0.26179938779915
 40
0.26179938779915
 40
0.5235987755983002
 40
0.5235987755983002
 40
0.7853981633974501
 40
0.7853981633974501
 40
1.0471975511966
 40
1.0471975511966
 40
1.5707963267949
 40
1.5707963267949
 40
2.0943951023932
 40
2.0943951023932
 40
2.35619449019235
 40
2.35619449019235
 40
2.617993877991499
 40
2.617993877991499
 40
2.879793265790649
 40
2.879793265790649
 40
3.1415926535898
 40
3.1415926535898
 40
3.40339204138895
 40
3.40339204138895
 40
3.6651914291881
 40
3.6651914291881
 40
3.926990816987249
 40
3.926990816987249
 40
4.1887902047864
 40
4.1887902047864
 40
4.7123889803847
 40
4.7123889803847
 40
5.235987755982999
 40
5.235987755982999
 40
5.49778714378215
 40
5.49778714378215
 40
5.759586531581299
 40
5.759586531581299
 40
6.02138591938045
 40
6.02138591938045
 40
6.2831853071796
 40
6.2831853071796
 40
6.2831853071796
 40
6.2831853071796
 10
1822.5375
 20
1228.774999999995
 30
0.0
 10
1822.5375
 20
1228.718945167555
 30
0.0
 10
1822.530260019558
 20
1228.66010119261
 30
0.0
 10
1822.49547377618
 20
1228.536174372788
 30
0.0
 10
1822.467862301315
 20
1228.471109842146
 30
0.0
 10
1822.384839437606
 20
1228.338347974355
 30
0.0
 10
1822.329431853709
 20
1228.271229182151
 30
0.0
 10
1822.190009016706
 20
1228.146229397252
 30
0.0
 10
1822.105821997262
 20
1228.088540122609
 30
0.0
 10
1821.824904864666
 20
1227.947334079738
 30
0.0
 10
1821.612452432333
 20
1227.899999999994
 30
0.0
 10
1821.187547567667
 20
1227.899999999994
 30
0.0
 10
1820.975095135334
 20
1227.947334079738
 30
0.0
 10
1820.694178002736
 20
1228.088540122609
 30
0.0
 10
1820.609990983292
 20
1228.146229397252
 30
0.0
 10
1820.47056814629
 20
1228.271229182151
 30
0.0
 10
1820.415160562393
 20
1228.338347974355
 30
0.0
 10
1820.332137698684
 20
1228.471109842146
 30
0.0
 10
1820.30452622382
 20
1228.536174372788
 30
0.0
 10
1820.269739980441
 20
1228.66010119261
 30
0.0
 10
1820.262499999999
 20
1228.718945167555
 30
0.0
 10
1820.262499999999
 20
1228.831054832436
 30
0.0
 10
1820.269739980441
 20
1228.889898807381
 30
0.0
 10
1820.30452622382
 20
1229.013825627204
 30
0.0
 10
1820.332137698684
 20
1229.078890157846
 30
0.0
 10
1820.415160562393
 20
1229.211652025637
 30
0.0
 10
1820.47056814629
 20
1229.27877081784
 30
0.0
 10
1820.609990983292
 20
1229.403770602738
 30
0.0
 10
1820.694178002736
 20
1229.461459877382
 30
0.0
 10
1820.975095135334
 20
1229.602665920254
 30
0.0
 10
1821.187547567667
 20
1229.649999999995
 30
0.0
 10
1821.612452432333
 20
1229.649999999995
 30
0.0
 10
1821.824904864666
 20
1229.602665920254
 30
0.0
 10
1822.105821997262
 20
1229.461459877382
 30
0.0
 10
1822.190009016706
 20
1229.403770602738
 30
0.0
 10
1822.329431853709
 20
1229.27877081784
 30
0.0
 10
1822.384839437606
 20
1229.211652025637
 30
0.0
 10
1822.467862301315
 20
1229.078890157846
 30
0.0
 10
1822.49547377618
 20
1229.013825627204
 30
0.0
 10
1822.530260019558
 20
1228.889898807381
 30
0.0
 10
1822.5375
 20
1228.831054832436
 30
0.0
 10
1822.5375
 20
1228.774999999995
 30
0.0
  0
SPLINE
  5
E56
330
1D9
100
AcDbEntity
  8
0
100
AcDbSpline
210
0.0
220
0.0
230
1.0
 70
    11
 71
     3
 72
    46
 73
    42
 74
     0
 42
0.0000000001
 43
0.0000000001
 40
0.0
 40
0.0
 40
0.0
 40
0.0
 40
0.26179938779915
 40
0.26179938779915
 40
0.5235987755983002
 40
0.5235987755983002
 40
0.7853981633974501
 40
0.7853981633974501
 40
1.0471975511966
 40
1.0471975511966
 40
1.5707963267949
 40
1.5707963267949
 40
2.0943951023932
 40
2.0943951023932
 40
2.35619449019235
 40
2.35619449019235
 40
2.617993877991499
 40
2.617993877991499
 40
2.879793265790649
 40
2.879793265790649
 40
3.1415926535898
 40
3.1415926535898
 40
3.40339204138895
 40
3.40339204138895
 40
3.6651914291881
 40
3.6651914291881
 40
3.926990816987249
 40
3.926990816987249
 40
4.1887902047864
 40
4.1887902047864
 40
4.7123889803847
 40
4.7123889803847
 40
5.235987755982999
 40
5.235987755982999
 40
5.49778714378215
 40
5.49778714378215
 40
5.759586531581299
 40
5.759586531581299
 40
6.02138591938045
 40
6.02138591938045
 40
6.2831853071796
 40
6.2831853071796
 40
6.2831853071796
 40
6.2831853071796
 10
1820.525
 20
1231.574842499996
 30
0.0
 10
1820.525
 20
1231.596091415894
 30
0.0
 10
1820.527621280508
 20
1231.618380144618
 30
0.0
 10
1820.543774008917
 20
1231.672689875115
 30
0.0
 10
1820.557319672326
 20
1231.704706647919
 30
0.0
 10
1820.608009662484
 20
1231.781208479675
 30
0.0
 10
1820.644728946449
 20
1231.824194184383
 30
0.0
 10
1820.746573475256
 20
1231.910370324142
 30
0.0
 10
1820.811973357741
 20
1231.953235662011
 30
0.0
 10
1821.038539339604
 20
1232.060719642428
 30
0.0
 10
1821.219269669803
 20
1232.099842499996
 30
0.0
 10
1821.580730330197
 20
1232.099842499996
 30
0.0
 10
1821.761460660394
 20
1232.060719642428
 30
0.0
 10
1821.988026642257
 20
1231.953235662011
 30
0.0
 10
1822.053426524743
 20
1231.910370324142
 30
0.0
 10
1822.155271053548
 20
1231.824194184383
 30
0.0
 10
1822.191990337515
 20
1231.781208479675
 30
0.0
 10
1822.242680327674
 20
1231.704706647919
 30
0.0
 10
1822.256225991082
 20
1231.672689875115
 30
0.0
 10
1822.272378719492
 20
1231.618380144618
 30
0.0
 10
1822.275
 20
1231.596091415894
 30
0.0
 10
1822.275
 20
1231.553593584097
 30
0.0
 10
1822.272378719492
 20
1231.531304855374
 30
0.0
 10
1822.256225991082
 20
1231.476995124877
 30
0.0
 10
1822.242680327674
 20
1231.444978352072
 30
0.0
 10
1822.191990337515
 20
1231.368476520317
 30
0.0
 10
1822.155271053548
 20
1231.325490815608
 30
0.0
 10
1822.053426524743
 20
1231.239314675849
 30
0.0
 10
1821.988026642257
 20
1231.196449337981
 30
0.0
 10
1821.761460660394
 20
1231.088965357564
 30
0.0
 10
1821.580730330197
 20
1231.049842499996
 30
0.0
 10
1821.219269669803
 20
1231.049842499996
 30
0.0
 10
1821.038539339604
 20
1231.088965357564
 30
0.0
 10
1820.811973357741
 20
1231.196449337981
 30
0.0
 10
1820.746573475256
 20
1231.239314675849
 30
0.0
 10
1820.644728946449
 20
1231.325490815608
 30
0.0
 10
1820.608009662484
 20
1231.368476520317
 30
0.0
 10
1820.557319672326
 20
1231.444978352072
 30
0.0
 10
1820.543774008917
 20
1231.476995124877
 30
0.0
 10
1820.527621280508
 20
1231.531304855374
 30
0.0
 10
1820.525
 20
1231.553593584097
 30
0.0
 10
1820.525
 20
1231.574842499996
 30
0.0
  0
LINE
  5
E57
330
1D9
100
AcDbEntity
  8
0
100
AcDbLine
 10
1808.25
 20
1233.499999999996
 30
0.0
 11
1808.95
 21
1233.499999999996
 31
0.0
  0
LINE
  5
E58
330
1D9
100
AcDbEntity
  8
0
100
AcDbLine
 10
1811.85
 20
1233.499999999996
 30
0.0
 11
1812.549999999999
 21
1233.499999999996
 31
0.0
  0
LINE
  5
E59
330
1D9
100
AcDbEntity
  8
0
100
AcDbLine
 10
1805.349999999999
 20
1233.499999999996
 30
0.0
 11
1806.05
 21
1233.499999999996
 31
0.0
  0
LINE
  5
E5A
330
1D9
100
AcDbEntity
  8
0
100
AcDbLine
 10
1811.5
 20
1229.299999999996
 30
0.0
 11
1809.3
 21
1229.299999999996
 31
0.0
  0
LINE
  5
E5B
330
1D9
100
AcDbEntity
  8
0
100
AcDbLine
 10
1809.3
 20
1230.699999999996
 30
0.0
 11
1811.5
 21
1230.699999999996
 31
0.0
  0
LINE
  5
E5C
330
1D9
100
AcDbEntity
  8
0
100
AcDbLine
 10
1807.9
 20
1226.849999999996
 30
0.0
 11
1807.9
 21
1233.149999999996
 31
0.0
  0
LINE
  5
E5D
330
1D9
100
AcDbEntity
  8
0
100
AcDbLine
 10
1809.3
 20
1233.149999999996
 30
0.0
 11
1809.3
 21
1230.699999999996
 31
0.0
  0
LINE
  5
E5E
330
1D9
100
AcDbEntity
  8
0
100
AcDbLine
 10
1806.4
 20
1233.149999999996
 30
0.0
 11
1806.4
 21
1229.099999999996
 31
0.0
  0
LINE
  5
E5F
330
1D9
100
AcDbEntity
  8
0
100
AcDbLine
 10
1809.3
 20
1229.299999999996
 30
0.0
 11
1809.3
 21
1226.849999999996
 31
0.0
  0
ARC
  5
E60
330
1D9
100
AcDbEntity
  8
0
100
AcDbCircle
 10
1808.949999999999
 20
1226.849999999996
 30
0.0
 40
0.35
100
AcDbArc
 50
270.0
 51
0.0
  0
LINE
  5
E61
330
1D9
100
AcDbEntity
  8
0
100
AcDbLine
 10
1808.25
 20
1226.499999999996
 30
0.0
 11
1808.949999999999
 21
1226.499999999996
 31
0.0
  0
ARC
  5
E62
330
1D9
100
AcDbEntity
  8
0
100
AcDbCircle
 10
1808.25
 20
1226.849999999996
 30
0.0
 40
0.35
100
AcDbArc
 50
180.0
 51
270.0
  0
LINE
  5
E63
330
1D9
100
AcDbEntity
  8
0
100
AcDbLine
 10
1812.9
 20
1233.149999999996
 30
0.0
 11
1812.9
 21
1226.849999999996
 31
0.0
  0
LINE
  5
E64
330
1D9
100
AcDbEntity
  8
0
100
AcDbLine
 10
1811.5
 20
1230.699999999996
 30
0.0
 11
1811.5
 21
1233.149999999996
 31
0.0
  0
LINE
  5
E65
330
1D9
100
AcDbEntity
  8
0
100
AcDbLine
 10
1811.5
 20
1226.849999999996
 30
0.0
 11
1811.5
 21
1229.299999999996
 31
0.0
  0
ARC
  5
E66
330
1D9
100
AcDbEntity
  8
0
100
AcDbCircle
 10
1812.549999999999
 20
1226.849999999996
 30
0.0
 40
0.35
100
AcDbArc
 50
270.0
 51
0.0
  0
LINE
  5
E67
330
1D9
100
AcDbEntity
  8
0
100
AcDbLine
 10
1811.85
 20
1226.499999999996
 30
0.0
 11
1812.549999999999
 21
1226.499999999996
 31
0.0
  0
ARC
  5
E68
330
1D9
100
AcDbEntity
  8
0
100
AcDbCircle
 10
1811.85
 20
1226.849999999996
 30
0.0
 40
0.35
100
AcDbArc
 50
180.0
 51
270.0
  0
LINE
  5
E69
330
1D9
100
AcDbEntity
  8
0
100
AcDbLine
 10
1814.75
 20
1230.699999999996
 30
0.0
 11
1817.05
 21
1230.699999999996
 31
0.0
  0
LINE
  5
E6A
330
1D9
100
AcDbEntity
  8
0
100
AcDbLine
 10
1817.05
 20
1229.299999999994
 30
0.0
 11
1814.75
 21
1229.299999999994
 31
0.0
  0
ARC
  5
E6B
330
1D9
100
AcDbEntity
  8
0
100
AcDbCircle
 10
1814.75
 20
1229.649999999996
 30
0.0
 40
0.35
100
AcDbArc
 50
180.0
 51
270.0
  0
ARC
  5
E6C
330
1D9
100
AcDbEntity
  8
0
100
AcDbCircle
 10
1814.75
 20
1230.349999999996
 30
0.0
 40
0.35
100
AcDbArc
 50
90.0
 51
180.0
  0
LINE
  5
E6D
330
1D9
100
AcDbEntity
  8
0
100
AcDbLine
 10
1814.4
 20
1229.649999999996
 30
0.0
 11
1814.4
 21
1230.349999999996
 31
0.0
  0
ARC
  5
E6E
330
1D9
100
AcDbEntity
  8
0
100
AcDbCircle
 10
1817.05
 20
1230.349999999996
 30
0.0
 40
0.35
100
AcDbArc
 50
0.0
 51
90.0
  0
ARC
  5
E6F
330
1D9
100
AcDbEntity
  8
0
100
AcDbCircle
 10
1817.05
 20
1229.649999999996
 30
0.0
 40
0.35
100
AcDbArc
 50
270.0
 51
0.0
  0
LINE
  5
E70
330
1D9
100
AcDbEntity
  8
0
100
AcDbLine
 10
1817.4
 20
1230.349999999996
 30
0.0
 11
1817.4
 21
1229.649999999996
 31
0.0
  0
LINE
  5
E71
330
1D9
100
AcDbEntity
  8
0
100
AcDbLine
 10
1805.0
 20
1229.099999999996
 30
0.0
 11
1805.0
 21
1233.149999999996
 31
0.0
  0
ARC
  5
E72
330
1D9
100
AcDbEntity
  8
0
100
AcDbCircle
 10
1808.95
 20
1233.149999999996
 30
0.0
 40
0.35
100
AcDbArc
 50
0.0
 51
90.0
  0
ARC
  5
E73
330
1D9
100
AcDbEntity
  8
0
100
AcDbCircle
 10
1808.25
 20
1233.149999999996
 30
0.0
 40
0.35
100
AcDbArc
 50
90.0
 51
180.0
  0
ARC
  5
E74
330
1D9
100
AcDbEntity
  8
0
100
AcDbCircle
 10
1805.349999999999
 20
1233.149999999996
 30
0.0
 40
0.35
100
AcDbArc
 50
90.0
 51
180.0
  0
ARC
  5
E75
330
1D9
100
AcDbEntity
  8
0
100
AcDbCircle
 10
1806.05
 20
1233.149999999996
 30
0.0
 40
0.35
100
AcDbArc
 50
0.0
 51
90.0
  0
ARC
  5
E76
330
1D9
100
AcDbEntity
  8
0
100
AcDbCircle
 10
1811.85
 20
1233.149999999996
 30
0.0
 40
0.35
100
AcDbArc
 50
90.0
 51
180.0
  0
ARC
  5
E77
330
1D9
100
AcDbEntity
  8
0
100
AcDbCircle
 10
1812.549999999999
 20
1233.149999999996
 30
0.0
 40
0.35
100
AcDbArc
 50
0.0
 51
90.0
  0
ELLIPSE
  5
E78
330
1D9
100
AcDbEntity
  8
0
100
AcDbEllipse
 10
1821.4
 20
1231.574842499996
 30
0.0
 11
-2.275
 21
0.0
 31
0.0
210
0.0
220
0.0
230
-1.0
 40
0.8461538461538468
 41
-0.6648969856680242
 42
3.806489639257951
  0
ELLIPSE
  5
E79
330
1D9
100
AcDbEntity
  8
0
100
AcDbEllipse
 10
1821.4
 20
1228.774999999995
 30
0.0
 11
2.537499999999997
 21
0.0
 31
0.0
210
0.0
220
0.0
230
-1.0
 40
0.896551724137932
 41
-0.7875711394677845
 42
3.929163793057716
  0
LINE
  5
E7A
330
1D9
100
AcDbEntity
  8
0
100
AcDbLine
 10
1915.9
 20
1147.499999999995
 30
0.0
 11
1915.9
 21
1167.499999999996
 31
0.0
  0
LINE
  5
E7B
330
1D9
100
AcDbEntity
  8
0
100
AcDbLine
 10
1895.9
 20
1139.499999999996
 30
0.0
 11
1895.9
 21
1175.499999999996
 31
0.0
  0
ARC
  5
E7C
330
1D9
100
AcDbEntity
  8
0
100
AcDbCircle
 10
1876.571572875254
 20
1144.499999999996
 30
0.0
 40
2.0
100
AcDbArc
 50
270.0
 51
314.999999999991
  0
LINE
  5
E7D
330
1D9
100
AcDbEntity
  8
0
100
AcDbLine
 10
1877.985786437627
 20
1143.085786437623
 30
0.0
 11
1881.4
 21
1146.499999999996
 31
0.0
  0
LINE
  5
E7E
330
1D9
100
AcDbEntity
  8
0
100
AcDbLine
 10
1915.9
 20
1147.499999999995
 30
0.0
 11
1914.9
 21
1146.499999999994
 31
0.0
  0
ARC
  5
E7F
330
1D9
100
AcDbEntity
  8
0
100
AcDbCircle
 10
1815.9
 20
1229.999999999996
 30
0.0
 40
65.0
100
AcDbArc
 50
337.3801350519651
 51
343.9233501683923
  0
ARC
  5
E80
330
1D9
100
AcDbEntity
  8
0
100
AcDbCircle
 10
1815.9
 20
1229.999999999996
 30
0.0
 40
65.0
100
AcDbArc
 50
16.07664983160765
 51
22.61986494803478
  0
ARC
  5
E81
330
1D9
100
AcDbEntity
  8
0
100
AcDbCircle
 10
1878.499920127745
 20
1247.499999999995
 30
0.0
 40
0.5
100
AcDbArc
 50
285.3981293495884
 51
90.0
  0
ARC
  5
E82
330
1D9
100
AcDbEntity
  8
0
100
AcDbCircle
 10
1878.499920127745
 20
1212.499999999996
 30
0.0
 40
0.5
100
AcDbArc
 50
270.0
 51
74.6018706504115
  0
ARC
  5
E83
330
1D9
100
AcDbEntity
  8
0
100
AcDbCircle
 10
1815.9
 20
1229.999999999996
 30
0.0
 40
65.0
100
AcDbArc
 50
344.8222395764841
 51
15.17776042351584
  0
LINE
  5
E84
330
1D9
100
AcDbEntity
  8
0
100
AcDbLine
 10
1872.9
 20
1189.999999999997
 30
0.0
 11
1872.899999999999
 21
1171.499999999996
 31
0.0
  0
ARC
  5
E85
330
1D9
100
AcDbEntity
  8
0
100
AcDbCircle
 10
1875.899999999999
 20
1171.499999999996
 30
0.0
 40
3.0
100
AcDbArc
 50
180.0
 51
270.0
  0
ARC
  5
E86
330
1D9
100
AcDbEntity
  8
0
100
AcDbCircle
 10
1911.9
 20
1189.999999999996
 30
0.0
 40
39.0
100
AcDbArc
 50
157.3801350519651
 51
180.0
  0
LINE
  5
E87
330
1D9
100
AcDbEntity
  8
0
100
AcDbLine
 10
1914.9
 20
1168.499999999996
 30
0.0
 11
1915.9
 21
1167.499999999996
 31
0.0
  0
LINE
  5
E88
330
1D9
100
AcDbEntity
  8
0
100
AcDbLine
 10
1755.228427124746
 20
1317.499999999996
 30
0.0
 11
1876.571572875254
 21
1317.499999999996
 31
0.0
  0
ARC
  5
E89
330
1D9
100
AcDbEntity
  8
0
100
AcDbCircle
 10
1755.228427124746
 20
1315.499999999996
 30
0.0
 40
2.0
100
AcDbArc
 50
90.0
 51
134.9999999999911
  0
LINE
  5
E8A
330
1D9
100
AcDbEntity
  8
0
100
AcDbLine
 10
1758.9
 20
1269.999999999995
 30
0.0
 11
1758.9
 21
1288.499999999996
 31
0.0
  0
ARC
  5
E8B
330
1D9
100
AcDbEntity
  8
0
100
AcDbCircle
 10
1755.9
 20
1288.499999999996
 30
0.0
 40
3.0
100
AcDbArc
 50
0.0
 51
90.0
  0
ARC
  5
E8C
330
1D9
100
AcDbEntity
  8
0
100
AcDbCircle
 10
1876.571572875254
 20
1315.499999999996
 30
0.0
 40
2.0
100
AcDbArc
 50
45.00000000000886
 51
90.0
  0
LINE
  5
E8D
330
1D9
100
AcDbEntity
  8
0
100
AcDbLine
 10
1877.985786437627
 20
1316.914213562369
 30
0.0
 11
1881.4
 21
1313.499999999996
 31
0.0
  0
LINE
  5
E8E
330
1D9
100
AcDbEntity
  8
0
100
AcDbLine
 10
1872.9
 20
1269.999999999995
 30
0.0
 11
1872.899999999999
 21
1288.499999999996
 31
0.0
  0
ARC
  5
E8F
330
1D9
100
AcDbEntity
  8
0
100
AcDbCircle
 10
1875.899999999999
 20
1288.499999999996
 30
0.0
 40
3.0
100
AcDbArc
 50
90.0
 51
180.0
  0
LINE
  5
E90
330
1D9
100
AcDbEntity
  8
0
100
AcDbLine
 10
1895.9
 20
1320.499999999995
 30
0.0
 11
1895.9
 21
1284.499999999995
 31
0.0
  0
LINE
  5
E91
330
1D9
100
AcDbEntity
  8
0
100
AcDbLine
 10
1914.9
 20
1313.499999999996
 30
0.0
 11
1915.9
 21
1312.499999999996
 31
0.0
  0
LINE
  5
E92
330
1D9
100
AcDbEntity
  8
0
100
AcDbLine
 10
1915.9
 20
1292.499999999996
 30
0.0
 11
1914.9
 21
1291.499999999996
 31
0.0
  0
LINE
  5
E93
330
1D9
100
AcDbEntity
  8
0
100
AcDbLine
 10
1915.9
 20
1312.499999999996
 30
0.0
 11
1915.9
 21
1292.499999999996
 31
0.0
  0
LINE
  5
10DF
330
1D9
100
AcDbEntity
  8
0
100
AcDbLine
 10
407.1715728752547
 20
909.9999999999964
 30
0.0
 11
506.5000000000003
 21
909.9999999999964
 31
0.0
  0
LINE
  5
10E0
330
1D9
100
AcDbEntity
  8
0
100
AcDbLine
 10
407.1715728752547
 20
684.9999999999964
 30
0.0
 11
506.5000000000003
 21
684.9999999999964
 31
0.0
  0
LINE
  5
10E1
330
1D9
100
AcDbEntity
  8
0
100
AcDbLine
 10
497.5000000000004
 20
899.9999999999964
 30
0.0
 11
497.5000000000004
 21
694.9999999999961
 31
0.0
  0
LINE
  5
10E5
330
1D9
100
AcDbEntity
  8
0
100
AcDbLine
 10
465.1715728752542
 20
417.4999999999999
 30
0.0
 11
569.0000000000005
 21
417.4999999999999
 31
0.0
  0
LINE
  5
10E6
330
1D9
100
AcDbEntity
  8
0
100
AcDbLine
 10
465.1715728752542
 20
167.5
 30
0.0
 11
569.0000000000003
 21
167.5
 31
0.0
  0
LINE
  5
10E7
330
1D9
100
AcDbEntity
  8
0
100
AcDbLine
 10
560.0000000000005
 20
407.5000000000001
 30
0.0
 11
560.0000000000003
 21
177.5
 31
0.0
  0
LINE
  5
10EB
330
1D9
100
AcDbEntity
  8
0
100
AcDbLine
 10
839.4715728752533
 20
1317.499999999996
 30
0.0
 11
932.7999999999994
 21
1317.499999999996
 31
0.0
  0
LINE
  5
10EC
330
1D9
100
AcDbEntity
  8
0
100
AcDbLine
 10
839.4715728752533
 20
1142.499999999996
 30
0.0
 11
932.7999999999992
 21
1142.499999999996
 31
0.0
  0
LINE
  5
10ED
330
1D9
100
AcDbEntity
  8
0
100
AcDbLine
 10
923.7999999999994
 20
1307.499999999996
 30
0.0
 11
923.7999999999992
 21
1152.499999999996
 31
0.0
  0
LINE
  5
10F1
330
1D9
100
AcDbEntity
  8
0
100
AcDbLine
 10
524.2715728752544
 20
1317.499999999995
 30
0.0
 11
619.6000000000005
 21
1317.499999999995
 31
0.0
  0
LINE
  5
10F2
330
1D9
100
AcDbEntity
  8
0
100
AcDbLine
 10
524.2715728752544
 20
1142.499999999996
 30
0.0
 11
619.6000000000004
 21
1142.499999999996
 31
0.0
  0
LINE
  5
10F3
330
1D9
100
AcDbEntity
  8
0
100
AcDbLine
 10
610.6000000000005
 20
1307.499999999994
 30
0.0
 11
610.6000000000002
 21
1152.499999999996
 31
0.0
  0
LINE
  5
10F7
330
1D9
100
AcDbEntity
  8
0
100
AcDbLine
 10
1747.171572875252
 20
909.9999999999964
 30
0.0
 11
1854.0
 21
909.9999999999962
 31
0.0
  0
LINE
  5
10F8
330
1D9
100
AcDbEntity
  8
0
100
AcDbLine
 10
1747.171572875252
 20
684.9999999999964
 30
0.0
 11
1854.0
 21
684.9999999999962
 31
0.0
  0
LINE
  5
10F9
330
1D9
100
AcDbEntity
  8
0
100
AcDbLine
 10
1845.0
 20
899.999999999996
 30
0.0
 11
1845.0
 21
694.9999999999961
 31
0.0
  0
LINE
  5
10FD
330
1D9
100
AcDbEntity
  8
0
100
AcDbLine
 10
1050.671572875254
 20
909.9999999999964
 30
0.0
 11
1154.0
 21
909.9999999999964
 31
0.0
  0
LINE
  5
10FE
330
1D9
100
AcDbEntity
  8
0
100
AcDbLine
 10
1050.671572875254
 20
684.9999999999964
 30
0.0
 11
1154.0
 21
684.9999999999964
 31
0.0
  0
LINE
  5
10FF
330
1D9
100
AcDbEntity
  8
0
100
AcDbLine
 10
1145.0
 20
899.9999999999964
 30
0.0
 11
1145.0
 21
694.9999999999961
 31
0.0
  0
LINE
  5
1103
330
1D9
100
AcDbEntity
  8
0
100
AcDbLine
 10
1122.671572875254
 20
417.4999999999999
 30
0.0
 11
1234.0
 21
417.4999999999998
 31
0.0
  0
LINE
  5
1104
330
1D9
100
AcDbEntity
  8
0
100
AcDbLine
 10
1122.671572875254
 20
167.5
 30
0.0
 11
1234.0
 21
167.5
 31
0.0
  0
LINE
  5
1105
330
1D9
100
AcDbEntity
  8
0
100
AcDbLine
 10
1225.0
 20
407.5
 30
0.0
 11
1225.0
 21
177.5
 31
0.0
  0
LINE
  5
1109
330
1D9
100
AcDbEntity
  8
0
100
AcDbLine
 10
1828.171572875253
 20
417.4999999999999
 30
0.0
 11
1941.499999999999
 21
417.4999999999998
 31
0.0
  0
LINE
  5
110A
330
1D9
100
AcDbEntity
  8
0
100
AcDbLine
 10
1828.171572875253
 20
167.5
 30
0.0
 11
1941.499999999999
 21
167.5
 31
0.0
  0
LINE
  5
110B
330
1D9
100
AcDbEntity
  8
0
100
AcDbLine
 10
1932.5
 20
407.5
 30
0.0
 11
1932.5
 21
177.5
 31
0.0
  0
LINE
  5
110F
330
1D9
100
AcDbEntity
  8
0
100
AcDbLine
 10
1514.371572875252
 20
1317.499999999996
 30
0.0
 11
1609.199999999999
 21
1317.499999999996
 31
0.0
  0
LINE
  5
1110
330
1D9
100
AcDbEntity
  8
0
100
AcDbLine
 10
1514.371572875252
 20
1142.499999999996
 30
0.0
 11
1609.199999999999
 21
1142.499999999996
 31
0.0
  0
LINE
  5
1111
330
1D9
100
AcDbEntity
  8
0
100
AcDbLine
 10
1600.2
 20
1307.499999999996
 30
0.0
 11
1600.2
 21
1152.499999999996
 31
0.0
  0
LINE
  5
1115
330
1D9
100
AcDbEntity
  8
0
100
AcDbLine
 10
1167.171572875251
 20
1317.499999999996
 30
0.0
 11
1260.999999999999
 21
1317.499999999996
 31
0.0
  0
LINE
  5
1116
330
1D9
100
AcDbEntity
  8
0
100
AcDbLine
 10
1167.171572875251
 20
1142.499999999996
 30
0.0
 11
1260.999999999999
 21
1142.499999999996
 31
0.0
  0
LINE
  5
1117
330
1D9
100
AcDbEntity
  8
0
100
AcDbLine
 10
1251.999999999998
 20
1307.499999999996
 30
0.0
 11
1251.999999999998
 21
1152.499999999996
 31
0.0
  0
LINE
  5
111B
330
1D9
100
AcDbEntity
  8
0
100
AcDbLine
 10
1877.071572875253
 20
1317.499999999996
 30
0.0
 11
1974.9
 21
1317.499999999996
 31
0.0
  0
LINE
  5
111C
330
1D9
100
AcDbEntity
  8
0
100
AcDbLine
 10
1877.071572875253
 20
1142.499999999996
 30
0.0
 11
1974.9
 21
1142.499999999996
 31
0.0
  0
LINE
  5
111D
330
1D9
100
AcDbEntity
  8
0
100
AcDbLine
 10
1965.9
 20
1307.499999999996
 30
0.0
 11
1965.9
 21
1152.499999999996
 31
0.0
  0
TEXT
  5
1121
330
1D9
100
AcDbEntity
  8
0
100
AcDbText
 10
552.5000000000003
 20
273.75
 30
0.0
 40
15.0
  1
250
 50
90.0
100
AcDbText
  0
LINE
  5
1122
330
1D9
100
AcDbEntity
  8
0
100
AcDbLine
 10
560.0000000000003
 20
167.5
 30
0.0
 11
557.3205080756894
 21
177.5
 31
0.0
  0
LINE
  5
1123
330
1D9
100
AcDbEntity
  8
0
100
AcDbLine
 10
560.0000000000003
 20
167.5
 30
0.0
 11
562.6794919243113
 21
177.5
 31
0.0
  0
LINE
  5
1124
330
1D9
100
AcDbEntity
  8
0
100
AcDbLine
 10
560.0000000000003
 20
177.5
 30
0.0
 11
560.0000000000003
 21
167.5
 31
0.0
  0
LINE
  5
1125
330
1D9
100
AcDbEntity
  8
0
100
AcDbLine
 10
560.0000000000005
 20
417.4999999999999
 30
0.0
 11
562.6794919243116
 21
407.5000000000001
 31
0.0
  0
LINE
  5
1126
330
1D9
100
AcDbEntity
  8
0
100
AcDbLine
 10
560.0000000000005
 20
417.4999999999999
 30
0.0
 11
557.3205080756894
 21
407.5000000000001
 31
0.0
  0
LINE
  5
1127
330
1D9
100
AcDbEntity
  8
0
100
AcDbLine
 10
560.0000000000005
 20
407.5000000000001
 30
0.0
 11
560.0000000000005
 21
417.4999999999999
 31
0.0
  0
LINE
  5
1128
330
1D9
100
AcDbEntity
  8
0
100
AcDbLine
 10
497.5000000000004
 20
684.9999999999964
 30
0.0
 11
494.8205080756894
 21
694.9999999999961
 31
0.0
  0
LINE
  5
1129
330
1D9
100
AcDbEntity
  8
0
100
AcDbLine
 10
497.5000000000004
 20
684.9999999999964
 30
0.0
 11
500.1794919243113
 21
694.9999999999961
 31
0.0
  0
LINE
  5
112A
330
1D9
100
AcDbEntity
  8
0
100
AcDbLine
 10
497.5000000000004
 20
694.9999999999961
 30
0.0
 11
497.5000000000004
 21
684.9999999999964
 31
0.0
  0
TEXT
  5
112B
330
1D9
100
AcDbEntity
  8
0
100
AcDbText
 10
490.0000000000003
 20
777.4999999999963
 30
0.0
 40
15.0
  1
225
 50
90.0
100
AcDbText
  0
LINE
  5
112C
330
1D9
100
AcDbEntity
  8
0
100
AcDbLine
 10
497.5000000000004
 20
909.9999999999964
 30
0.0
 11
500.1794919243115
 21
899.9999999999964
 31
0.0
  0
LINE
  5
112D
330
1D9
100
AcDbEntity
  8
0
100
AcDbLine
 10
497.5000000000004
 20
909.9999999999964
 30
0.0
 11
494.8205080756895
 21
899.9999999999964
 31
0.0
  0
LINE
  5
112E
330
1D9
100
AcDbEntity
  8
0
100
AcDbLine
 10
497.5000000000004
 20
899.9999999999964
 30
0.0
 11
497.5000000000004
 21
909.9999999999964
 31
0.0
  0
LINE
  5
112F
330
1D9
100
AcDbEntity
  8
0
100
AcDbLine
 10
610.6000000000002
 20
1142.499999999996
 30
0.0
 11
607.9205080756892
 21
1152.499999999996
 31
0.0
  0
LINE
  5
1130
330
1D9
100
AcDbEntity
  8
0
100
AcDbLine
 10
610.6000000000002
 20
1142.499999999996
 30
0.0
 11
613.2794919243114
 21
1152.499999999996
 31
0.0
  0
LINE
  5
1131
330
1D9
100
AcDbEntity
  8
0
100
AcDbLine
 10
610.6000000000002
 20
1152.499999999996
 30
0.0
 11
610.6000000000002
 21
1142.499999999996
 31
0.0
  0
LINE
  5
1132
330
1D9
100
AcDbEntity
  8
0
100
AcDbLine
 10
923.7999999999992
 20
1142.499999999996
 30
0.0
 11
921.1205080756879
 21
1152.499999999996
 31
0.0
  0
LINE
  5
1133
330
1D9
100
AcDbEntity
  8
0
100
AcDbLine
 10
923.7999999999992
 20
1142.499999999996
 30
0.0
 11
926.4794919243103
 21
1152.499999999996
 31
0.0
  0
LINE
  5
1134
330
1D9
100
AcDbEntity
  8
0
100
AcDbLine
 10
923.7999999999992
 20
1152.499999999996
 30
0.0
 11
923.7999999999992
 21
1142.499999999996
 31
0.0
  0
TEXT
  5
1135
330
1D9
100
AcDbEntity
  8
0
100
AcDbText
 10
603.1000000000002
 20
1212.499999999996
 30
0.0
 40
15.0
  1
175
 50
90.0
100
AcDbText
  0
LINE
  5
1136
330
1D9
100
AcDbEntity
  8
0
100
AcDbLine
 10
610.6000000000005
 20
1317.499999999995
 30
0.0
 11
613.2794919243115
 21
1307.499999999994
 31
0.0
  0
LINE
  5
1137
330
1D9
100
AcDbEntity
  8
0
100
AcDbLine
 10
610.6000000000005
 20
1317.499999999995
 30
0.0
 11
607.9205080756894
 21
1307.499999999994
 31
0.0
  0
LINE
  5
1138
330
1D9
100
AcDbEntity
  8
0
100
AcDbLine
 10
610.6000000000005
 20
1307.499999999994
 30
0.0
 11
610.6000000000005
 21
1317.499999999995
 31
0.0
  0
TEXT
  5
1139
330
1D9
100
AcDbEntity
  8
0
100
AcDbText
 10
916.2999999999993
 20
1212.499999999996
 30
0.0
 40
15.0
  1
175
 50
90.0
100
AcDbText
  0
LINE
  5
113A
330
1D9
100
AcDbEntity
  8
0
100
AcDbLine
 10
923.7999999999994
 20
1317.499999999996
 30
0.0
 11
926.4794919243103
 21
1307.499999999996
 31
0.0
  0
LINE
  5
113B
330
1D9
100
AcDbEntity
  8
0
100
AcDbLine
 10
923.7999999999994
 20
1317.499999999996
 30
0.0
 11
921.1205080756883
 21
1307.499999999996
 31
0.0
  0
LINE
  5
113C
330
1D9
100
AcDbEntity
  8
0
100
AcDbLine
 10
923.7999999999994
 20
1307.499999999996
 30
0.0
 11
923.7999999999994
 21
1317.499999999996
 31
0.0
  0
TEXT
  5
113D
330
1D9
100
AcDbEntity
  8
0
100
AcDbText
 10
1217.5
 20
273.7500000000001
 30
0.0
 40
15.0
  1
250
 50
90.0
100
AcDbText
  0
LINE
  5
113E
330
1D9
100
AcDbEntity
  8
0
100
AcDbLine
 10
1225.0
 20
167.5
 30
0.0
 11
1222.320508075688
 21
177.5
 31
0.0
  0
LINE
  5
113F
330
1D9
100
AcDbEntity
  8
0
100
AcDbLine
 10
1225.0
 20
167.5
 30
0.0
 11
1227.679491924311
 21
177.5
 31
0.0
  0
LINE
  5
1140
330
1D9
100
AcDbEntity
  8
0
100
AcDbLine
 10
1225.0
 20
177.5
 30
0.0
 11
1225.0
 21
167.5
 31
0.0
  0
LINE
  5
1141
330
1D9
100
AcDbEntity
  8
0
100
AcDbLine
 10
1225.0
 20
417.4999999999998
 30
0.0
 11
1227.679491924311
 21
407.5
 31
0.0
  0
LINE
  5
1142
330
1D9
100
AcDbEntity
  8
0
100
AcDbLine
 10
1225.0
 20
417.4999999999998
 30
0.0
 11
1222.320508075688
 21
407.5
 31
0.0
  0
LINE
  5
1143
330
1D9
100
AcDbEntity
  8
0
100
AcDbLine
 10
1225.0
 20
407.5
 30
0.0
 11
1225.0
 21
417.4999999999998
 31
0.0
  0
LINE
  5
1144
330
1D9
100
AcDbEntity
  8
0
100
AcDbLine
 10
1145.0
 20
684.9999999999964
 30
0.0
 11
1142.320508075688
 21
694.9999999999961
 31
0.0
  0
LINE
  5
1145
330
1D9
100
AcDbEntity
  8
0
100
AcDbLine
 10
1145.0
 20
684.9999999999964
 30
0.0
 11
1147.679491924311
 21
694.9999999999961
 31
0.0
  0
LINE
  5
1146
330
1D9
100
AcDbEntity
  8
0
100
AcDbLine
 10
1145.0
 20
694.9999999999961
 30
0.0
 11
1145.0
 21
684.9999999999964
 31
0.0
  0
TEXT
  5
1147
330
1D9
100
AcDbEntity
  8
0
100
AcDbText
 10
1925.0
 20
273.7500000000002
 30
0.0
 40
15.0
  1
250
 50
90.0
100
AcDbText
  0
LINE
  5
1148
330
1D9
100
AcDbEntity
  8
0
100
AcDbLine
 10
1932.5
 20
167.5
 30
0.0
 11
1929.820508075689
 21
177.5
 31
0.0
  0
LINE
  5
1149
330
1D9
100
AcDbEntity
  8
0
100
AcDbLine
 10
1932.5
 20
167.5
 30
0.0
 11
1935.17949192431
 21
177.5
 31
0.0
  0
LINE
  5
114A
330
1D9
100
AcDbEntity
  8
0
100
AcDbLine
 10
1932.5
 20
177.5
 30
0.0
 11
1932.5
 21
167.5
 31
0.0
  0
LINE
  5
114B
330
1D9
100
AcDbEntity
  8
0
100
AcDbLine
 10
1932.5
 20
417.4999999999998
 30
0.0
 11
1935.17949192431
 21
407.5
 31
0.0
  0
LINE
  5
114C
330
1D9
100
AcDbEntity
  8
0
100
AcDbLine
 10
1932.5
 20
417.4999999999998
 30
0.0
 11
1929.820508075689
 21
407.5
 31
0.0
  0
LINE
  5
114D
330
1D9
100
AcDbEntity
  8
0
100
AcDbLine
 10
1932.5
 20
407.5
 30
0.0
 11
1932.5
 21
417.4999999999998
 31
0.0
  0
LINE
  5
114E
330
1D9
100
AcDbEntity
  8
0
100
AcDbLine
 10
1845.0
 20
684.9999999999962
 30
0.0
 11
1842.320508075689
 21
694.9999999999961
 31
0.0
  0
LINE
  5
114F
330
1D9
100
AcDbEntity
  8
0
100
AcDbLine
 10
1845.0
 20
684.9999999999962
 30
0.0
 11
1847.67949192431
 21
694.9999999999961
 31
0.0
  0
LINE
  5
1150
330
1D9
100
AcDbEntity
  8
0
100
AcDbLine
 10
1845.0
 20
694.9999999999961
 30
0.0
 11
1845.0
 21
684.9999999999962
 31
0.0
  0
TEXT
  5
1151
330
1D9
100
AcDbEntity
  8
0
100
AcDbText
 10
1137.499999999999
 20
777.4999999999963
 30
0.0
 40
15.0
  1
225
 50
90.0
100
AcDbText
  0
LINE
  5
1152
330
1D9
100
AcDbEntity
  8
0
100
AcDbLine
 10
1145.0
 20
909.9999999999964
 30
0.0
 11
1147.679491924311
 21
899.9999999999964
 31
0.0
  0
LINE
  5
1153
330
1D9
100
AcDbEntity
  8
0
100
AcDbLine
 10
1145.0
 20
909.9999999999964
 30
0.0
 11
1142.320508075688
 21
899.9999999999964
 31
0.0
  0
LINE
  5
1154
330
1D9
100
AcDbEntity
  8
0
100
AcDbLine
 10
1145.0
 20
899.9999999999964
 30
0.0
 11
1145.0
 21
909.9999999999964
 31
0.0
  0
LINE
  5
1155
330
1D9
100
AcDbEntity
  8
0
100
AcDbLine
 10
1251.999999999998
 20
1142.499999999996
 30
0.0
 11
1249.320508075688
 21
1152.499999999996
 31
0.0
  0
LINE
  5
1156
330
1D9
100
AcDbEntity
  8
0
100
AcDbLine
 10
1251.999999999998
 20
1142.499999999996
 30
0.0
 11
1254.67949192431
 21
1152.499999999996
 31
0.0
  0
LINE
  5
1157
330
1D9
100
AcDbEntity
  8
0
100
AcDbLine
 10
1251.999999999998
 20
1152.499999999996
 30
0.0
 11
1251.999999999998
 21
1142.499999999996
 31
0.0
  0
LINE
  5
1158
330
1D9
100
AcDbEntity
  8
0
100
AcDbLine
 10
1600.2
 20
1142.499999999996
 30
0.0
 11
1597.520508075689
 21
1152.499999999996
 31
0.0
  0
LINE
  5
1159
330
1D9
100
AcDbEntity
  8
0
100
AcDbLine
 10
1600.2
 20
1142.499999999996
 30
0.0
 11
1602.879491924311
 21
1152.499999999996
 31
0.0
  0
LINE
  5
115A
330
1D9
100
AcDbEntity
  8
0
100
AcDbLine
 10
1600.2
 20
1152.499999999996
 30
0.0
 11
1600.2
 21
1142.499999999996
 31
0.0
  0
TEXT
  5
115B
330
1D9
100
AcDbEntity
  8
0
100
AcDbText
 10
1244.499999999999
 20
1212.499999999996
 30
0.0
 40
15.0
  1
175
 50
90.0
100
AcDbText
  0
LINE
  5
115C
330
1D9
100
AcDbEntity
  8
0
100
AcDbLine
 10
1251.999999999998
 20
1317.499999999996
 30
0.0
 11
1254.67949192431
 21
1307.499999999996
 31
0.0
  0
LINE
  5
115D
330
1D9
100
AcDbEntity
  8
0
100
AcDbLine
 10
1251.999999999998
 20
1317.499999999996
 30
0.0
 11
1249.320508075688
 21
1307.499999999996
 31
0.0
  0
LINE
  5
115E
330
1D9
100
AcDbEntity
  8
0
100
AcDbLine
 10
1251.999999999998
 20
1307.499999999996
 30
0.0
 11
1251.999999999998
 21
1317.499999999996
 31
0.0
  0
TEXT
  5
115F
330
1D9
100
AcDbEntity
  8
0
100
AcDbText
 10
1592.699999999999
 20
1212.499999999996
 30
0.0
 40
15.0
  1
175
 50
90.0
100
AcDbText
  0
LINE
  5
1160
330
1D9
100
AcDbEntity
  8
0
100
AcDbLine
 10
1600.2
 20
1317.499999999996
 30
0.0
 11
1602.87949192431
 21
1307.499999999996
 31
0.0
  0
LINE
  5
1161
330
1D9
100
AcDbEntity
  8
0
100
AcDbLine
 10
1600.2
 20
1317.499999999996
 30
0.0
 11
1597.520508075687
 21
1307.499999999996
 31
0.0
  0
LINE
  5
1162
330
1D9
100
AcDbEntity
  8
0
100
AcDbLine
 10
1600.2
 20
1307.499999999996
 30
0.0
 11
1600.2
 21
1317.499999999996
 31
0.0
  0
TEXT
  5
1163
330
1D9
100
AcDbEntity
  8
0
100
AcDbText
 10
1837.5
 20
777.4999999999964
 30
0.0
 40
15.0
  1
225
 50
90.0
100
AcDbText
  0
LINE
  5
1164
330
1D9
100
AcDbEntity
  8
0
100
AcDbLine
 10
1845.0
 20
909.9999999999962
 30
0.0
 11
1847.67949192431
 21
899.999999999996
 31
0.0
  0
LINE
  5
1165
330
1D9
100
AcDbEntity
  8
0
100
AcDbLine
 10
1845.0
 20
909.9999999999962
 30
0.0
 11
1842.320508075689
 21
899.999999999996
 31
0.0
  0
LINE
  5
1166
330
1D9
100
AcDbEntity
  8
0
100
AcDbLine
 10
1845.0
 20
899.999999999996
 30
0.0
 11
1845.0
 21
909.9999999999962
 31
0.0
  0
LINE
  5
1167
330
1D9
100
AcDbEntity
  8
0
100
AcDbLine
 10
1965.9
 20
1142.499999999996
 30
0.0
 11
1963.220508075689
 21
1152.499999999996
 31
0.0
  0
LINE
  5
1168
330
1D9
100
AcDbEntity
  8
0
100
AcDbLine
 10
1965.9
 20
1142.499999999996
 30
0.0
 11
1968.579491924312
 21
1152.499999999996
 31
0.0
  0
LINE
  5
1169
330
1D9
100
AcDbEntity
  8
0
100
AcDbLine
 10
1965.9
 20
1152.499999999996
 30
0.0
 11
1965.9
 21
1142.499999999996
 31
0.0
  0
TEXT
  5
116A
330
1D9
100
AcDbEntity
  8
0
100
AcDbText
 10
1958.4
 20
1212.499999999996
 30
0.0
 40
15.0
  1
175
 50
90.0
100
AcDbText
  0
LINE
  5
116B
330
1D9
100
AcDbEntity
  8
0
100
AcDbLine
 10
1965.9
 20
1317.499999999996
 30
0.0
 11
1968.579491924311
 21
1307.499999999996
 31
0.0
  0
LINE
  5
116C
330
1D9
100
AcDbEntity
  8
0
100
AcDbLine
 10
1965.9
 20
1317.499999999996
 30
0.0
 11
1963.220508075689
 21
1307.499999999996
 31
0.0
  0
LINE
  5
116D
330
1D9
100
AcDbEntity
  8
0
100
AcDbLine
 10
1965.9
 20
1307.499999999996
 30
0.0
 11
1965.9
 21
1317.499999999996
 31
0.0
  0
ENDSEC
  0
SECTION
  2
OBJECTS
  0
DICTIONARY
  5
1CD
330
0
100
AcDbDictionary
  3
ACAD_GROUP
350
1CE
  3
ACAD_LAYOUT
350
2DE
  3
ACAD_MLINESTYLE
350
1CF
  3
ACAD_PLOTSETTINGS
350
2DF
1001
ACAD
1000
TREAT_AS_HARD
1070
     0
  0
DICTIONARY
  5
1179
330
1D9
100
AcDbDictionary
  3
ACAD_LAYOUTSELFREF
350
117A
  0
DICTIONARY
  5
1177
330
1D6
100
AcDbDictionary
  3
ACAD_LAYOUTSELFREF
350
1178
  0
DICTIONARY
  5
1CE
102
{ACAD_REACTORS
330
1CD
102
}
330
1CD
100
AcDbDictionary
1001
ACAD
1000
TREAT_AS_HARD
1070
     0
  0
DICTIONARY
  5
2DE
102
{ACAD_REACTORS
330
1CD
102
}
330
1CD
100
AcDbDictionary
1001
ACAD
1000
TREAT_AS_HARD
1070
     0
  0
DICTIONARY
  5
1CF
102
{ACAD_REACTORS
330
1CD
102
}
330
1CD
100
AcDbDictionary
  3
STANDARD
350
1DC
1001
ACAD
1000
TREAT_AS_HARD
1070
     0
  0
DICTIONARY
  5
2DF
102
{ACAD_REACTORS
330
1CD
102
}
330
1CD
100
AcDbDictionary
1001
ACAD
1000
TREAT_AS_HARD
1070
     0
  0
XRECORD
  5
117A
102
{ACAD_REACTORS
330
1179
102
}
330
1179
100
AcDbXrecord
340
1D9
  0
XRECORD
  5
1178
102
{ACAD_REACTORS
330
1177
102
}
330
1177
100
AcDbXrecord
340
1D6
  0
MLINESTYLE
  5
1DC
102
{ACAD_REACTORS
330
1CF
102
}
330
1CF
100
AcDbMlineStyle
  2
STANDARD
 70
     0
  3

 62
     0
 51
90.0
 52
90.0
 71
     2
 49
0.5
 62
   256
  6
BYLAYER
 49
-0.5
 62
   256
  6
BYLAYER
  0
ENDSEC
  0
EOF
