  0
SECTION
  2
HEADER
  9
$ACADVER
  1
AC1012
  9
$DWGCODEPAGE
  3
dos932
  9
$INSBASE
 10
0.0
 20
0.0
 30
0.0
  9
$EXTMIN
 10
15.0
 20
0.0
 30
0.0
  9
$EXTMAX
 10
1995.0
 20
1420.0
 30
0.0
  9
$LIMMIN
 10
0.0
 20
0.0
  9
$LIMMAX
 10
2100.0
 20
1485.0
  9
$ORTHOMODE
 70
     0
  9
$REGENMODE
 70
     1
  9
$FILLMODE
 70
     1
  9
$QTEXTMODE
 70
     0
  9
$MIRRTEXT
 70
     0
  9
$DRAGMODE
 70
     2
  9
$LTSCALE
 40
40.0
  9
$OSMODE
 70
    37
  9
$ATTMODE
 70
     1
  9
$TEXTSIZE
 40
15.0
  9
$TRACEWID
 40
0.05
  9
$TEXTSTYLE
  7
STANDARD
  9
$CLAYER
  8
0
  9
$CELTYPE
  6
BYLAYER
  9
$CECOLOR
 62
   256
  9
$CELTSCALE
 40
1.0
  9
$DELOBJ
 70
     1
  9
$DISPSILH
 70
     0
  9
$DIMSCALE
 40
5.0
  9
$DIMASZ
 40
2.0
  9
$DIMEXO
 40
0.1
  9
$DIMDLI
 40
7.0
  9
$DIMRND
 40
0.0
  9
$DIMDLE
 40
0.0
  9
$DIMEXE
 40
1.8
  9
$DIMTP
 40
0.0
  9
$DIMTM
 40
0.0
  9
$DIMTXT
 40
3.0
  9
$DIMCEN
 40
0.1
  9
$DIMTSZ
 40
0.0
  9
$DIMTOL
 70
     0
  9
$DIMLIM
 70
     0
  9
$DIMTIH
 70
     0
  9
$DIMTOH
 70
     0
  9
$DIMSE1
 70
     0
  9
$DIMSE2
 70
     0
  9
$DIMTAD
 70
     0
  9
$DIMZIN
 70
     9
  9
$DIMBLK
  1
YAZ1
  9
$DIMASO
 70
     1
  9
$DIMSHO
 70
     1
  9
$DIMPOST
  1

  9
$DIMAPOST
  1

  9
$DIMALT
 70
     0
  9
$DIMALTD
 70
     2
  9
$DIMALTF
 40
25.4
  9
$DIMLFAC
 40
1.0
  9
$DIMTOFL
 70
     1
  9
$DIMTVP
 40
1.0
  9
$DIMTIX
 70
     0
  9
$DIMSOXD
 70
     0
  9
$DIMSAH
 70
     1
  9
$DIMBLK1
  1
YAZ1
  9
$DIMBLK2
  1
YAZ1
  9
$DIMSTYLE
  2
YAZ1
  9
$DIMCLRD
 70
   256
  9
$DIMCLRE
 70
   256
  9
$DIMCLRT
 70
   256
  9
$DIMTFAC
 40
1.0
  9
$DIMGAP
 40
0.0
  9
$DIMJUST
 70
     0
  9
$DIMSD1
 70
     0
  9
$DIMSD2
 70
     0
  9
$DIMTOLJ
 70
     1
  9
$DIMTZIN
 70
     9
  9
$DIMALTZ
 70
     9
  9
$DIMALTTZ
 70
     9
  9
$DIMFIT
 70
     5
  9
$DIMUPT
 70
     0
  9
$DIMUNIT
 70
     2
  9
$DIMDEC
 70
     3
  9
$DIMTDEC
 70
     3
  9
$DIMALTU
 70
     2
  9
$DIMALTTD
 70
     2
  9
$DIMTXSTY
  7
STANDARD
  9
$DIMAUNIT
 70
     0
  9
$LUNITS
 70
     2
  9
$LUPREC
 70
     3
  9
$SKETCHINC
 40
0.1
  9
$FILLETRAD
 40
0.0
  9
$AUNITS
 70
     0
  9
$AUPREC
 70
     2
  9
$MENU
  1
amecex
  9
$ELEVATION
 40
0.0
  9
$PELEVATION
 40
0.0
  9
$THICKNESS
 40
0.0
  9
$LIMCHECK
 70
     0
  9
$BLIPMODE
 70
     0
  9
$CHAMFERA
 40
0.0
  9
$CHAMFERB
 40
0.0
  9
$CHAMFERC
 40
0.0
  9
$CHAMFERD
 40
0.0
  9
$SKPOLY
 70
     0
  9
$TDCREATE
 40
2453151.702121296
  9
$TDUPDATE
 40
2456045.411453287
  9
$TDINDWG
 40
0.0432791319
  9
$TDUSRTIMER
 40
0.0432788310
  9
$USRTIMER
 70
     1
  9
$ANGBASE
 50
0.0
  9
$ANGDIR
 70
     0
  9
$PDMODE
 70
     0
  9
$PDSIZE
 40
0.0
  9
$PLINEWID
 40
0.0
  9
$COORDS
 70
     0
  9
$SPLFRAME
 70
     0
  9
$SPLINETYPE
 70
     6
  9
$SPLINESEGS
 70
     8
  9
$ATTDIA
 70
     0
  9
$ATTREQ
 70
     1
  9
$HANDLING
 70
-16383
  9
$HANDSEED
  5
157B
  9
$SURFTAB1
 70
     6
  9
$SURFTAB2
 70
     6
  9
$SURFTYPE
 70
     6
  9
$SURFU
 70
     6
  9
$SURFV
 70
     6
  9
$UCSNAME
  2

  9
$UCSORG
 10
0.0
 20
0.0
 30
0.0
  9
$UCSXDIR
 10
1.0
 20
0.0
 30
0.0
  9
$UCSYDIR
 10
0.0
 20
1.0
 30
0.0
  9
$PUCSNAME
  2

  9
$PUCSORG
 10
0.0
 20
0.0
 30
0.0
  9
$PUCSXDIR
 10
1.0
 20
0.0
 30
0.0
  9
$PUCSYDIR
 10
0.0
 20
1.0
 30
0.0
  9
$USERI1
 70
     0
  9
$USERI2
 70
     0
  9
$USERI3
 70
     0
  9
$USERI4
 70
     0
  9
$USERI5
 70
     0
  9
$USERR1
 40
30.0
  9
$USERR2
 40
0.0
  9
$USERR3
 40
0.0
  9
$USERR4
 40
0.0
  9
$USERR5
 40
0.0
  9
$WORLDVIEW
 70
     1
  9
$SHADEDGE
 70
     3
  9
$SHADEDIF
 70
    70
  9
$TILEMODE
 70
     1
  9
$MAXACTVP
 70
    16
  9
$PINSBASE
 10
0.0
 20
0.0
 30
0.0
  9
$PLIMCHECK
 70
     0
  9
$PEXTMIN
 10
1.000000000000000E+20
 20
1.000000000000000E+20
 30
1.000000000000000E+20
  9
$PEXTMAX
 10
-1.000000000000000E+20
 20
-1.000000000000000E+20
 30
-1.000000000000000E+20
  9
$PLIMMIN
 10
0.0
 20
0.0
  9
$PLIMMAX
 10
12.0
 20
9.0
  9
$UNITMODE
 70
     0
  9
$VISRETAIN
 70
     0
  9
$PLINEGEN
 70
     0
  9
$PSLTSCALE
 70
     0
  9
$TREEDEPTH
 70
  3020
  9
$PICKSTYLE
 70
     1
  9
$CMLSTYLE
  2
STANDARD
  9
$CMLJUST
 70
     0
  9
$CMLSCALE
 40
1.0
  9
$SAVEIMAGES
 70
     1
  0
ENDSEC
  0
SECTION
  2
CLASSES
  0
CLASS
  1
ACDBDICTIONARYWDFLT
  2
AcDbDictionaryWithDefault
  3
AutoCAD 2000
 90
    32768
280
     0
281
     0
  0
CLASS
  1
ACDBPLACEHOLDER
  2
AcDbPlaceHolder
  3
AutoCAD 2000
 90
    32768
280
     0
281
     0
  0
CLASS
  1
LAYOUT
  2
AcDbLayout
  3
AutoCAD 2000
 90
    32768
280
     0
281
     0
  0
CLASS
  1
LONG_TRANSACTION
  2
AcDbLongTransaction
  3
AutoCAD 2000
 90
    32768
280
     0
281
     0
  0
CLASS
  1
LWPOLYLINE
  2
AcDbPolyline
  3
AutoCAD 2000
 90
    32768
280
     0
281
     1
  0
CLASS
  1
HATCH
  2
AcDbHatch
  3
AutoCAD 2000
 90
    32768
280
     0
281
     1
  0
CLASS
  1
XRECORD
  2
AcDbXrecord
  3
AutoCAD 2000
 90
    32768
280
     0
281
     0
  0
ENDSEC
  0
SECTION
  2
TABLES
  0
TABLE
  2
VPORT
  5
1C9
330
0
100
AcDbSymbolTable
 70
     2
  0
VPORT
  5
1576
330
1C9
100
AcDbSymbolTableRecord
100
AcDbViewportTableRecord
  2
*ACTIVE
 70
     0
 10
0.0
 20
0.0
 11
1.0
 21
1.0
 12
1462.450131290736
 22
1032.067570283144
 13
0.0
 23
0.0
 14
1.0
 24
1.0
 15
0.0
 25
0.0
 16
0.0
 26
0.0
 36
1.0
 17
0.0
 27
0.0
 37
0.0
 40
2908.765461148027
 41
1.821090047393364
 42
50.0
 43
0.0
 44
0.0
 50
0.0
 51
0.0
 71
     0
 72
   100
 73
     1
 74
     1
 75
     0
 76
     0
 77
     0
 78
     0
  0
ENDTAB
  0
TABLE
  2
LTYPE
  5
1C6
330
0
100
AcDbSymbolTable
 70
     2
  0
LTYPE
  5
1D3
330
1C6
100
AcDbSymbolTableRecord
100
AcDbLinetypeTableRecord
  2
BYBLOCK
 70
     0
  3

 72
    65
 73
     0
 40
0.0
  0
LTYPE
  5
1D4
330
1C6
100
AcDbSymbolTableRecord
100
AcDbLinetypeTableRecord
  2
BYLAYER
 70
     0
  3

 72
    65
 73
     0
 40
0.0
  0
LTYPE
  5
1D5
330
1C6
100
AcDbSymbolTableRecord
100
AcDbLinetypeTableRecord
  2
CONTINUOUS
 70
     0
  3
実線
 72
    65
 73
     0
 40
0.0
  0
ENDTAB
  0
TABLE
  2
LAYER
  5
1C3
330
0
100
AcDbSymbolTable
 70
     5
  0
LAYER
  5
1D0
330
1C3
100
AcDbSymbolTableRecord
100
AcDbLayerTableRecord
  2
0
 70
     0
 62
     7
  6
CONTINUOUS
  0
ENDTAB
  0
TABLE
  2
STYLE
  5
1C4
330
0
100
AcDbSymbolTable
 70
     1
  0
STYLE
  5
1D1
330
1C4
100
AcDbSymbolTableRecord
100
AcDbTextStyleTableRecord
  2
STANDARD
 70
     0
 40
0.0
 41
1.0
 50
0.0
 71
     0
 42
15.0
  3
TXT
  4
BIGFONT
  0
ENDTAB
  0
TABLE
  2
VIEW
  5
1C7
330
0
100
AcDbSymbolTable
 70
     0
  0
ENDTAB
  0
TABLE
  2
UCS
  5
1C8
330
0
100
AcDbSymbolTable
 70
     0
  0
ENDTAB
  0
TABLE
  2
APPID
  5
1CA
330
0
100
AcDbSymbolTable
 70
     2
  0
APPID
  5
1D2
330
1CA
100
AcDbSymbolTableRecord
100
AcDbRegAppTableRecord
  2
ACAD
 70
     0
  0
APPID
  5
286
330
1CA
100
AcDbSymbolTableRecord
100
AcDbRegAppTableRecord
  2
ACE-LT__COPYRIGHT_TRIALSOFT-JPN
 70
     0
  0
ENDTAB
  0
TABLE
  2
DIMSTYLE
  5
1CB
330
0
100
AcDbSymbolTable
 70
     1
  0
DIMSTYLE
105
1F1
330
1CB
100
AcDbSymbolTableRecord
100
AcDbDimStyleTableRecord
  2
YAZ1
 70
     0
  3

  4

  5
YAZ1
  6
YAZ1
  7
YAZ1
 40
5.0
 41
2.0
 42
0.1
 43
7.0
 44
1.8
 45
0.0
 46
0.0
 47
0.0
 48
0.0
140
3.0
141
0.1
142
0.0
143
25.4
144
1.0
145
1.0
146
1.0
147
0.0
 71
     0
 72
     0
 73
     0
 74
     0
 75
     0
 76
     0
 77
     0
 78
     9
170
     0
171
     2
172
     1
173
     1
174
     0
175
     0
176
   256
177
   256
178
   256
270
     2
271
     3
272
     3
273
     2
274
     2
340
1D1
275
     0
280
     0
281
     0
282
     0
283
     1
284
     9
285
     9
286
     9
287
     5
288
     0
  0
ENDTAB
  0
TABLE
  2
BLOCK_RECORD
  5
1C2
330
0
100
AcDbSymbolTable
 70
     1
  0
BLOCK_RECORD
  5
1D9
102
{ACAD_XDICTIONARY
360
1579
102
}
330
1C2
100
AcDbSymbolTableRecord
100
AcDbBlockTableRecord
  2
*MODEL_SPACE
  0
BLOCK_RECORD
  5
1D6
102
{ACAD_XDICTIONARY
360
1577
102
}
330
1C2
100
AcDbSymbolTableRecord
100
AcDbBlockTableRecord
  2
*PAPER_SPACE
  0
BLOCK_RECORD
  5
254
330
1C2
100
AcDbSymbolTableRecord
100
AcDbBlockTableRecord
  2
YAZ1
  0
ENDTAB
  0
ENDSEC
  0
SECTION
  2
BLOCKS
  0
BLOCK
  5
20A
330
1D9
100
AcDbEntity
  8
0
100
AcDbBlockBegin
  2
*MODEL_SPACE
 70
     0
 10
0.0
 20
0.0
 30
0.0
  3
*MODEL_SPACE
  1

  0
ENDBLK
  5
20B
330
1D9
100
AcDbEntity
  8
0
100
AcDbBlockEnd
  0
BLOCK
  5
208
330
1D6
100
AcDbEntity
 67
     1
  8
0
100
AcDbBlockBegin
  2
*PAPER_SPACE
 70
     0
 10
0.0
 20
0.0
 30
0.0
  3
*PAPER_SPACE
  1

  0
ENDBLK
  5
209
330
1D6
100
AcDbEntity
 67
     1
  8
0
100
AcDbBlockEnd
  0
BLOCK
  5
258
330
254
100
AcDbEntity
  8
0
100
AcDbBlockBegin
  2
YAZ1
 70
     0
 10
0.0
 20
0.0
 30
0.0
  3
YAZ1
  1

  0
LINE
  5
255
330
254
100
AcDbEntity
  8
0
100
AcDbLine
 10
0.0
 20
0.0
 30
0.0
 11
-1.0
 21
-0.2679491924311037
 31
0.0
  0
LINE
  5
256
330
254
100
AcDbEntity
  8
0
100
AcDbLine
 10
0.0
 20
0.0
 30
0.0
 11
-1.0
 21
0.2679491924311037
 31
0.0
  0
LINE
  5
257
330
254
100
AcDbEntity
  8
0
100
AcDbLine
 10
-1.0
 20
0.0
 30
0.0
 11
0.0
 21
0.0
 31
0.0
  0
ENDBLK
  5
259
330
254
100
AcDbEntity
  8
0
100
AcDbBlockEnd
  0
ENDSEC
  0
SECTION
  2
ENTITIES
  0
LINE
  5
BBA
330
1D9
100
AcDbEntity
  8
0
100
AcDbLine
 10
160.0000000000004
 20
173.5
 30
0.0
 11
160.0000000000004
 21
201.5
 31
0.0
  0
LINE
  5
BBB
330
1D9
100
AcDbEntity
  8
0
100
AcDbLine
 10
510.0000000000004
 20
173.5
 30
0.0
 11
510.0000000000004
 21
201.5
 31
0.0
  0
LINE
  5
BBC
330
1D9
100
AcDbEntity
  8
0
100
AcDbLine
 10
335.0000000000004
 20
468.5
 30
0.0
 11
335.0000000000004
 21
116.5
 31
0.0
  0
LINE
  5
BBD
330
1D9
100
AcDbEntity
  8
0
100
AcDbLine
 10
745.0000000000003
 20
173.5
 30
0.0
 11
745.0000000000003
 21
205.5
 31
0.0
  0
LINE
  5
BBE
330
1D9
100
AcDbEntity
  8
0
100
AcDbLine
 10
1175.0
 20
173.5
 30
0.0
 11
1175.0
 21
205.5
 31
0.0
  0
LINE
  5
BBF
330
1D9
100
AcDbEntity
  8
0
100
AcDbLine
 10
960.0000000000003
 20
111.5000000000002
 30
0.0
 11
960.0000000000003
 21
473.5
 31
0.0
  0
LINE
  5
BC0
330
1D9
100
AcDbEntity
  8
0
100
AcDbLine
 10
1402.5
 20
173.5
 30
0.0
 11
1402.5
 21
207.5
 31
0.0
  0
LINE
  5
BC1
330
1D9
100
AcDbEntity
  8
0
100
AcDbLine
 10
1882.5
 20
173.5
 30
0.0
 11
1882.5
 21
207.5
 31
0.0
  0
LINE
  5
BC2
330
1D9
100
AcDbEntity
  8
0
100
AcDbLine
 10
1642.5
 20
473.5000000000003
 30
0.0
 11
1642.5
 21
111.4999999999995
 31
0.0
  0
LINE
  5
BC3
330
1D9
100
AcDbEntity
  8
0
100
AcDbLine
 10
1290.0
 20
0.0
 30
0.0
 11
1290.0
 21
1420.0
 31
0.0
  0
LINE
  5
BC4
330
1D9
100
AcDbEntity
  8
0
100
AcDbLine
 10
630.0000000000003
 20
0.0
 30
0.0
 11
630.0000000000003
 21
1420.0
 31
0.0
  0
LINE
  5
BC5
330
1D9
100
AcDbEntity
  8
0
100
AcDbLine
 10
1995.0
 20
1420.0
 30
0.0
 11
1995.0
 21
0.0
 31
0.0
  0
LINE
  5
BC6
330
1D9
100
AcDbEntity
  8
0
100
AcDbLine
 10
40.0
 20
0.0
 30
0.0
 11
40.0
 21
1420.0
 31
0.0
  0
LINE
  5
BC7
330
1D9
100
AcDbEntity
  8
0
100
AcDbLine
 10
509.0000000000004
 20
167.5
 30
0.0
 11
161.0000000000004
 21
167.5
 31
0.0
  0
LINE
  5
BC8
330
1D9
100
AcDbEntity
  8
0
100
AcDbLine
 10
509.0000000000004
 20
133.4999999999995
 30
0.0
 11
161.0000000000004
 21
133.4999999999999
 31
0.0
  0
LINE
  5
BC9
330
1D9
100
AcDbEntity
  8
0
100
AcDbLine
 10
161.0000000000004
 20
172.5
 30
0.0
 11
509.0000000000004
 21
172.5
 31
0.0
  0
LINE
  5
BCA
330
1D9
100
AcDbEntity
  8
0
100
AcDbLine
 10
1995.0
 20
30.0
 30
0.0
 11
40.0
 21
30.0
 31
0.0
  0
LINE
  5
BCB
330
1D9
100
AcDbEntity
  8
0
100
AcDbLine
 10
1995.0
 20
0.0
 30
0.0
 11
40.0
 21
0.0
 31
0.0
  0
TEXT
  5
BCC
330
1D9
100
AcDbEntity
  8
0
100
AcDbText
 10
175.0
 20
7.2
 30
0.0
 40
15.0
  1
パイプサイレンサー：ＫＶＨ－１２５Ｎ
 72
     4
 11
335.0
 21
15.0
 31
0.0
100
AcDbText
  0
LINE
  5
BCD
330
1D9
100
AcDbEntity
  8
0
100
AcDbLine
 10
160.0000000000004
 20
173.5
 30
0.0
 11
161.0000000000004
 21
172.5
 31
0.0
  0
LINE
  5
BCE
330
1D9
100
AcDbEntity
  8
0
100
AcDbLine
 10
171.5000000000004
 20
167.5000000000002
 30
0.0
 11
171.5000000000004
 21
172.49999
 31
0.0
  0
LINE
  5
BCF
330
1D9
100
AcDbEntity
  8
0
100
AcDbLine
 10
172.8500100000005
 20
172.49999
 30
0.0
 11
172.8500100000005
 21
167.5
 31
0.0
  0
LINE
  5
BD0
330
1D9
100
AcDbEntity
  8
0
100
AcDbLine
 10
160.0000000000004
 20
166.5
 30
0.0
 11
161.0000000000004
 21
167.5
 31
0.0
  0
LINE
  5
BD1
330
1D9
100
AcDbEntity
  8
0
100
AcDbLine
 10
160.0000000000004
 20
134.4999999999999
 30
0.0
 11
160.0000000000004
 21
166.5
 31
0.0
  0
LINE
  5
BD2
330
1D9
100
AcDbEntity
  8
0
100
AcDbLine
 10
161.0000000000004
 20
133.4999999999999
 30
0.0
 11
160.0000000000004
 21
134.4999999999999
 31
0.0
  0
LINE
  5
BD3
330
1D9
100
AcDbEntity
  8
0
100
AcDbLine
 10
436.5000000000003
 20
122.5
 30
0.0
 11
233.4999999999999
 21
122.5
 31
0.0
  0
LINE
  5
BD4
330
1D9
100
AcDbEntity
  8
0
100
AcDbLine
 10
469.0000000000012
 20
125.5
 30
0.0
 11
201.0000000000004
 21
125.5
 31
0.0
  0
LINE
  5
BD5
330
1D9
100
AcDbEntity
  8
0
100
AcDbLine
 10
212.5811159228728
 20
172.49999
 30
0.0
 11
212.5811159228728
 21
167.5
 31
0.0
  0
LINE
  5
BD6
330
1D9
100
AcDbEntity
  8
0
100
AcDbLine
 10
213.9311259228729
 20
167.5000000000002
 30
0.0
 11
213.9311259228729
 21
172.49999
 31
0.0
  0
LINE
  5
BD7
330
1D9
100
AcDbEntity
  8
0
100
AcDbLine
 10
193.2811359228731
 20
172.49999
 30
0.0
 11
193.2811359228731
 21
167.5
 31
0.0
  0
LINE
  5
BD8
330
1D9
100
AcDbEntity
  8
0
100
AcDbLine
 10
191.9311259228729
 20
167.5000000000002
 30
0.0
 11
191.9311259228729
 21
172.49999
 31
0.0
  0
LINE
  5
BD9
330
1D9
100
AcDbEntity
  8
0
100
AcDbLine
 10
247.75
 20
167.5000000000002
 30
0.0
 11
247.75
 21
172.49999
 31
0.0
  0
LINE
  5
BDA
330
1D9
100
AcDbEntity
  8
0
100
AcDbLine
 10
249.10001
 20
172.49999
 30
0.0
 11
249.10001
 21
167.5
 31
0.0
  0
LINE
  5
BDB
330
1D9
100
AcDbEntity
  8
0
100
AcDbLine
 10
233.4999999999999
 20
122.5
 30
0.0
 11
233.4999999999995
 21
125.5000000000004
 31
0.0
  0
LINE
  5
BDC
330
1D9
100
AcDbEntity
  8
0
100
AcDbLine
 10
201.0000000000004
 20
125.5
 30
0.0
 11
200.0000000000004
 21
126.5
 31
0.0
  0
LINE
  5
BDD
330
1D9
100
AcDbEntity
  8
0
100
AcDbLine
 10
255.4504871165135
 20
119.5
 30
0.0
 11
255.450487116514
 21
139.4999999999995
 31
0.0
  0
LINE
  5
BDE
330
1D9
100
AcDbEntity
  8
0
100
AcDbLine
 10
200.0000000000004
 20
126.5
 30
0.0
 11
200.0000000000004
 21
133.4999999999999
 31
0.0
  0
LINE
  5
BDF
330
1D9
100
AcDbEntity
  8
0
100
AcDbLine
 10
222.5000000000004
 20
119.5000000000004
 30
0.0
 11
222.5000000000004
 21
139.4999999999995
 31
0.0
  0
LINE
  5
BE0
330
1D9
100
AcDbEntity
  8
0
100
AcDbLine
 10
269.75
 20
167.5000000000002
 30
0.0
 11
269.75
 21
172.49999
 31
0.0
  0
LINE
  5
BE1
330
1D9
100
AcDbEntity
  8
0
100
AcDbLine
 10
268.3999899999998
 20
172.49999
 30
0.0
 11
268.3999899999998
 21
167.5
 31
0.0
  0
LINE
  5
BE2
330
1D9
100
AcDbEntity
  8
0
100
AcDbLine
 10
344.6499899999998
 20
172.49999
 30
0.0
 11
344.6499899999998
 21
167.5
 31
0.0
  0
LINE
  5
BE3
330
1D9
100
AcDbEntity
  8
0
100
AcDbLine
 10
325.3500100000001
 20
172.49999
 30
0.0
 11
325.3500100000001
 21
167.5
 31
0.0
  0
LINE
  5
BE4
330
1D9
100
AcDbEntity
  8
0
100
AcDbLine
 10
324.0
 20
167.5000000000002
 30
0.0
 11
324.0
 21
172.49999
 31
0.0
  0
LINE
  5
BE5
330
1D9
100
AcDbEntity
  8
0
100
AcDbLine
 10
401.600010000001
 20
172.49999
 30
0.0
 11
401.600010000001
 21
167.5
 31
0.0
  0
LINE
  5
BE6
330
1D9
100
AcDbEntity
  8
0
100
AcDbLine
 10
400.2500000000008
 20
167.5000000000002
 30
0.0
 11
400.2500000000008
 21
172.49999
 31
0.0
  0
LINE
  5
BE7
330
1D9
100
AcDbEntity
  8
0
100
AcDbLine
 10
420.8999900000008
 20
172.49999
 30
0.0
 11
420.8999900000008
 21
167.5
 31
0.0
  0
LINE
  5
BE8
330
1D9
100
AcDbEntity
  8
0
100
AcDbLine
 10
422.2500000000009
 20
167.5000000000002
 30
0.0
 11
422.2500000000009
 21
172.49999
 31
0.0
  0
LINE
  5
BE9
330
1D9
100
AcDbEntity
  8
0
100
AcDbLine
 10
346.0
 20
167.5000000000002
 30
0.0
 11
346.0
 21
172.49999
 31
0.0
  0
LINE
  5
BEA
330
1D9
100
AcDbEntity
  8
0
100
AcDbLine
 10
414.5495128834872
 20
119.5
 30
0.0
 11
414.5495128834867
 21
139.4999999999995
 31
0.0
  0
LINE
  5
BEB
330
1D9
100
AcDbEntity
  8
0
100
AcDbLine
 10
478.0688740771278
 20
167.5000000000002
 30
0.0
 11
478.0688740771278
 21
172.49999
 31
0.0
  0
LINE
  5
BEC
330
1D9
100
AcDbEntity
  8
0
100
AcDbLine
 10
476.7188640771278
 20
172.49999
 30
0.0
 11
476.7188640771278
 21
167.5
 31
0.0
  0
LINE
  5
BED
330
1D9
100
AcDbEntity
  8
0
100
AcDbLine
 10
456.0688740771277
 20
167.5000000000002
 30
0.0
 11
456.0688740771277
 21
172.49999
 31
0.0
  0
LINE
  5
BEE
330
1D9
100
AcDbEntity
  8
0
100
AcDbLine
 10
457.4188840771279
 20
172.49999
 30
0.0
 11
457.4188840771279
 21
167.5
 31
0.0
  0
LINE
  5
BEF
330
1D9
100
AcDbEntity
  8
0
100
AcDbLine
 10
497.1499900000003
 20
172.49999
 30
0.0
 11
497.1499900000003
 21
167.5
 31
0.0
  0
LINE
  5
BF0
330
1D9
100
AcDbEntity
  8
0
100
AcDbLine
 10
498.5000000000003
 20
167.5000000000002
 30
0.0
 11
498.5000000000003
 21
172.49999
 31
0.0
  0
LINE
  5
BF1
330
1D9
100
AcDbEntity
  8
0
100
AcDbLine
 10
436.5000000000003
 20
122.5
 30
0.0
 11
436.5000000000003
 21
125.5000000000004
 31
0.0
  0
LINE
  5
BF2
330
1D9
100
AcDbEntity
  8
0
100
AcDbLine
 10
469.0000000000003
 20
125.5
 30
0.0
 11
470.0000000000003
 21
126.5
 31
0.0
  0
LINE
  5
BF3
330
1D9
100
AcDbEntity
  8
0
100
AcDbLine
 10
447.5000000000004
 20
119.5000000000004
 30
0.0
 11
447.5000000000004
 21
139.4999999999995
 31
0.0
  0
LINE
  5
BF4
330
1D9
100
AcDbEntity
  8
0
100
AcDbLine
 10
470.0000000000003
 20
126.5
 30
0.0
 11
470.0000000000003
 21
133.4999999999999
 31
0.0
  0
LINE
  5
BF5
330
1D9
100
AcDbEntity
  8
0
100
AcDbLine
 10
1783.999999999999
 20
117.4999999999995
 30
0.0
 11
1500.999999999999
 21
117.4999999999995
 31
0.0
  0
LINE
  5
BF6
330
1D9
100
AcDbEntity
  8
0
100
AcDbLine
 10
1816.499999999999
 20
120.4999999999994
 30
0.0
 11
1468.5
 21
120.4999999999994
 31
0.0
  0
LINE
  5
BF7
330
1D9
100
AcDbEntity
  8
0
100
AcDbLine
 10
1403.5
 20
167.499999999999
 30
0.0
 11
1881.499999999999
 21
167.5000000000009
 31
0.0
  0
LINE
  5
BF8
330
1D9
100
AcDbEntity
  8
0
100
AcDbLine
 10
1881.500000000002
 20
127.5000000000027
 30
0.0
 11
1403.5
 21
127.4999999999991
 31
0.0
  0
LINE
  5
BF9
330
1D9
100
AcDbEntity
  8
0
100
AcDbLine
 10
1403.5
 20
172.5
 30
0.0
 11
1881.5
 21
172.5
 31
0.0
  0
TEXT
  5
BFA
330
1D9
100
AcDbEntity
  8
0
100
AcDbText
 10
1482.5
 20
7.2
 30
0.0
 40
15.0
  1
パイプサイレンサー：ＫＶＨ－２００Ｎ
 72
     4
 11
1642.5
 21
15.0
 31
0.0
100
AcDbText
  0
LINE
  5
BFB
330
1D9
100
AcDbEntity
  8
0
100
AcDbLine
 10
746.0000000000003
 20
167.5
 30
0.0
 11
1174.0
 21
167.5
 31
0.0
  0
LINE
  5
BFC
330
1D9
100
AcDbEntity
  8
0
100
AcDbLine
 10
1173.999999999999
 20
129.4999999999999
 30
0.0
 11
746.0000000000003
 21
129.4999999999999
 31
0.0
  0
LINE
  5
BFD
330
1D9
100
AcDbEntity
  8
0
100
AcDbLine
 10
1174.0
 20
172.5
 30
0.0
 11
746.0000000000003
 21
172.5
 31
0.0
  0
LINE
  5
BFE
330
1D9
100
AcDbEntity
  8
0
100
AcDbLine
 10
1111.5
 20
120.5
 30
0.0
 11
808.5
 21
120.5
 31
0.0
  0
TEXT
  5
BFF
330
1D9
100
AcDbEntity
  8
0
100
AcDbText
 10
800.0000000000003
 20
7.2
 30
0.0
 40
15.0
  1
パイプサイレンサー：ＫＶＨ－１５０Ｎ
 72
     4
 11
960.0000000000003
 21
15.0
 31
0.0
100
AcDbText
  0
LINE
  5
C00
330
1D9
100
AcDbEntity
  8
0
100
AcDbLine
 10
510.0000000000004
 20
173.5
 30
0.0
 11
509.0000000000004
 21
172.5
 31
0.0
  0
LINE
  5
C01
330
1D9
100
AcDbEntity
  8
0
100
AcDbLine
 10
510.0000000000004
 20
166.5
 30
0.0
 11
509.0000000000004
 21
167.5
 31
0.0
  0
LINE
  5
C02
330
1D9
100
AcDbEntity
  8
0
100
AcDbLine
 10
510.0000000000004
 20
134.4999999999999
 30
0.0
 11
510.0000000000004
 21
166.5
 31
0.0
  0
LINE
  5
C03
330
1D9
100
AcDbEntity
  8
0
100
AcDbLine
 10
509.0000000000004
 20
133.4999999999999
 30
0.0
 11
510.0000000000004
 21
134.4999999999999
 31
0.0
  0
LINE
  5
C04
330
1D9
100
AcDbEntity
  8
0
100
AcDbLine
 10
746.0000000000003
 20
172.5
 30
0.0
 11
745.0000000000003
 21
173.5
 31
0.0
  0
LINE
  5
C05
330
1D9
100
AcDbEntity
  8
0
100
AcDbLine
 10
785.1051832809575
 20
172.49999
 30
0.0
 11
785.1051832809571
 21
167.5
 31
0.0
  0
LINE
  5
C06
330
1D9
100
AcDbEntity
  8
0
100
AcDbLine
 10
783.4551732809572
 20
167.5
 30
0.0
 11
783.4551732809577
 21
172.49999
 31
0.0
  0
LINE
  5
C07
330
1D9
100
AcDbEntity
  8
0
100
AcDbLine
 10
807.4551732809577
 20
167.5
 30
0.0
 11
807.4551732809577
 21
172.49999
 31
0.0
  0
LINE
  5
C08
330
1D9
100
AcDbEntity
  8
0
100
AcDbLine
 10
805.8051632809579
 20
172.49999
 30
0.0
 11
805.8051632809579
 21
167.5
 31
0.0
  0
LINE
  5
C09
330
1D9
100
AcDbEntity
  8
0
100
AcDbLine
 10
758.0
 20
167.5
 30
0.0
 11
758.0000000000003
 21
172.49999
 31
0.0
  0
LINE
  5
C0A
330
1D9
100
AcDbEntity
  8
0
100
AcDbLine
 10
759.6500100000002
 20
172.49999
 30
0.0
 11
759.6500099999997
 21
167.5
 31
0.0
  0
LINE
  5
C0B
330
1D9
100
AcDbEntity
  8
0
100
AcDbLine
 10
780.3499900000006
 20
172.49999
 30
0.0
 11
780.3499900000006
 21
167.5
 31
0.0
  0
LINE
  5
C0C
330
1D9
100
AcDbEntity
  8
0
100
AcDbLine
 10
782.0000000000003
 20
167.5
 30
0.0
 11
782.0000000000003
 21
172.49999
 31
0.0
  0
LINE
  5
C0D
330
1D9
100
AcDbEntity
  8
0
100
AcDbLine
 10
746.0000000000003
 20
129.4999999999999
 30
0.0
 11
745.0000000000003
 21
130.4999999999999
 31
0.0
  0
LINE
  5
C0E
330
1D9
100
AcDbEntity
  8
0
100
AcDbLine
 10
745.0000000000003
 20
166.5
 30
0.0
 11
746.0000000000003
 21
167.5
 31
0.0
  0
LINE
  5
C0F
330
1D9
100
AcDbEntity
  8
0
100
AcDbLine
 10
745.0000000000003
 20
130.4999999999999
 30
0.0
 11
745.0000000000003
 21
166.5
 31
0.0
  0
LINE
  5
C10
330
1D9
100
AcDbEntity
  8
0
100
AcDbLine
 10
808.5
 20
120.5
 30
0.0
 11
807.4999999999999
 21
121.5
 31
0.0
  0
LINE
  5
C11
330
1D9
100
AcDbEntity
  8
0
100
AcDbLine
 10
807.4999999999999
 20
121.5
 30
0.0
 11
807.4999999999999
 21
129.4999999999999
 31
0.0
  0
LINE
  5
C12
330
1D9
100
AcDbEntity
  8
0
100
AcDbLine
 10
1079.0
 20
117.5000000000004
 30
0.0
 11
841.0000000000005
 21
117.4999999999995
 31
0.0
  0
LINE
  5
C13
330
1D9
100
AcDbEntity
  8
0
100
AcDbLine
 10
875.3499900000006
 20
172.49999
 30
0.0
 11
875.3499900000006
 21
167.5
 31
0.0
  0
LINE
  5
C14
330
1D9
100
AcDbEntity
  8
0
100
AcDbLine
 10
877.0000000000003
 20
167.5
 30
0.0
 11
877.0000000000003
 21
172.49999
 31
0.0
  0
LINE
  5
C15
330
1D9
100
AcDbEntity
  8
0
100
AcDbLine
 10
853.0
 20
167.5
 30
0.0
 11
853.0000000000002
 21
172.49999
 31
0.0
  0
LINE
  5
C16
330
1D9
100
AcDbEntity
  8
0
100
AcDbLine
 10
854.6500100000002
 20
172.49999
 30
0.0
 11
854.6500099999999
 21
167.5
 31
0.0
  0
LINE
  5
C17
330
1D9
100
AcDbEntity
  8
0
100
AcDbLine
 10
841.0000000000005
 20
120.4999999999994
 30
0.0
 11
841.0000000000005
 21
117.4999999999995
 31
0.0
  0
LINE
  5
C18
330
1D9
100
AcDbEntity
  8
0
100
AcDbLine
 10
830.0000000000004
 20
114.5
 30
0.0
 11
830.0
 21
135.5000000000003
 31
0.0
  0
LINE
  5
C19
330
1D9
100
AcDbEntity
  8
0
100
AcDbLine
 10
847.4166975080233
 20
114.5
 30
0.0
 11
847.4166975080239
 21
135.5000000000003
 31
0.0
  0
LINE
  5
C1A
330
1D9
100
AcDbEntity
  8
0
100
AcDbLine
 10
949.6500100000007
 20
172.49999
 30
0.0
 11
949.6500100000003
 21
167.5
 31
0.0
  0
LINE
  5
C1B
330
1D9
100
AcDbEntity
  8
0
100
AcDbLine
 10
948.0000000000003
 20
167.5
 30
0.0
 11
948.0000000000007
 21
172.49999
 31
0.0
  0
LINE
  5
C1C
330
1D9
100
AcDbEntity
  8
0
100
AcDbLine
 10
894.9999999999995
 20
114.5
 30
0.0
 11
895.0
 21
135.4999999999999
 31
0.0
  0
LINE
  5
C1D
330
1D9
100
AcDbEntity
  8
0
100
AcDbLine
 10
1043.0
 20
167.5
 30
0.0
 11
1043.0
 21
172.49999
 31
0.0
  0
LINE
  5
C1E
330
1D9
100
AcDbEntity
  8
0
100
AcDbLine
 10
1044.65001
 20
172.49999
 30
0.0
 11
1044.65001
 21
167.5
 31
0.0
  0
LINE
  5
C1F
330
1D9
100
AcDbEntity
  8
0
100
AcDbLine
 10
972.0000000000007
 20
167.5
 30
0.0
 11
972.0000000000007
 21
172.49999
 31
0.0
  0
LINE
  5
C20
330
1D9
100
AcDbEntity
  8
0
100
AcDbLine
 10
970.3499900000011
 20
172.49999
 30
0.0
 11
970.3499900000011
 21
167.5
 31
0.0
  0
LINE
  5
C21
330
1D9
100
AcDbEntity
  8
0
100
AcDbLine
 10
1025.000000000001
 20
114.5
 30
0.0
 11
1025.000000000001
 21
135.4999999999999
 31
0.0
  0
LINE
  5
C22
330
1D9
100
AcDbEntity
  8
0
100
AcDbLine
 10
1065.34999
 20
172.49999
 30
0.0
 11
1065.349990000001
 21
167.5
 31
0.0
  0
LINE
  5
C23
330
1D9
100
AcDbEntity
  8
0
100
AcDbLine
 10
1067.0
 20
167.5
 30
0.0
 11
1067.0
 21
172.49999
 31
0.0
  0
LINE
  5
C24
330
1D9
100
AcDbEntity
  8
0
100
AcDbLine
 10
1114.194836719043
 20
172.49999
 30
0.0
 11
1114.194836719043
 21
167.5
 31
0.0
  0
LINE
  5
C25
330
1D9
100
AcDbEntity
  8
0
100
AcDbLine
 10
1112.544826719042
 20
167.5
 30
0.0
 11
1112.544826719042
 21
172.49999
 31
0.0
  0
LINE
  5
C26
330
1D9
100
AcDbEntity
  8
0
100
AcDbLine
 10
1079.0
 20
120.5
 30
0.0
 11
1079.0
 21
117.5000000000004
 31
0.0
  0
LINE
  5
C27
330
1D9
100
AcDbEntity
  8
0
100
AcDbLine
 10
1111.5
 20
120.5
 30
0.0
 11
1112.5
 21
121.5
 31
0.0
  0
LINE
  5
C28
330
1D9
100
AcDbEntity
  8
0
100
AcDbLine
 10
1072.583302491976
 20
114.5
 30
0.0
 11
1072.583302491976
 21
135.5000000000003
 31
0.0
  0
LINE
  5
C29
330
1D9
100
AcDbEntity
  8
0
100
AcDbLine
 10
1090.0
 20
114.5
 30
0.0
 11
1090.0
 21
135.5000000000003
 31
0.0
  0
LINE
  5
C2A
330
1D9
100
AcDbEntity
  8
0
100
AcDbLine
 10
1112.5
 20
121.5
 30
0.0
 11
1112.5
 21
129.4999999999999
 31
0.0
  0
LINE
  5
C2B
330
1D9
100
AcDbEntity
  8
0
100
AcDbLine
 10
1174.0
 20
172.5
 30
0.0
 11
1175.0
 21
173.5
 31
0.0
  0
LINE
  5
C2C
330
1D9
100
AcDbEntity
  8
0
100
AcDbLine
 10
1138.0
 20
167.5
 30
0.0
 11
1138.0
 21
172.49999
 31
0.0
  0
LINE
  5
C2D
330
1D9
100
AcDbEntity
  8
0
100
AcDbLine
 10
1139.65001
 20
172.49999
 30
0.0
 11
1139.65001
 21
167.5
 31
0.0
  0
LINE
  5
C2E
330
1D9
100
AcDbEntity
  8
0
100
AcDbLine
 10
1160.34999
 20
172.49999
 30
0.0
 11
1160.349990000001
 21
167.5
 31
0.0
  0
LINE
  5
C2F
330
1D9
100
AcDbEntity
  8
0
100
AcDbLine
 10
1162.000000000001
 20
167.5
 30
0.0
 11
1162.0
 21
172.49999
 31
0.0
  0
LINE
  5
C30
330
1D9
100
AcDbEntity
  8
0
100
AcDbLine
 10
1136.544826719042
 20
167.5
 30
0.0
 11
1136.544826719042
 21
172.49999
 31
0.0
  0
LINE
  5
C31
330
1D9
100
AcDbEntity
  8
0
100
AcDbLine
 10
1134.894816719042
 20
172.49999
 30
0.0
 11
1134.894816719042
 21
167.5
 31
0.0
  0
LINE
  5
C32
330
1D9
100
AcDbEntity
  8
0
100
AcDbLine
 10
1174.0
 20
129.4999999999999
 30
0.0
 11
1175.0
 21
130.4999999999999
 31
0.0
  0
LINE
  5
C33
330
1D9
100
AcDbEntity
  8
0
100
AcDbLine
 10
1175.0
 20
166.5
 30
0.0
 11
1174.0
 21
167.5
 31
0.0
  0
LINE
  5
C34
330
1D9
100
AcDbEntity
  8
0
100
AcDbLine
 10
1175.0
 20
130.4999999999999
 30
0.0
 11
1175.0
 21
166.5
 31
0.0
  0
LINE
  5
C35
330
1D9
100
AcDbEntity
  8
0
100
AcDbLine
 10
1402.5
 20
173.5
 30
0.0
 11
1403.5
 21
172.5
 31
0.0
  0
LINE
  5
C36
330
1D9
100
AcDbEntity
  8
0
100
AcDbLine
 10
1433.515910510072
 20
172.49999
 30
0.0
 11
1433.515910510072
 21
167.4999999999993
 31
0.0
  0
LINE
  5
C37
330
1D9
100
AcDbEntity
  8
0
100
AcDbLine
 10
1431.865900510072
 20
167.4999999999995
 30
0.0
 11
1431.865900510072
 21
172.49999
 31
0.0
  0
LINE
  5
C38
330
1D9
100
AcDbEntity
  8
0
100
AcDbLine
 10
1415.5
 20
167.4999999999995
 30
0.0
 11
1415.5
 21
172.49999
 31
0.0
  0
LINE
  5
C39
330
1D9
100
AcDbEntity
  8
0
100
AcDbLine
 10
1417.15001
 20
172.49999
 30
0.0
 11
1417.15001
 21
167.4999999999993
 31
0.0
  0
LINE
  5
C3A
330
1D9
100
AcDbEntity
  8
0
100
AcDbLine
 10
1403.5
 20
127.4999999999991
 30
0.0
 11
1402.5
 21
128.4999999999991
 31
0.0
  0
LINE
  5
C3B
330
1D9
100
AcDbEntity
  8
0
100
AcDbLine
 10
1402.5
 20
166.499999999999
 30
0.0
 11
1403.5
 21
167.499999999999
 31
0.0
  0
LINE
  5
C3C
330
1D9
100
AcDbEntity
  8
0
100
AcDbLine
 10
1402.5
 20
128.4999999999991
 30
0.0
 11
1402.5
 21
166.499999999999
 31
0.0
  0
LINE
  5
C3D
330
1D9
100
AcDbEntity
  8
0
100
AcDbLine
 10
1455.865900510072
 20
167.4999999999995
 30
0.0
 11
1455.865900510072
 21
172.49999
 31
0.0
  0
LINE
  5
C3E
330
1D9
100
AcDbEntity
  8
0
100
AcDbLine
 10
1454.215890510073
 20
172.49999
 30
0.0
 11
1454.215890510073
 21
167.4999999999993
 31
0.0
  0
LINE
  5
C3F
330
1D9
100
AcDbEntity
  8
0
100
AcDbLine
 10
1502.472042044892
 20
167.4999999999995
 30
0.0
 11
1502.472042044892
 21
172.49999
 31
0.0
  0
LINE
  5
C40
330
1D9
100
AcDbEntity
  8
0
100
AcDbLine
 10
1500.822032044892
 20
172.49999
 30
0.0
 11
1500.822032044892
 21
167.4999999999993
 31
0.0
  0
LINE
  5
C41
330
1D9
100
AcDbEntity
  8
0
100
AcDbLine
 10
1480.122052044892
 20
172.49999
 30
0.0
 11
1480.122052044892
 21
167.4999999999993
 31
0.0
  0
LINE
  5
C42
330
1D9
100
AcDbEntity
  8
0
100
AcDbLine
 10
1478.472042044892
 20
167.4999999999995
 30
0.0
 11
1478.472042044892
 21
172.49999
 31
0.0
  0
LINE
  5
C43
330
1D9
100
AcDbEntity
  8
0
100
AcDbLine
 10
1437.84999
 20
172.49999
 30
0.0
 11
1437.84999
 21
167.4999999999993
 31
0.0
  0
LINE
  5
C44
330
1D9
100
AcDbEntity
  8
0
100
AcDbLine
 10
1439.499999999999
 20
167.4999999999995
 30
0.0
 11
1439.499999999999
 21
172.49999
 31
0.0
  0
LINE
  5
C45
330
1D9
100
AcDbEntity
  8
0
100
AcDbLine
 10
1500.999999999999
 20
117.4999999999995
 30
0.0
 11
1500.999999999999
 21
120.4999999999994
 31
0.0
  0
LINE
  5
C46
330
1D9
100
AcDbEntity
  8
0
100
AcDbLine
 10
1468.5
 20
120.4999999999994
 30
0.0
 11
1467.5
 21
121.4999999999994
 31
0.0
  0
LINE
  5
C47
330
1D9
100
AcDbEntity
  8
0
100
AcDbLine
 10
1490.000000000001
 20
114.4999999999995
 30
0.0
 11
1490.000000000001
 21
133.4999999999995
 31
0.0
  0
LINE
  5
C48
330
1D9
100
AcDbEntity
  8
0
100
AcDbLine
 10
1510.431125922874
 20
114.499999999999
 30
0.0
 11
1510.431125922874
 21
133.4999999999999
 31
0.0
  0
LINE
  5
C49
330
1D9
100
AcDbEntity
  8
0
100
AcDbLine
 10
1467.5
 20
121.4999999999994
 30
0.0
 11
1467.5
 21
127.4999999999995
 31
0.0
  0
LINE
  5
C4A
330
1D9
100
AcDbEntity
  8
0
100
AcDbLine
 10
1548.223062041505
 20
167.4999999999995
 30
0.0
 11
1548.223062041505
 21
172.49999
 31
0.0
  0
LINE
  5
C4B
330
1D9
100
AcDbEntity
  8
0
100
AcDbLine
 10
1549.873072041505
 20
172.49999
 30
0.0
 11
1549.873072041505
 21
167.4999999999993
 31
0.0
  0
LINE
  5
C4C
330
1D9
100
AcDbEntity
  8
0
100
AcDbLine
 10
1570.573052041505
 20
172.49999
 30
0.0
 11
1570.573052041505
 21
167.4999999999993
 31
0.0
  0
LINE
  5
C4D
330
1D9
100
AcDbEntity
  8
0
100
AcDbLine
 10
1572.223062041505
 20
167.4999999999995
 30
0.0
 11
1572.223062041505
 21
172.49999
 31
0.0
  0
LINE
  5
C4E
330
1D9
100
AcDbEntity
  8
0
100
AcDbLine
 10
1566.250000000001
 20
114.4999999999995
 30
0.0
 11
1566.250000000001
 21
133.5000000000003
 31
0.0
  0
LINE
  5
C4F
330
1D9
100
AcDbEntity
  8
0
100
AcDbLine
 10
1654.5
 20
167.4999999999995
 30
0.0
 11
1654.5
 21
172.49999
 31
0.0
  0
LINE
  5
C50
330
1D9
100
AcDbEntity
  8
0
100
AcDbLine
 10
1652.84999
 20
172.49999
 30
0.0
 11
1652.84999
 21
167.4999999999993
 31
0.0
  0
LINE
  5
C51
330
1D9
100
AcDbEntity
  8
0
100
AcDbLine
 10
1632.150010000001
 20
172.49999
 30
0.0
 11
1632.150010000001
 21
167.4999999999993
 31
0.0
  0
LINE
  5
C52
330
1D9
100
AcDbEntity
  8
0
100
AcDbLine
 10
1630.500000000001
 20
167.4999999999995
 30
0.0
 11
1630.500000000001
 21
172.49999
 31
0.0
  0
LINE
  5
C53
330
1D9
100
AcDbEntity
  8
0
100
AcDbLine
 10
1654.499999999999
 20
167.4999999999995
 30
0.0
 11
1654.499999999999
 21
172.49999
 31
0.0
  0
LINE
  5
C54
330
1D9
100
AcDbEntity
  8
0
100
AcDbLine
 10
1652.849989999999
 20
172.49999
 30
0.0
 11
1652.849989999999
 21
167.4999999999993
 31
0.0
  0
LINE
  5
C55
330
1D9
100
AcDbEntity
  8
0
100
AcDbLine
 10
1632.150009999999
 20
172.49999
 30
0.0
 11
1632.150009999999
 21
167.4999999999993
 31
0.0
  0
LINE
  5
C56
330
1D9
100
AcDbEntity
  8
0
100
AcDbLine
 10
1630.499999999999
 20
167.4999999999995
 30
0.0
 11
1630.499999999999
 21
172.49999
 31
0.0
  0
LINE
  5
C57
330
1D9
100
AcDbEntity
  8
0
100
AcDbLine
 10
1712.776937958494
 20
167.4999999999995
 30
0.0
 11
1712.776937958494
 21
172.49999
 31
0.0
  0
LINE
  5
C58
330
1D9
100
AcDbEntity
  8
0
100
AcDbLine
 10
1714.426947958493
 20
172.49999
 30
0.0
 11
1714.426947958493
 21
167.4999999999993
 31
0.0
  0
LINE
  5
C59
330
1D9
100
AcDbEntity
  8
0
100
AcDbLine
 10
1735.126927958495
 20
172.49999
 30
0.0
 11
1735.126927958495
 21
167.4999999999993
 31
0.0
  0
LINE
  5
C5A
330
1D9
100
AcDbEntity
  8
0
100
AcDbLine
 10
1736.776937958494
 20
167.4999999999995
 30
0.0
 11
1736.776937958494
 21
172.49999
 31
0.0
  0
LINE
  5
C5B
330
1D9
100
AcDbEntity
  8
0
100
AcDbLine
 10
1718.749999999999
 20
114.4999999999995
 30
0.0
 11
1718.749999999999
 21
133.5000000000003
 31
0.0
  0
LINE
  5
C5C
330
1D9
100
AcDbEntity
  8
0
100
AcDbLine
 10
1806.527957955108
 20
167.4999999999995
 30
0.0
 11
1806.527957955108
 21
172.49999
 31
0.0
  0
LINE
  5
C5D
330
1D9
100
AcDbEntity
  8
0
100
AcDbLine
 10
1804.877947955108
 20
172.49999
 30
0.0
 11
1804.877947955108
 21
167.4999999999993
 31
0.0
  0
LINE
  5
C5E
330
1D9
100
AcDbEntity
  8
0
100
AcDbLine
 10
1784.177967955107
 20
172.49999
 30
0.0
 11
1784.177967955107
 21
167.4999999999993
 31
0.0
  0
LINE
  5
C5F
330
1D9
100
AcDbEntity
  8
0
100
AcDbLine
 10
1782.527957955108
 20
167.4999999999995
 30
0.0
 11
1782.527957955108
 21
172.49999
 31
0.0
  0
LINE
  5
C60
330
1D9
100
AcDbEntity
  8
0
100
AcDbLine
 10
1783.999999999999
 20
117.4999999999995
 30
0.0
 11
1783.999999999999
 21
120.4999999999994
 31
0.0
  0
LINE
  5
C61
330
1D9
100
AcDbEntity
  8
0
100
AcDbLine
 10
1816.499999999999
 20
120.5
 30
0.0
 11
1817.5
 21
121.5
 31
0.0
  0
LINE
  5
C62
330
1D9
100
AcDbEntity
  8
0
100
AcDbLine
 10
1774.568874077125
 20
114.499999999999
 30
0.0
 11
1774.568874077125
 21
133.4999999999999
 31
0.0
  0
LINE
  5
C63
330
1D9
100
AcDbEntity
  8
0
100
AcDbLine
 10
1794.999999999999
 20
114.4999999999995
 30
0.0
 11
1794.999999999998
 21
133.4999999999995
 31
0.0
  0
LINE
  5
C64
330
1D9
100
AcDbEntity
  8
0
100
AcDbLine
 10
1817.5
 20
121.5
 30
0.0
 11
1817.5
 21
127.5
 31
0.0
  0
LINE
  5
C65
330
1D9
100
AcDbEntity
  8
0
100
AcDbLine
 10
1882.5
 20
173.5
 30
0.0
 11
1881.5
 21
172.5
 31
0.0
  0
LINE
  5
C66
330
1D9
100
AcDbEntity
  8
0
100
AcDbLine
 10
1845.5
 20
167.4999999999995
 30
0.0
 11
1845.5
 21
172.49999
 31
0.0
  0
LINE
  5
C67
330
1D9
100
AcDbEntity
  8
0
100
AcDbLine
 10
1847.15001
 20
172.49999
 30
0.0
 11
1847.15001
 21
167.4999999999993
 31
0.0
  0
LINE
  5
C68
330
1D9
100
AcDbEntity
  8
0
100
AcDbLine
 10
1830.784109489925
 20
172.49999
 30
0.0
 11
1830.784109489925
 21
167.4999999999993
 31
0.0
  0
LINE
  5
C69
330
1D9
100
AcDbEntity
  8
0
100
AcDbLine
 10
1829.134099489927
 20
167.4999999999995
 30
0.0
 11
1829.134099489927
 21
172.49999
 31
0.0
  0
LINE
  5
C6A
330
1D9
100
AcDbEntity
  8
0
100
AcDbLine
 10
1867.849989999999
 20
172.49999
 30
0.0
 11
1867.849989999999
 21
167.4999999999993
 31
0.0
  0
LINE
  5
C6B
330
1D9
100
AcDbEntity
  8
0
100
AcDbLine
 10
1869.5
 20
167.4999999999995
 30
0.0
 11
1869.5
 21
172.49999
 31
0.0
  0
LINE
  5
C6C
330
1D9
100
AcDbEntity
  8
0
100
AcDbLine
 10
1853.134099489927
 20
167.4999999999995
 30
0.0
 11
1853.134099489927
 21
172.49999
 31
0.0
  0
LINE
  5
C6D
330
1D9
100
AcDbEntity
  8
0
100
AcDbLine
 10
1851.484089489927
 20
172.49999
 30
0.0
 11
1851.484089489927
 21
167.4999999999993
 31
0.0
  0
LINE
  5
C6E
330
1D9
100
AcDbEntity
  8
0
100
AcDbLine
 10
1881.5
 20
127.5
 30
0.0
 11
1882.5
 21
128.4999999999999
 31
0.0
  0
LINE
  5
C6F
330
1D9
100
AcDbEntity
  8
0
100
AcDbLine
 10
1882.5
 20
166.5
 30
0.0
 11
1881.5
 21
167.5
 31
0.0
  0
LINE
  5
C70
330
1D9
100
AcDbEntity
  8
0
100
AcDbLine
 10
1882.5
 20
128.4999999999999
 30
0.0
 11
1882.5
 21
166.5
 31
0.0
  0
LINE
  5
C71
330
1D9
100
AcDbEntity
  8
0
100
AcDbLine
 10
509.0000000000004
 20
382.5
 30
0.0
 11
161.0000000000004
 21
382.5
 31
0.0
  0
LINE
  5
C72
330
1D9
100
AcDbEntity
  8
0
100
AcDbLine
 10
161.0000000000004
 20
412.5
 30
0.0
 11
509.0000000000004
 21
412.5
 31
0.0
  0
LINE
  5
C73
330
1D9
100
AcDbEntity
  8
0
100
AcDbLine
 10
509.0000000000004
 20
451.5000000000005
 30
0.0
 11
161.0000000000004
 21
451.4999999999998
 31
0.0
  0
LINE
  5
C74
330
1D9
100
AcDbEntity
  8
0
100
AcDbLine
 10
509.0000000000004
 20
417.4999999999998
 30
0.0
 11
161.0000000000004
 21
417.4999999999998
 31
0.0
  0
ARC
  5
C75
330
1D9
100
AcDbEntity
  8
0
100
AcDbCircle
 10
501.3749999999998
 20
373.1307528409089
 30
0.0
 40
4.630752840909087
100
AcDbArc
 50
182.8562616078017
 51
357.1437383921982
  0
LINE
  5
C76
330
1D9
100
AcDbEntity
  8
0
100
AcDbLine
 10
501.3749999999998
 20
368.5
 30
0.0
 11
473.625
 21
368.5
 31
0.0
  0
LINE
  5
C77
330
1D9
100
AcDbEntity
  8
0
100
AcDbLine
 10
501.3749999999998
 20
216.5
 30
0.0
 11
473.625
 21
216.5
 31
0.0
  0
ARC
  5
C78
330
1D9
100
AcDbEntity
  8
0
100
AcDbCircle
 10
501.3749999999998
 20
211.8692471590909
 30
0.0
 40
4.630752840909087
100
AcDbArc
 50
2.85626160780179
 51
177.1437383921982
  0
LINE
  5
C79
330
1D9
100
AcDbEntity
  8
0
100
AcDbLine
 10
509.0000000000004
 20
202.4999999999999
 30
0.0
 11
161.0000000000004
 21
202.4999999999999
 31
0.0
  0
LINE
  5
C7A
330
1D9
100
AcDbEntity
  8
0
100
AcDbLine
 10
40.0
 20
1420.0
 30
0.0
 11
1995.0
 21
1420.0
 31
0.0
  0
LINE
  5
C7B
330
1D9
100
AcDbEntity
  8
0
100
AcDbLine
 10
40.0
 20
555.0
 30
0.0
 11
1995.0
 21
555.0
 31
0.0
  0
LINE
  5
C7C
330
1D9
100
AcDbEntity
  8
0
100
AcDbLine
 10
40.0
 20
585.0
 30
0.0
 11
1995.0
 21
585.0
 31
0.0
  0
LINE
  5
C7D
330
1D9
100
AcDbEntity
  8
0
100
AcDbLine
 10
40.0
 20
1009.999999999992
 30
0.0
 11
1995.0
 21
1010.000000000002
 31
0.0
  0
LINE
  5
C7E
330
1D9
100
AcDbEntity
  8
0
100
AcDbLine
 10
40.0
 20
1039.999999999992
 30
0.0
 11
1995.0
 21
1040.000000000001
 31
0.0
  0
LINE
  5
C7F
330
1D9
100
AcDbEntity
  8
0
100
AcDbLine
 10
247.5000000000004
 20
1318.499999999996
 30
0.0
 11
247.5000000000004
 21
1345.499999999996
 31
0.0
  0
LINE
  5
C80
330
1D9
100
AcDbEntity
  8
0
100
AcDbLine
 10
422.5000000000004
 20
1318.499999999996
 30
0.0
 11
422.5000000000004
 21
1345.499999999996
 31
0.0
  0
LINE
  5
C81
330
1D9
100
AcDbEntity
  8
0
100
AcDbLine
 10
335.0000000000004
 20
1363.499999999996
 30
0.0
 11
335.0
 21
1096.499999999995
 31
0.0
  0
LINE
  5
C82
330
1D9
100
AcDbEntity
  8
0
100
AcDbLine
 10
404.4999999999994
 20
753.5910031997937
 30
0.0
 11
404.4999999999994
 21
726.4999999999964
 31
0.0
  0
LINE
  5
C83
330
1D9
100
AcDbEntity
  8
0
100
AcDbLine
 10
265.5000000000013
 20
753.5910031997937
 30
0.0
 11
265.5000000000013
 21
726.4999999999964
 31
0.0
  0
LINE
  5
C84
330
1D9
100
AcDbEntity
  8
0
100
AcDbLine
 10
335.0000000000004
 20
955.9999999999963
 30
0.0
 11
335.0000000000004
 21
638.9999999999957
 31
0.0
  0
LINE
  5
C85
330
1D9
100
AcDbEntity
  8
0
100
AcDbLine
 10
168.6250000000009
 20
368.5
 30
0.0
 11
196.3750000000009
 21
368.5
 31
0.0
  0
LINE
  5
C86
330
1D9
100
AcDbEntity
  8
0
100
AcDbLine
 10
189.0561259228734
 20
368.5
 30
0.0
 11
216.8061259228734
 21
368.5
 31
0.0
  0
ARC
  5
C87
330
1D9
100
AcDbEntity
  8
0
100
AcDbCircle
 10
189.0561259228734
 20
373.1307528409089
 30
0.0
 40
4.630752840909087
100
AcDbArc
 50
182.8562616078017
 51
357.1437383921982
  0
ARC
  5
C88
330
1D9
100
AcDbEntity
  8
0
100
AcDbCircle
 10
189.0561259228734
 20
211.8692471590909
 30
0.0
 40
4.630752840909087
100
AcDbArc
 50
2.85626160780179
 51
177.1437383921982
  0
LINE
  5
C89
330
1D9
100
AcDbEntity
  8
0
100
AcDbLine
 10
189.0561259228734
 20
216.5
 30
0.0
 11
216.8061259228734
 21
216.5
 31
0.0
  0
LINE
  5
C8A
330
1D9
100
AcDbEntity
  8
0
100
AcDbLine
 10
168.6250000000009
 20
216.5
 30
0.0
 11
196.3750000000009
 21
216.5
 31
0.0
  0
ARC
  5
C8B
330
1D9
100
AcDbEntity
  8
0
100
AcDbCircle
 10
182.5000000000009
 20
204.5769886363636
 30
0.0
 40
11.92301136363636
100
AcDbArc
 50
70.00056629825785
 51
140.8785929349394
  0
LINE
  5
C8C
330
1D9
100
AcDbEntity
  8
0
100
AcDbLine
 10
184.4311259228734
 20
202.4999999999999
 30
0.0
 11
184.4311259228734
 21
212.0999999999999
 31
0.0
  0
ARC
  5
C8D
330
1D9
100
AcDbEntity
  8
0
100
AcDbCircle
 10
168.6250000000009
 20
211.8692471590909
 30
0.0
 40
4.630752840909087
100
AcDbArc
 50
2.85626160780179
 51
177.1437383921982
  0
LINE
  5
C8E
330
1D9
100
AcDbEntity
  8
0
100
AcDbLine
 10
173.2500000000007
 20
202.4999999999999
 30
0.0
 11
173.2500000000007
 21
212.0999999999999
 31
0.0
  0
LINE
  5
C8F
330
1D9
100
AcDbEntity
  8
0
100
AcDbLine
 10
164.0000000000009
 20
202.4999999999999
 30
0.0
 11
164.0000000000009
 21
212.0999999999999
 31
0.0
  0
LINE
  5
C90
330
1D9
100
AcDbEntity
  8
0
100
AcDbLine
 10
160.0000000000004
 20
201.5
 30
0.0
 11
161.0000000000004
 21
202.4999999999999
 31
0.0
  0
LINE
  5
C91
330
1D9
100
AcDbEntity
  8
0
100
AcDbLine
 10
160.0000000000004
 20
411.5
 30
0.0
 11
160.0000000000004
 21
383.4999999999998
 31
0.0
  0
LINE
  5
C92
330
1D9
100
AcDbEntity
  8
0
100
AcDbLine
 10
160.0000000000004
 20
383.4999999999998
 30
0.0
 11
161.0000000000004
 21
382.5
 31
0.0
  0
LINE
  5
C93
330
1D9
100
AcDbEntity
  8
0
100
AcDbLine
 10
164.0000000000009
 20
382.5
 30
0.0
 11
164.0000000000009
 21
372.8999999999999
 31
0.0
  0
LINE
  5
C94
330
1D9
100
AcDbEntity
  8
0
100
AcDbLine
 10
173.2500000000007
 20
382.5
 30
0.0
 11
173.2500000000007
 21
372.8999999999999
 31
0.0
  0
ARC
  5
C95
330
1D9
100
AcDbEntity
  8
0
100
AcDbCircle
 10
168.6250000000009
 20
373.1307528409089
 30
0.0
 40
4.630752840909087
100
AcDbArc
 50
182.8562616078017
 51
357.1437383921982
  0
LINE
  5
C96
330
1D9
100
AcDbEntity
  8
0
100
AcDbLine
 10
184.4311259228734
 20
382.5
 30
0.0
 11
184.4311259228734
 21
372.8999999999999
 31
0.0
  0
ARC
  5
C97
330
1D9
100
AcDbEntity
  8
0
100
AcDbCircle
 10
182.5000000000009
 20
380.4230113636362
 30
0.0
 40
11.92301136363636
100
AcDbArc
 50
219.1214070650605
 51
289.9994337017421
  0
LINE
  5
C98
330
1D9
100
AcDbEntity
  8
0
100
AcDbLine
 10
161.0000000000004
 20
451.4999999999998
 30
0.0
 11
160.0000000000004
 21
450.4999999999998
 31
0.0
  0
LINE
  5
C99
330
1D9
100
AcDbEntity
  8
0
100
AcDbLine
 10
160.0000000000004
 20
450.4999999999998
 30
0.0
 11
160.0000000000004
 21
418.5
 31
0.0
  0
LINE
  5
C9A
330
1D9
100
AcDbEntity
  8
0
100
AcDbLine
 10
160.0000000000004
 20
418.5
 30
0.0
 11
161.0000000000004
 21
417.4999999999998
 31
0.0
  0
LINE
  5
C9B
330
1D9
100
AcDbEntity
  8
0
100
AcDbLine
 10
172.8500100000005
 20
412.5000099999998
 30
0.0
 11
172.8500100000005
 21
417.4999999999998
 31
0.0
  0
LINE
  5
C9C
330
1D9
100
AcDbEntity
  8
0
100
AcDbLine
 10
171.5000000000004
 20
417.4999999999998
 30
0.0
 11
171.5000000000004
 21
412.5000099999998
 31
0.0
  0
LINE
  5
C9D
330
1D9
100
AcDbEntity
  8
0
100
AcDbLine
 10
160.0000000000004
 20
411.5
 30
0.0
 11
161.0000000000004
 21
412.5
 31
0.0
  0
ARC
  5
C9E
330
1D9
100
AcDbEntity
  8
0
100
AcDbCircle
 10
335.0000000000004
 20
292.5
 30
0.0
 40
132.4999999999999
100
AcDbArc
 50
11.31637625502122
 51
20.14508707175385
  0
ARC
  5
C9F
330
1D9
100
AcDbEntity
  8
0
100
AcDbCircle
 10
335.0000000000004
 20
292.5
 30
0.0
 40
132.4999999999999
100
AcDbArc
 50
159.8549129282461
 51
168.6836237449786
  0
LINE
  5
CA0
330
1D9
100
AcDbEntity
  8
0
100
AcDbLine
 10
204.6948911080547
 20
316.5172562266834
 30
0.0
 11
465.305108891946
 21
316.5172562266834
 31
0.0
  0
LINE
  5
CA1
330
1D9
100
AcDbEntity
  8
0
100
AcDbLine
 10
204.8798632032694
 20
318.5
 30
0.0
 11
465.1201367967313
 21
318.5
 31
0.0
  0
LINE
  5
CA2
330
1D9
100
AcDbEntity
  8
0
100
AcDbLine
 10
204.8798632032694
 20
266.5
 30
0.0
 11
465.1201367967313
 21
266.5
 31
0.0
  0
LINE
  5
CA3
330
1D9
100
AcDbEntity
  8
0
100
AcDbLine
 10
204.6948911080547
 20
268.4827437733165
 30
0.0
 11
465.305108891946
 21
268.4827437733165
 31
0.0
  0
ARC
  5
CA4
330
1D9
100
AcDbEntity
  8
0
100
AcDbCircle
 10
348.8750000000004
 20
211.8692471590909
 30
0.0
 40
4.630752840909091
100
AcDbArc
 50
2.85626160780179
 51
177.1437383921982
  0
LINE
  5
CA5
330
1D9
100
AcDbEntity
  8
0
100
AcDbLine
 10
321.1250000000004
 20
216.5
 30
0.0
 11
348.8750000000004
 21
216.5
 31
0.0
  0
ARC
  5
CA6
330
1D9
100
AcDbEntity
  8
0
100
AcDbCircle
 10
335.0000000000004
 20
292.5
 30
0.0
 40
132.4999999999999
100
AcDbArc
 50
191.3163762550211
 51
200.1450870717538
  0
ARC
  5
CA7
330
1D9
100
AcDbEntity
  8
0
100
AcDbCircle
 10
258.7500000000003
 20
204.5769886363636
 30
0.0
 40
11.92301136363636
100
AcDbArc
 50
39.1214070650605
 51
140.8785929349394
  0
LINE
  5
CA8
330
1D9
100
AcDbEntity
  8
0
100
AcDbLine
 10
244.8750000000004
 20
216.5
 30
0.0
 11
272.6250000000003
 21
216.5
 31
0.0
  0
ARC
  5
CA9
330
1D9
100
AcDbEntity
  8
0
100
AcDbCircle
 10
135.5000000000003
 20
219.315302145871
 30
0.0
 40
80.0
100
AcDbArc
 50
0.0
 51
20.14508707175385
  0
LINE
  5
CAA
330
1D9
100
AcDbEntity
  8
0
100
AcDbLine
 10
215.5000000000004
 20
219.3153021458691
 30
0.0
 11
215.5000000000004
 21
216.5
 31
0.0
  0
ARC
  5
CAB
330
1D9
100
AcDbEntity
  8
0
100
AcDbCircle
 10
216.8061259228734
 20
211.8692471590909
 30
0.0
 40
4.630752840909091
100
AcDbArc
 50
2.85626160780179
 51
177.1437383921982
  0
LINE
  5
CAC
330
1D9
100
AcDbEntity
  8
0
100
AcDbLine
 10
212.1811259228734
 20
202.4999999999999
 30
0.0
 11
212.1811259228734
 21
212.0999999999999
 31
0.0
  0
LINE
  5
CAD
330
1D9
100
AcDbEntity
  8
0
100
AcDbLine
 10
221.4311259228734
 20
212.0999999999999
 30
0.0
 11
221.4311259228734
 21
202.4999999999999
 31
0.0
  0
LINE
  5
CAE
330
1D9
100
AcDbEntity
  8
0
100
AcDbLine
 10
193.6811259228734
 20
202.4999999999999
 30
0.0
 11
193.6811259228734
 21
212.0999999999999
 31
0.0
  0
ARC
  5
CAF
330
1D9
100
AcDbEntity
  8
0
100
AcDbCircle
 10
202.9311259228734
 20
204.5769886363636
 30
0.0
 40
11.92301136363636
100
AcDbArc
 50
39.1214070650605
 51
140.8785929349394
  0
ARC
  5
CB0
330
1D9
100
AcDbEntity
  8
0
100
AcDbCircle
 10
244.8750000000004
 20
211.8692471590909
 30
0.0
 40
4.630752840909087
100
AcDbArc
 50
2.85626160780179
 51
177.1437383921982
  0
LINE
  5
CB1
330
1D9
100
AcDbEntity
  8
0
100
AcDbLine
 10
249.5000000000004
 20
202.4999999999999
 30
0.0
 11
249.5000000000004
 21
212.0999999999999
 31
0.0
  0
LINE
  5
CB2
330
1D9
100
AcDbEntity
  8
0
100
AcDbLine
 10
240.2500000000004
 20
202.4999999999999
 30
0.0
 11
240.2500000000004
 21
212.0999999999999
 31
0.0
  0
LINE
  5
CB3
330
1D9
100
AcDbEntity
  8
0
100
AcDbLine
 10
277.2500000000003
 20
212.0999999999999
 30
0.0
 11
277.2500000000003
 21
202.4999999999999
 31
0.0
  0
LINE
  5
CB4
330
1D9
100
AcDbEntity
  8
0
100
AcDbLine
 10
268.0000000000004
 20
202.4999999999999
 30
0.0
 11
268.0000000000004
 21
212.0999999999999
 31
0.0
  0
ARC
  5
CB5
330
1D9
100
AcDbEntity
  8
0
100
AcDbCircle
 10
272.6250000000003
 20
211.8692471590909
 30
0.0
 40
4.630752840909091
100
AcDbArc
 50
2.85626160780179
 51
177.1437383921982
  0
LINE
  5
CB6
330
1D9
100
AcDbEntity
  8
0
100
AcDbLine
 10
344.2500000000003
 20
202.4999999999999
 30
0.0
 11
344.2500000000003
 21
212.0999999999999
 31
0.0
  0
LINE
  5
CB7
330
1D9
100
AcDbEntity
  8
0
100
AcDbLine
 10
316.5000000000004
 20
202.4999999999999
 30
0.0
 11
316.5000000000004
 21
212.0999999999999
 31
0.0
  0
LINE
  5
CB8
330
1D9
100
AcDbEntity
  8
0
100
AcDbLine
 10
325.7500000000003
 20
202.4999999999999
 30
0.0
 11
325.7500000000003
 21
212.0999999999999
 31
0.0
  0
ARC
  5
CB9
330
1D9
100
AcDbEntity
  8
0
100
AcDbCircle
 10
321.1250000000004
 20
211.8692471590909
 30
0.0
 40
4.630752840909087
100
AcDbArc
 50
2.85626160780179
 51
177.1437383921982
  0
ARC
  5
CBA
330
1D9
100
AcDbEntity
  8
0
100
AcDbCircle
 10
335.0000000000004
 20
204.5769886363636
 30
0.0
 40
11.92301136363636
100
AcDbArc
 50
39.1214070650605
 51
140.8785929349394
  0
ARC
  5
CBB
330
1D9
100
AcDbEntity
  8
0
100
AcDbCircle
 10
204.8798632032694
 20
317.5
 30
0.0
 40
1.0
100
AcDbArc
 50
90.0
 51
259.3404945072193
  0
ARC
  5
CBC
330
1D9
100
AcDbEntity
  8
0
100
AcDbCircle
 10
204.8798632032694
 20
267.5
 30
0.0
 40
1.0
100
AcDbArc
 50
100.6595054927805
 51
270.0
  0
ARC
  5
CBD
330
1D9
100
AcDbEntity
  8
0
100
AcDbCircle
 10
335.0000000000004
 20
292.5
 30
0.0
 40
132.4999999999999
100
AcDbArc
 50
169.5567055090966
 51
190.4432944909032
  0
ARC
  5
CBE
330
1D9
100
AcDbEntity
  8
0
100
AcDbCircle
 10
335.0000000000004
 20
292.5
 30
0.0
 40
132.4999999999999
100
AcDbArc
 50
339.8549129282461
 51
348.6836237449787
  0
ARC
  5
CBF
330
1D9
100
AcDbEntity
  8
0
100
AcDbCircle
 10
425.1250000000004
 20
211.8692471590909
 30
0.0
 40
4.630752840909087
100
AcDbArc
 50
2.85626160780179
 51
177.1437383921982
  0
LINE
  5
CC0
330
1D9
100
AcDbEntity
  8
0
100
AcDbLine
 10
425.1250000000004
 20
216.5
 30
0.0
 11
397.3750000000003
 21
216.5
 31
0.0
  0
ARC
  5
CC1
330
1D9
100
AcDbEntity
  8
0
100
AcDbCircle
 10
397.3750000000003
 20
211.8692471590909
 30
0.0
 40
4.630752840909091
100
AcDbArc
 50
2.85626160780179
 51
177.1437383921982
  0
LINE
  5
CC2
330
1D9
100
AcDbEntity
  8
0
100
AcDbLine
 10
402.0000000000004
 20
202.4999999999999
 30
0.0
 11
402.0000000000004
 21
212.0999999999999
 31
0.0
  0
LINE
  5
CC3
330
1D9
100
AcDbEntity
  8
0
100
AcDbLine
 10
392.7500000000004
 20
212.0999999999999
 30
0.0
 11
392.7500000000004
 21
202.4999999999999
 31
0.0
  0
LINE
  5
CC4
330
1D9
100
AcDbEntity
  8
0
100
AcDbLine
 10
420.5000000000003
 20
202.4999999999999
 30
0.0
 11
420.5000000000003
 21
212.0999999999999
 31
0.0
  0
ARC
  5
CC5
330
1D9
100
AcDbEntity
  8
0
100
AcDbCircle
 10
411.2500000000004
 20
204.5769886363636
 30
0.0
 40
11.92301136363636
100
AcDbArc
 50
39.1214070650605
 51
140.8785929349394
  0
LINE
  5
CC6
330
1D9
100
AcDbEntity
  8
0
100
AcDbLine
 10
353.5000000000004
 20
212.0999999999999
 30
0.0
 11
353.5000000000004
 21
202.4999999999999
 31
0.0
  0
ARC
  5
CC7
330
1D9
100
AcDbEntity
  8
0
100
AcDbCircle
 10
534.4999999999998
 20
219.315302145871
 30
0.0
 40
80.0
100
AcDbArc
 50
159.8549129282461
 51
180.0
  0
LINE
  5
CC8
330
1D9
100
AcDbEntity
  8
0
100
AcDbLine
 10
454.4999999999998
 20
219.3153021458691
 30
0.0
 11
454.5000000000004
 21
216.5
 31
0.0
  0
LINE
  5
CC9
330
1D9
100
AcDbEntity
  8
0
100
AcDbLine
 10
429.7500000000003
 20
202.4999999999999
 30
0.0
 11
429.7500000000003
 21
212.0999999999999
 31
0.0
  0
LINE
  5
CCA
330
1D9
100
AcDbEntity
  8
0
100
AcDbLine
 10
480.9438740771273
 20
216.5
 30
0.0
 11
453.1938740771273
 21
216.5
 31
0.0
  0
ARC
  5
CCB
330
1D9
100
AcDbEntity
  8
0
100
AcDbCircle
 10
467.0688740771273
 20
204.5769886363636
 30
0.0
 40
11.92301136363636
100
AcDbArc
 50
39.1214070650605
 51
140.8785929349394
  0
LINE
  5
CCC
330
1D9
100
AcDbEntity
  8
0
100
AcDbLine
 10
476.3188740771274
 20
202.4999999999999
 30
0.0
 11
476.3188740771274
 21
212.0999999999999
 31
0.0
  0
LINE
  5
CCD
330
1D9
100
AcDbEntity
  8
0
100
AcDbLine
 10
448.5688740771275
 20
212.0999999999999
 30
0.0
 11
448.5688740771275
 21
202.4999999999999
 31
0.0
  0
LINE
  5
CCE
330
1D9
100
AcDbEntity
  8
0
100
AcDbLine
 10
457.8188740771273
 20
202.4999999999999
 30
0.0
 11
457.8188740771273
 21
212.0999999999999
 31
0.0
  0
ARC
  5
CCF
330
1D9
100
AcDbEntity
  8
0
100
AcDbCircle
 10
453.1938740771273
 20
211.8692471590909
 30
0.0
 40
4.630752840909091
100
AcDbArc
 50
2.85626160780179
 51
177.1437383921982
  0
LINE
  5
CD0
330
1D9
100
AcDbEntity
  8
0
100
AcDbLine
 10
496.75
 20
202.4999999999999
 30
0.0
 11
496.75
 21
212.0999999999999
 31
0.0
  0
LINE
  5
CD1
330
1D9
100
AcDbEntity
  8
0
100
AcDbLine
 10
485.5688740771275
 20
202.4999999999999
 30
0.0
 11
485.5688740771275
 21
212.0999999999999
 31
0.0
  0
ARC
  5
CD2
330
1D9
100
AcDbEntity
  8
0
100
AcDbCircle
 10
487.5
 20
204.5769886363636
 30
0.0
 40
11.92301136363636
100
AcDbArc
 50
39.1214070650605
 51
109.999433701742
  0
ARC
  5
CD3
330
1D9
100
AcDbEntity
  8
0
100
AcDbCircle
 10
480.9438740771273
 20
211.8692471590909
 30
0.0
 40
4.630752840909087
100
AcDbArc
 50
2.85626160780179
 51
177.1437383921982
  0
ARC
  5
CD4
330
1D9
100
AcDbEntity
  8
0
100
AcDbCircle
 10
465.1201367967313
 20
317.5
 30
0.0
 40
1.0
100
AcDbArc
 50
280.6595054927806
 51
90.0
  0
ARC
  5
CD5
330
1D9
100
AcDbEntity
  8
0
100
AcDbCircle
 10
465.1201367967313
 20
267.5
 30
0.0
 40
1.0
100
AcDbArc
 50
270.0
 51
79.34049450721936
  0
ARC
  5
CD6
330
1D9
100
AcDbEntity
  8
0
100
AcDbCircle
 10
335.0000000000004
 20
292.5
 30
0.0
 40
132.4999999999999
100
AcDbArc
 50
349.5567055090968
 51
10.44329449090321
  0
LINE
  5
CD7
330
1D9
100
AcDbEntity
  8
0
100
AcDbLine
 10
469.0000000000012
 20
459.4999999999997
 30
0.0
 11
201.0000000000004
 21
459.4999999999997
 31
0.0
  0
LINE
  5
CD8
330
1D9
100
AcDbEntity
  8
0
100
AcDbLine
 10
321.1250000000004
 20
368.5
 30
0.0
 11
348.8750000000004
 21
368.5
 31
0.0
  0
ARC
  5
CD9
330
1D9
100
AcDbEntity
  8
0
100
AcDbCircle
 10
348.8750000000004
 20
373.1307528409089
 30
0.0
 40
4.630752840909091
100
AcDbArc
 50
182.8562616078017
 51
357.1437383921982
  0
LINE
  5
CDA
330
1D9
100
AcDbEntity
  8
0
100
AcDbLine
 10
436.5000000000003
 20
462.5
 30
0.0
 11
233.4999999999999
 21
462.5
 31
0.0
  0
LINE
  5
CDB
330
1D9
100
AcDbEntity
  8
0
100
AcDbLine
 10
244.8750000000004
 20
368.5
 30
0.0
 11
272.6250000000003
 21
368.5
 31
0.0
  0
ARC
  5
CDC
330
1D9
100
AcDbEntity
  8
0
100
AcDbCircle
 10
258.7500000000003
 20
380.4230113636362
 30
0.0
 40
11.92301136363636
100
AcDbArc
 50
219.1214070650605
 51
320.8785929349393
  0
LINE
  5
CDD
330
1D9
100
AcDbEntity
  8
0
100
AcDbLine
 10
240.2500000000004
 20
382.5
 30
0.0
 11
240.2500000000004
 21
372.8999999999999
 31
0.0
  0
LINE
  5
CDE
330
1D9
100
AcDbEntity
  8
0
100
AcDbLine
 10
249.5000000000004
 20
382.5
 30
0.0
 11
249.5000000000004
 21
372.8999999999999
 31
0.0
  0
ARC
  5
CDF
330
1D9
100
AcDbEntity
  8
0
100
AcDbCircle
 10
244.8750000000004
 20
373.1307528409089
 30
0.0
 40
4.630752840909087
100
AcDbArc
 50
182.8562616078017
 51
357.1437383921982
  0
ARC
  5
CE0
330
1D9
100
AcDbEntity
  8
0
100
AcDbCircle
 10
202.9311259228734
 20
380.4230113636362
 30
0.0
 40
11.92301136363636
100
AcDbArc
 50
219.1214070650605
 51
320.8785929349393
  0
LINE
  5
CE1
330
1D9
100
AcDbEntity
  8
0
100
AcDbLine
 10
193.6811259228734
 20
382.5
 30
0.0
 11
193.6811259228734
 21
372.8999999999999
 31
0.0
  0
LINE
  5
CE2
330
1D9
100
AcDbEntity
  8
0
100
AcDbLine
 10
221.4311259228734
 20
372.8999999999999
 30
0.0
 11
221.4311259228734
 21
382.5
 31
0.0
  0
LINE
  5
CE3
330
1D9
100
AcDbEntity
  8
0
100
AcDbLine
 10
212.1811259228734
 20
382.5
 30
0.0
 11
212.1811259228734
 21
372.8999999999999
 31
0.0
  0
ARC
  5
CE4
330
1D9
100
AcDbEntity
  8
0
100
AcDbCircle
 10
216.8061259228734
 20
373.1307528409089
 30
0.0
 40
4.630752840909091
100
AcDbArc
 50
182.8562616078017
 51
357.1437383921982
  0
LINE
  5
CE5
330
1D9
100
AcDbEntity
  8
0
100
AcDbLine
 10
215.5000000000004
 20
365.6846978541307
 30
0.0
 11
215.5000000000004
 21
368.5
 31
0.0
  0
ARC
  5
CE6
330
1D9
100
AcDbEntity
  8
0
100
AcDbCircle
 10
135.5000000000003
 20
365.6846978541289
 30
0.0
 40
80.0
100
AcDbArc
 50
339.8549129282461
 51
0.0
  0
ARC
  5
CE7
330
1D9
100
AcDbEntity
  8
0
100
AcDbCircle
 10
335.0000000000004
 20
380.4230113636362
 30
0.0
 40
11.92301136363636
100
AcDbArc
 50
219.1214070650605
 51
320.8785929349393
  0
ARC
  5
CE8
330
1D9
100
AcDbEntity
  8
0
100
AcDbCircle
 10
321.1250000000004
 20
373.1307528409089
 30
0.0
 40
4.630752840909087
100
AcDbArc
 50
182.8562616078017
 51
357.1437383921982
  0
LINE
  5
CE9
330
1D9
100
AcDbEntity
  8
0
100
AcDbLine
 10
325.7500000000003
 20
382.5
 30
0.0
 11
325.7500000000003
 21
372.8999999999999
 31
0.0
  0
LINE
  5
CEA
330
1D9
100
AcDbEntity
  8
0
100
AcDbLine
 10
316.5000000000004
 20
382.5
 30
0.0
 11
316.5000000000004
 21
372.8999999999999
 31
0.0
  0
LINE
  5
CEB
330
1D9
100
AcDbEntity
  8
0
100
AcDbLine
 10
344.2500000000003
 20
382.5
 30
0.0
 11
344.2500000000003
 21
372.8999999999999
 31
0.0
  0
ARC
  5
CEC
330
1D9
100
AcDbEntity
  8
0
100
AcDbCircle
 10
272.6250000000003
 20
373.1307528409089
 30
0.0
 40
4.630752840909091
100
AcDbArc
 50
182.8562616078017
 51
357.1437383921982
  0
LINE
  5
CED
330
1D9
100
AcDbEntity
  8
0
100
AcDbLine
 10
268.0000000000004
 20
382.5
 30
0.0
 11
268.0000000000004
 21
372.8999999999999
 31
0.0
  0
LINE
  5
CEE
330
1D9
100
AcDbEntity
  8
0
100
AcDbLine
 10
277.2500000000003
 20
372.8999999999999
 30
0.0
 11
277.2500000000003
 21
382.5
 31
0.0
  0
LINE
  5
CEF
330
1D9
100
AcDbEntity
  8
0
100
AcDbLine
 10
222.5000000000004
 20
465.4999999999994
 30
0.0
 11
222.5000000000004
 21
445.5000000000004
 31
0.0
  0
LINE
  5
CF0
330
1D9
100
AcDbEntity
  8
0
100
AcDbLine
 10
201.0000000000004
 20
459.4999999999997
 30
0.0
 11
200.0000000000004
 21
458.4999999999998
 31
0.0
  0
LINE
  5
CF1
330
1D9
100
AcDbEntity
  8
0
100
AcDbLine
 10
200.0000000000004
 20
458.4999999999998
 30
0.0
 11
200.0000000000004
 21
451.4999999999998
 31
0.0
  0
LINE
  5
CF2
330
1D9
100
AcDbEntity
  8
0
100
AcDbLine
 10
255.4504871165135
 20
465.5
 30
0.0
 11
255.450487116514
 21
445.5000000000004
 31
0.0
  0
LINE
  5
CF3
330
1D9
100
AcDbEntity
  8
0
100
AcDbLine
 10
249.10001
 20
412.5000099999998
 30
0.0
 11
249.10001
 21
417.4999999999998
 31
0.0
  0
LINE
  5
CF4
330
1D9
100
AcDbEntity
  8
0
100
AcDbLine
 10
247.75
 20
417.4999999999998
 30
0.0
 11
247.75
 21
412.5000099999998
 31
0.0
  0
LINE
  5
CF5
330
1D9
100
AcDbEntity
  8
0
100
AcDbLine
 10
191.9311259228729
 20
417.4999999999998
 30
0.0
 11
191.9311259228729
 21
412.5000099999998
 31
0.0
  0
LINE
  5
CF6
330
1D9
100
AcDbEntity
  8
0
100
AcDbLine
 10
193.2811359228731
 20
412.5000099999998
 30
0.0
 11
193.2811359228731
 21
417.4999999999998
 31
0.0
  0
LINE
  5
CF7
330
1D9
100
AcDbEntity
  8
0
100
AcDbLine
 10
213.9311259228729
 20
417.4999999999998
 30
0.0
 11
213.9311259228729
 21
412.5000099999998
 31
0.0
  0
LINE
  5
CF8
330
1D9
100
AcDbEntity
  8
0
100
AcDbLine
 10
212.5811159228728
 20
412.5000099999998
 30
0.0
 11
212.5811159228728
 21
417.4999999999998
 31
0.0
  0
LINE
  5
CF9
330
1D9
100
AcDbEntity
  8
0
100
AcDbLine
 10
233.4999999999999
 20
462.5
 30
0.0
 11
233.4999999999995
 21
459.4999999999995
 31
0.0
  0
LINE
  5
CFA
330
1D9
100
AcDbEntity
  8
0
100
AcDbLine
 10
324.0
 20
417.4999999999998
 30
0.0
 11
324.0
 21
412.5000099999998
 31
0.0
  0
LINE
  5
CFB
330
1D9
100
AcDbEntity
  8
0
100
AcDbLine
 10
325.3500100000001
 20
412.5000099999998
 30
0.0
 11
325.3500100000001
 21
417.4999999999998
 31
0.0
  0
LINE
  5
CFC
330
1D9
100
AcDbEntity
  8
0
100
AcDbLine
 10
344.6499899999998
 20
412.5000099999998
 30
0.0
 11
344.6499899999998
 21
417.4999999999998
 31
0.0
  0
LINE
  5
CFD
330
1D9
100
AcDbEntity
  8
0
100
AcDbLine
 10
268.3999899999998
 20
412.5000099999998
 30
0.0
 11
268.3999899999998
 21
417.4999999999998
 31
0.0
  0
LINE
  5
CFE
330
1D9
100
AcDbEntity
  8
0
100
AcDbLine
 10
269.75
 20
417.4999999999998
 30
0.0
 11
269.75
 21
412.5000099999998
 31
0.0
  0
LINE
  5
CFF
330
1D9
100
AcDbEntity
  8
0
100
AcDbLine
 10
425.1250000000004
 20
368.5
 30
0.0
 11
397.3750000000003
 21
368.5
 31
0.0
  0
ARC
  5
D00
330
1D9
100
AcDbEntity
  8
0
100
AcDbCircle
 10
425.1250000000004
 20
373.1307528409089
 30
0.0
 40
4.630752840909087
100
AcDbArc
 50
182.8562616078017
 51
357.1437383921982
  0
LINE
  5
D01
330
1D9
100
AcDbEntity
  8
0
100
AcDbLine
 10
353.5000000000004
 20
372.8999999999999
 30
0.0
 11
353.5000000000004
 21
382.5
 31
0.0
  0
ARC
  5
D02
330
1D9
100
AcDbEntity
  8
0
100
AcDbCircle
 10
411.2500000000004
 20
380.4230113636362
 30
0.0
 40
11.92301136363636
100
AcDbArc
 50
219.1214070650605
 51
320.8785929349393
  0
LINE
  5
D03
330
1D9
100
AcDbEntity
  8
0
100
AcDbLine
 10
420.5000000000003
 20
382.5
 30
0.0
 11
420.5000000000003
 21
372.8999999999999
 31
0.0
  0
LINE
  5
D04
330
1D9
100
AcDbEntity
  8
0
100
AcDbLine
 10
392.7500000000004
 20
372.8999999999999
 30
0.0
 11
392.7500000000004
 21
382.5
 31
0.0
  0
LINE
  5
D05
330
1D9
100
AcDbEntity
  8
0
100
AcDbLine
 10
402.0000000000004
 20
382.5
 30
0.0
 11
402.0000000000004
 21
372.8999999999999
 31
0.0
  0
ARC
  5
D06
330
1D9
100
AcDbEntity
  8
0
100
AcDbCircle
 10
397.3750000000003
 20
373.1307528409089
 30
0.0
 40
4.630752840909091
100
AcDbArc
 50
182.8562616078017
 51
357.1437383921982
  0
ARC
  5
D07
330
1D9
100
AcDbEntity
  8
0
100
AcDbCircle
 10
480.9438740771273
 20
373.1307528409089
 30
0.0
 40
4.630752840909087
100
AcDbArc
 50
182.8562616078017
 51
357.1437383921982
  0
ARC
  5
D08
330
1D9
100
AcDbEntity
  8
0
100
AcDbCircle
 10
487.5
 20
380.4230113636362
 30
0.0
 40
11.92301136363636
100
AcDbArc
 50
250.0005662982578
 51
320.8785929349393
  0
LINE
  5
D09
330
1D9
100
AcDbEntity
  8
0
100
AcDbLine
 10
485.5688740771275
 20
382.5
 30
0.0
 11
485.5688740771275
 21
372.8999999999999
 31
0.0
  0
LINE
  5
D0A
330
1D9
100
AcDbEntity
  8
0
100
AcDbLine
 10
496.75
 20
382.5
 30
0.0
 11
496.75
 21
372.8999999999999
 31
0.0
  0
ARC
  5
D0B
330
1D9
100
AcDbEntity
  8
0
100
AcDbCircle
 10
453.1938740771273
 20
373.1307528409089
 30
0.0
 40
4.630752840909091
100
AcDbArc
 50
182.8562616078017
 51
357.1437383921982
  0
LINE
  5
D0C
330
1D9
100
AcDbEntity
  8
0
100
AcDbLine
 10
457.8188740771273
 20
382.5
 30
0.0
 11
457.8188740771273
 21
372.8999999999999
 31
0.0
  0
LINE
  5
D0D
330
1D9
100
AcDbEntity
  8
0
100
AcDbLine
 10
448.5688740771275
 20
372.8999999999999
 30
0.0
 11
448.5688740771275
 21
382.5
 31
0.0
  0
LINE
  5
D0E
330
1D9
100
AcDbEntity
  8
0
100
AcDbLine
 10
476.3188740771274
 20
382.5
 30
0.0
 11
476.3188740771274
 21
372.8999999999999
 31
0.0
  0
ARC
  5
D0F
330
1D9
100
AcDbEntity
  8
0
100
AcDbCircle
 10
467.0688740771273
 20
380.4230113636362
 30
0.0
 40
11.92301136363636
100
AcDbArc
 50
219.1214070650605
 51
320.8785929349393
  0
LINE
  5
D10
330
1D9
100
AcDbEntity
  8
0
100
AcDbLine
 10
480.9438740771273
 20
368.5
 30
0.0
 11
453.1938740771273
 21
368.5
 31
0.0
  0
LINE
  5
D11
330
1D9
100
AcDbEntity
  8
0
100
AcDbLine
 10
429.7500000000003
 20
382.5
 30
0.0
 11
429.7500000000003
 21
372.8999999999999
 31
0.0
  0
LINE
  5
D12
330
1D9
100
AcDbEntity
  8
0
100
AcDbLine
 10
454.4999999999998
 20
365.6846978541307
 30
0.0
 11
454.5000000000004
 21
368.5
 31
0.0
  0
ARC
  5
D13
330
1D9
100
AcDbEntity
  8
0
100
AcDbCircle
 10
534.4999999999998
 20
365.6846978541289
 30
0.0
 40
80.0
100
AcDbArc
 50
180.0
 51
200.1450870717538
  0
LINE
  5
D14
330
1D9
100
AcDbEntity
  8
0
100
AcDbLine
 10
346.0
 20
417.4999999999998
 30
0.0
 11
346.0
 21
412.5000099999998
 31
0.0
  0
LINE
  5
D15
330
1D9
100
AcDbEntity
  8
0
100
AcDbLine
 10
422.2500000000009
 20
417.4999999999998
 30
0.0
 11
422.2500000000009
 21
412.5000099999998
 31
0.0
  0
LINE
  5
D16
330
1D9
100
AcDbEntity
  8
0
100
AcDbLine
 10
420.8999900000008
 20
412.5000099999998
 30
0.0
 11
420.8999900000008
 21
417.4999999999998
 31
0.0
  0
LINE
  5
D17
330
1D9
100
AcDbEntity
  8
0
100
AcDbLine
 10
400.2500000000008
 20
417.4999999999998
 30
0.0
 11
400.2500000000008
 21
412.5000099999998
 31
0.0
  0
LINE
  5
D18
330
1D9
100
AcDbEntity
  8
0
100
AcDbLine
 10
401.600010000001
 20
412.5000099999998
 30
0.0
 11
401.600010000001
 21
417.4999999999998
 31
0.0
  0
LINE
  5
D19
330
1D9
100
AcDbEntity
  8
0
100
AcDbLine
 10
414.5495128834872
 20
465.5
 30
0.0
 11
414.5495128834867
 21
445.5000000000004
 31
0.0
  0
LINE
  5
D1A
330
1D9
100
AcDbEntity
  8
0
100
AcDbLine
 10
469.0000000000003
 20
459.4999999999997
 30
0.0
 11
470.0000000000003
 21
458.4999999999998
 31
0.0
  0
LINE
  5
D1B
330
1D9
100
AcDbEntity
  8
0
100
AcDbLine
 10
470.0000000000003
 20
458.4999999999998
 30
0.0
 11
470.0000000000003
 21
451.4999999999998
 31
0.0
  0
LINE
  5
D1C
330
1D9
100
AcDbEntity
  8
0
100
AcDbLine
 10
498.5000000000003
 20
417.4999999999998
 30
0.0
 11
498.5000000000003
 21
412.5000099999998
 31
0.0
  0
LINE
  5
D1D
330
1D9
100
AcDbEntity
  8
0
100
AcDbLine
 10
497.1499900000003
 20
412.5000099999998
 30
0.0
 11
497.1499900000003
 21
417.4999999999998
 31
0.0
  0
LINE
  5
D1E
330
1D9
100
AcDbEntity
  8
0
100
AcDbLine
 10
457.4188840771279
 20
412.5000099999998
 30
0.0
 11
457.4188840771279
 21
417.4999999999998
 31
0.0
  0
LINE
  5
D1F
330
1D9
100
AcDbEntity
  8
0
100
AcDbLine
 10
456.0688740771277
 20
417.4999999999998
 30
0.0
 11
456.0688740771277
 21
412.5000099999998
 31
0.0
  0
LINE
  5
D20
330
1D9
100
AcDbEntity
  8
0
100
AcDbLine
 10
476.7188640771278
 20
412.5000099999998
 30
0.0
 11
476.7188640771278
 21
417.4999999999998
 31
0.0
  0
LINE
  5
D21
330
1D9
100
AcDbEntity
  8
0
100
AcDbLine
 10
478.0688740771278
 20
417.4999999999998
 30
0.0
 11
478.0688740771278
 21
412.5000099999998
 31
0.0
  0
LINE
  5
D22
330
1D9
100
AcDbEntity
  8
0
100
AcDbLine
 10
447.5000000000004
 20
465.4999999999994
 30
0.0
 11
447.5000000000004
 21
445.5000000000004
 31
0.0
  0
LINE
  5
D23
330
1D9
100
AcDbEntity
  8
0
100
AcDbLine
 10
436.5000000000003
 20
462.5
 30
0.0
 11
436.5000000000003
 21
459.4999999999995
 31
0.0
  0
TEXT
  5
D24
330
1D9
100
AcDbEntity
  8
0
100
AcDbText
 10
184.0
 20
562.2
 30
0.0
 40
15.0
  1
パイプサイレンサー：ＫＶＨ－６５Ｎ
 72
     4
 11
335.0
 21
570.0
 31
0.0
100
AcDbText
  0
LINE
  5
D26
330
1D9
100
AcDbEntity
  8
0
100
AcDbLine
 10
223.5000000000004
 20
684.9999999999964
 30
0.0
 11
446.5000000000004
 21
684.9999999999964
 31
0.0
  0
LINE
  5
D27
330
1D9
100
AcDbEntity
  8
0
100
AcDbLine
 10
223.5000000000004
 20
689.9999999999961
 30
0.0
 11
446.5000000000004
 21
689.9999999999961
 31
0.0
  0
LINE
  5
D28
330
1D9
100
AcDbEntity
  8
0
100
AcDbLine
 10
223.5000000000004
 20
713.9999999999964
 30
0.0
 11
446.5000000000004
 21
713.9999999999964
 31
0.0
  0
LINE
  5
D29
330
1D9
100
AcDbEntity
  8
0
100
AcDbLine
 10
256.0000000000004
 20
647.9999999999964
 30
0.0
 11
414.0000000000008
 21
647.9999999999964
 31
0.0
  0
LINE
  5
D2A
330
1D9
100
AcDbEntity
  8
0
100
AcDbLine
 10
446.4999999999998
 20
655.9999999999959
 30
0.0
 11
223.5000000000004
 21
655.9999999999964
 31
0.0
  0
LINE
  5
D2B
330
1D9
100
AcDbEntity
  8
0
100
AcDbLine
 10
273.0000000000018
 20
644.9999999999962
 30
0.0
 11
397.0000000000018
 21
644.9999999999962
 31
0.0
  0
LINE
  5
D2C
330
1D9
100
AcDbEntity
  8
0
100
AcDbLine
 10
222.5000000000004
 20
683.9999999999962
 30
0.0
 11
222.5000000000004
 21
656.9999999999962
 31
0.0
  0
LINE
  5
D2D
330
1D9
100
AcDbEntity
  8
0
100
AcDbLine
 10
265.0000000000003
 20
641.9999999999962
 30
0.0
 11
265.0
 21
661.9999999999967
 31
0.0
  0
LINE
  5
D2E
330
1D9
100
AcDbEntity
  8
0
100
AcDbLine
 10
223.5000000000004
 20
655.9999999999964
 30
0.0
 11
222.5000000000004
 21
656.9999999999962
 31
0.0
  0
LINE
  5
D2F
330
1D9
100
AcDbEntity
  8
0
100
AcDbLine
 10
256.0000000000004
 20
647.9999999999964
 30
0.0
 11
255.0000000000004
 21
648.9999999999962
 31
0.0
  0
LINE
  5
D30
330
1D9
100
AcDbEntity
  8
0
100
AcDbLine
 10
255.0000000000004
 20
648.9999999999962
 30
0.0
 11
255.0000000000004
 21
655.9999999999964
 31
0.0
  0
LINE
  5
D31
330
1D9
100
AcDbEntity
  8
0
100
AcDbLine
 10
285.5025253169419
 20
641.9999999999967
 30
0.0
 11
285.5025253169419
 21
661.9999999999967
 31
0.0
  0
LINE
  5
D32
330
1D9
100
AcDbEntity
  8
0
100
AcDbLine
 10
273.0000000000018
 20
644.9999999999962
 30
0.0
 11
273.0000000000018
 21
647.9999999999964
 31
0.0
  0
ARC
  5
D33
330
1D9
100
AcDbEntity
  8
0
100
AcDbCircle
 10
269.592622740245
 20
715.7772727272689
 30
0.0
 40
10.72272727272727
100
AcDbArc
 50
36.13264570574848
 51
143.8673542942515
  0
LINE
  5
D34
330
1D9
100
AcDbEntity
  8
0
100
AcDbLine
 10
256.6022416834785
 20
726.4999999999964
 30
0.0
 11
282.5830037970116
 21
726.4999999999964
 31
0.0
  0
ARC
  5
D35
330
1D9
100
AcDbEntity
  8
0
100
AcDbCircle
 10
255.4903810567671
 20
722.1693181818145
 30
0.0
 40
4.330681818181816
100
AcDbArc
 50
82.62457982363333
 51
180.9171324604374
  0
ARC
  5
D36
330
1D9
100
AcDbEntity
  8
0
100
AcDbCircle
 10
256.6022416834785
 20
722.1693181818145
 30
0.0
 40
4.330681818181814
100
AcDbArc
 50
359.0828675395623
 51
180.9171324604374
  0
LINE
  5
D37
330
1D9
100
AcDbEntity
  8
0
100
AcDbLine
 10
260.9323687024007
 20
713.9999999999964
 30
0.0
 11
260.9323687024007
 21
722.0999999999961
 31
0.0
  0
LINE
  5
D38
330
1D9
100
AcDbEntity
  8
0
100
AcDbLine
 10
252.2721146645563
 20
713.9999999999964
 30
0.0
 11
252.2721146645563
 21
722.0999999999961
 31
0.0
  0
ARC
  5
D39
330
1D9
100
AcDbEntity
  8
0
100
AcDbCircle
 10
242.5000000000004
 20
715.7772727272689
 30
0.0
 40
10.72272727272727
100
AcDbArc
 50
36.13264570574848
 51
143.8673542942515
  0
ARC
  5
D3A
330
1D9
100
AcDbEntity
  8
0
100
AcDbCircle
 10
229.5096189432337
 20
722.1693181818145
 30
0.0
 40
4.330681818181814
100
AcDbArc
 50
359.0828675395623
 51
180.9171324604374
  0
LINE
  5
D3B
330
1D9
100
AcDbEntity
  8
0
100
AcDbLine
 10
233.8397459621559
 20
713.9999999999964
 30
0.0
 11
233.8397459621559
 21
722.0999999999961
 31
0.0
  0
LINE
  5
D3C
330
1D9
100
AcDbEntity
  8
0
100
AcDbLine
 10
251.1602540378448
 20
713.9999999999964
 30
0.0
 11
251.1602540378448
 21
722.0999999999961
 31
0.0
  0
LINE
  5
D3D
330
1D9
100
AcDbEntity
  8
0
100
AcDbLine
 10
229.5096189432337
 20
726.4999999999964
 30
0.0
 11
255.4903810567671
 21
726.4999999999964
 31
0.0
  0
LINE
  5
D3E
330
1D9
100
AcDbEntity
  8
0
100
AcDbLine
 10
225.1794919243116
 20
713.9999999999964
 30
0.0
 11
225.1794919243116
 21
722.0999999999961
 31
0.0
  0
LINE
  5
D3F
330
1D9
100
AcDbEntity
  8
0
100
AcDbLine
 10
222.5000000000004
 20
712.9999999999961
 30
0.0
 11
223.5000000000004
 21
713.9999999999964
 31
0.0
  0
LINE
  5
D40
330
1D9
100
AcDbEntity
  8
0
100
AcDbLine
 10
222.5000000000004
 20
683.9999999999962
 30
0.0
 11
223.5000000000004
 21
684.9999999999964
 31
0.0
  0
LINE
  5
D41
330
1D9
100
AcDbEntity
  8
0
100
AcDbLine
 10
260.9426327402451
 20
689.9999899999961
 30
0.0
 11
260.9426327402451
 21
684.9999999999964
 31
0.0
  0
LINE
  5
D42
330
1D9
100
AcDbEntity
  8
0
100
AcDbLine
 10
259.592622740245
 20
684.9999999999964
 30
0.0
 11
259.592622740245
 21
689.9999899999961
 31
0.0
  0
LINE
  5
D43
330
1D9
100
AcDbEntity
  8
0
100
AcDbLine
 10
232.5000000000004
 20
684.9999999999964
 30
0.0
 11
232.5000000000004
 21
689.9999899999961
 31
0.0
  0
LINE
  5
D44
330
1D9
100
AcDbEntity
  8
0
100
AcDbLine
 10
233.8500100000004
 20
689.9999899999961
 30
0.0
 11
233.8500100000004
 21
684.9999999999964
 31
0.0
  0
LINE
  5
D45
330
1D9
100
AcDbEntity
  8
0
100
AcDbLine
 10
251.1500100000001
 20
689.9999899999961
 30
0.0
 11
251.1500100000001
 21
684.9999999999964
 31
0.0
  0
LINE
  5
D46
330
1D9
100
AcDbEntity
  8
0
100
AcDbLine
 10
252.5000199999999
 20
684.9999999999964
 30
0.0
 11
252.5000200000004
 21
689.9999899999961
 31
0.0
  0
LINE
  5
D47
330
1D9
100
AcDbEntity
  8
0
100
AcDbLine
 10
223.5000000000004
 20
689.9999999999961
 30
0.0
 11
222.5000000000004
 21
690.9999999999961
 31
0.0
  0
LINE
  5
D48
330
1D9
100
AcDbEntity
  8
0
100
AcDbLine
 10
222.5000000000004
 20
690.9999999999961
 30
0.0
 11
222.5000000000004
 21
712.9999999999961
 31
0.0
  0
ARC
  5
D49
330
1D9
100
AcDbEntity
  8
0
100
AcDbCircle
 10
282.5830037970116
 20
722.1693181818145
 30
0.0
 40
4.330681818181816
100
AcDbArc
 50
359.0828675395623
 51
180.9171324604374
  0
LINE
  5
D4A
330
1D9
100
AcDbEntity
  8
0
100
AcDbLine
 10
278.2528767780894
 20
713.9999999999964
 30
0.0
 11
278.2528767780894
 21
722.0999999999961
 31
0.0
  0
LINE
  5
D4B
330
1D9
100
AcDbEntity
  8
0
100
AcDbLine
 10
286.9131308159338
 20
722.0999999999961
 30
0.0
 11
286.9131308159338
 21
713.9999999999964
 31
0.0
  0
LINE
  5
D4C
330
1D9
100
AcDbEntity
  8
0
100
AcDbLine
 10
279.5926427402445
 20
684.9999999999964
 30
0.0
 11
279.592642740245
 21
689.9999899999961
 31
0.0
  0
LINE
  5
D4D
330
1D9
100
AcDbEntity
  8
0
100
AcDbLine
 10
278.2426327402449
 20
689.9999899999961
 30
0.0
 11
278.2426327402449
 21
684.9999999999964
 31
0.0
  0
LINE
  5
D4E
330
1D9
100
AcDbEntity
  8
0
100
AcDbLine
 10
343.6500100000003
 20
689.9999899999961
 30
0.0
 11
343.6500100000003
 21
684.9999999999964
 31
0.0
  0
LINE
  5
D4F
330
1D9
100
AcDbEntity
  8
0
100
AcDbLine
 10
326.3500100000005
 20
689.9999899999961
 30
0.0
 11
326.3500100000005
 21
684.9999999999964
 31
0.0
  0
LINE
  5
D50
330
1D9
100
AcDbEntity
  8
0
100
AcDbLine
 10
325.0000000000003
 20
684.9999999999964
 30
0.0
 11
325.0000000000003
 21
689.9999899999961
 31
0.0
  0
LINE
  5
D51
330
1D9
100
AcDbEntity
  8
0
100
AcDbLine
 10
447.5000000000004
 20
683.9999999999962
 30
0.0
 11
447.5000000000004
 21
656.9999999999962
 31
0.0
  0
LINE
  5
D52
330
1D9
100
AcDbEntity
  8
0
100
AcDbLine
 10
384.4974746830588
 20
641.9999999999967
 30
0.0
 11
384.4974746830588
 21
661.9999999999967
 31
0.0
  0
LINE
  5
D53
330
1D9
100
AcDbEntity
  8
0
100
AcDbLine
 10
405.0000000000004
 20
641.9999999999962
 30
0.0
 11
405.0000000000008
 21
661.9999999999967
 31
0.0
  0
LINE
  5
D54
330
1D9
100
AcDbEntity
  8
0
100
AcDbLine
 10
414.0000000000005
 20
647.9999999999964
 30
0.0
 11
415.0000000000003
 21
648.9999999999962
 31
0.0
  0
LINE
  5
D55
330
1D9
100
AcDbEntity
  8
0
100
AcDbLine
 10
415.0000000000003
 20
648.9999999999962
 30
0.0
 11
415.0000000000003
 21
655.9999999999964
 31
0.0
  0
LINE
  5
D56
330
1D9
100
AcDbEntity
  8
0
100
AcDbLine
 10
397.0000000000018
 20
644.9999999999962
 30
0.0
 11
397.0000000000018
 21
647.9999999999964
 31
0.0
  0
LINE
  5
D57
330
1D9
100
AcDbEntity
  8
0
100
AcDbLine
 10
446.5000000000004
 20
655.9999999999964
 30
0.0
 11
447.5000000000004
 21
656.9999999999962
 31
0.0
  0
LINE
  5
D58
330
1D9
100
AcDbEntity
  8
0
100
AcDbLine
 10
440.4903810567669
 20
726.4999999999964
 30
0.0
 11
414.5096189432337
 21
726.4999999999964
 31
0.0
  0
ARC
  5
D59
330
1D9
100
AcDbEntity
  8
0
100
AcDbCircle
 10
427.5000000000003
 20
715.7772727272689
 30
0.0
 40
10.72272727272727
100
AcDbArc
 50
36.13264570574848
 51
143.8673542942515
  0
LINE
  5
D5A
330
1D9
100
AcDbEntity
  8
0
100
AcDbLine
 10
413.3977583165223
 20
726.4999999999964
 30
0.0
 11
387.4169962029891
 21
726.4999999999964
 31
0.0
  0
LINE
  5
D5B
330
1D9
100
AcDbEntity
  8
0
100
AcDbLine
 10
383.0868691840668
 20
722.0999999999961
 30
0.0
 11
383.0868691840668
 21
713.9999999999964
 31
0.0
  0
LINE
  5
D5C
330
1D9
100
AcDbEntity
  8
0
100
AcDbLine
 10
391.7471232219113
 20
713.9999999999964
 30
0.0
 11
391.7471232219113
 21
722.0999999999961
 31
0.0
  0
ARC
  5
D5D
330
1D9
100
AcDbEntity
  8
0
100
AcDbCircle
 10
387.4169962029891
 20
722.1693181818145
 30
0.0
 40
4.330681818181816
100
AcDbArc
 50
359.0828675395623
 51
180.9171324604374
  0
LINE
  5
D5E
330
1D9
100
AcDbEntity
  8
0
100
AcDbLine
 10
418.8397459621559
 20
713.9999999999964
 30
0.0
 11
418.8397459621559
 21
722.0999999999961
 31
0.0
  0
LINE
  5
D5F
330
1D9
100
AcDbEntity
  8
0
100
AcDbLine
 10
417.7278853354446
 20
713.9999999999964
 30
0.0
 11
417.7278853354446
 21
722.0999999999961
 31
0.0
  0
LINE
  5
D60
330
1D9
100
AcDbEntity
  8
0
100
AcDbLine
 10
409.0676312976
 20
713.9999999999964
 30
0.0
 11
409.0676312976
 21
722.0999999999961
 31
0.0
  0
ARC
  5
D61
330
1D9
100
AcDbEntity
  8
0
100
AcDbCircle
 10
413.3977583165223
 20
722.1693181818145
 30
0.0
 40
4.330681818181814
100
AcDbArc
 50
359.0828675395623
 51
180.9171324604374
  0
ARC
  5
D62
330
1D9
100
AcDbEntity
  8
0
100
AcDbCircle
 10
414.5096189432337
 20
722.1693181818145
 30
0.0
 40
4.330681818181816
100
AcDbArc
 50
359.0828675395623
 51
97.3754201763667
  0
ARC
  5
D63
330
1D9
100
AcDbEntity
  8
0
100
AcDbCircle
 10
400.4073772597557
 20
715.7772727272689
 30
0.0
 40
10.72272727272727
100
AcDbArc
 50
36.13264570574848
 51
143.8673542942515
  0
LINE
  5
D64
330
1D9
100
AcDbEntity
  8
0
100
AcDbLine
 10
391.7573672597558
 20
689.9999899999961
 30
0.0
 11
391.7573672597558
 21
684.9999999999964
 31
0.0
  0
LINE
  5
D65
330
1D9
100
AcDbEntity
  8
0
100
AcDbLine
 10
390.4073572597561
 20
684.9999999999964
 30
0.0
 11
390.4073572597557
 21
689.9999899999961
 31
0.0
  0
LINE
  5
D66
330
1D9
100
AcDbEntity
  8
0
100
AcDbLine
 10
417.4999800000008
 20
684.9999999999964
 30
0.0
 11
417.4999800000005
 21
689.9999899999961
 31
0.0
  0
LINE
  5
D67
330
1D9
100
AcDbEntity
  8
0
100
AcDbLine
 10
418.8499900000006
 20
689.9999899999961
 30
0.0
 11
418.8499900000006
 21
684.9999999999964
 31
0.0
  0
LINE
  5
D68
330
1D9
100
AcDbEntity
  8
0
100
AcDbLine
 10
410.4073772597558
 20
684.9999999999964
 30
0.0
 11
410.4073772597558
 21
689.9999899999961
 31
0.0
  0
LINE
  5
D69
330
1D9
100
AcDbEntity
  8
0
100
AcDbLine
 10
409.0573672597556
 20
689.9999899999961
 30
0.0
 11
409.0573672597556
 21
684.9999999999964
 31
0.0
  0
LINE
  5
D6A
330
1D9
100
AcDbEntity
  8
0
100
AcDbLine
 10
345.0000199999998
 20
684.9999999999964
 30
0.0
 11
345.0000200000004
 21
689.9999899999961
 31
0.0
  0
LINE
  5
D6B
330
1D9
100
AcDbEntity
  8
0
100
AcDbLine
 10
444.8205080756893
 20
713.9999999999964
 30
0.0
 11
444.8205080756893
 21
722.0999999999961
 31
0.0
  0
LINE
  5
D6C
330
1D9
100
AcDbEntity
  8
0
100
AcDbLine
 10
436.1602540378448
 20
713.9999999999964
 30
0.0
 11
436.1602540378448
 21
722.0999999999961
 31
0.0
  0
ARC
  5
D6D
330
1D9
100
AcDbEntity
  8
0
100
AcDbCircle
 10
440.4903810567669
 20
722.1693181818145
 30
0.0
 40
4.330681818181814
100
AcDbArc
 50
359.0828675395623
 51
180.9171324604374
  0
LINE
  5
D6E
330
1D9
100
AcDbEntity
  8
0
100
AcDbLine
 10
447.5000000000004
 20
712.9999999999961
 30
0.0
 11
446.5000000000004
 21
713.9999999999964
 31
0.0
  0
LINE
  5
D6F
330
1D9
100
AcDbEntity
  8
0
100
AcDbLine
 10
447.5000000000004
 20
683.9999999999962
 30
0.0
 11
446.5000000000004
 21
684.9999999999964
 31
0.0
  0
LINE
  5
D70
330
1D9
100
AcDbEntity
  8
0
100
AcDbLine
 10
436.1499900000002
 20
689.9999899999961
 30
0.0
 11
436.1499900000002
 21
684.9999999999964
 31
0.0
  0
LINE
  5
D71
330
1D9
100
AcDbEntity
  8
0
100
AcDbLine
 10
437.5000000000004
 20
684.9999999999964
 30
0.0
 11
437.5000000000004
 21
689.9999899999961
 31
0.0
  0
LINE
  5
D72
330
1D9
100
AcDbEntity
  8
0
100
AcDbLine
 10
446.5000000000004
 20
689.9999999999961
 30
0.0
 11
447.5000000000004
 21
690.9999999999961
 31
0.0
  0
LINE
  5
D73
330
1D9
100
AcDbEntity
  8
0
100
AcDbLine
 10
447.5000000000004
 20
690.9999999999961
 30
0.0
 11
447.5000000000004
 21
712.9999999999961
 31
0.0
  0
TEXT
  5
D74
330
1D9
100
AcDbEntity
  8
0
100
AcDbText
 10
184.0000000000008
 20
1017.199999999998
 30
0.0
 40
15.0
  1
パイプサイレンサー：ＫＶＨ－３２Ｎ
 72
     4
 11
335.0000000000008
 21
1024.999999999999
 31
0.0
100
AcDbText
  0
LINE
  5
D75
330
1D9
100
AcDbEntity
  8
0
100
AcDbLine
 10
447.5000000000004
 20
903.9999999999963
 30
0.0
 11
447.5000000000004
 21
881.9999999999961
 31
0.0
  0
LINE
  5
D76
330
1D9
100
AcDbEntity
  8
0
100
AcDbLine
 10
222.5000000000004
 20
903.9999999999963
 30
0.0
 11
222.5000000000004
 21
881.9999999999961
 31
0.0
  0
LINE
  5
D77
330
1D9
100
AcDbEntity
  8
0
100
AcDbLine
 10
260.8380151290439
 20
820.7499999999964
 30
0.0
 11
409.1619848709574
 21
820.7499999999964
 31
0.0
  0
LINE
  5
D78
330
1D9
100
AcDbEntity
  8
0
100
AcDbLine
 10
260.6237484682015
 20
819.2812581840071
 30
0.0
 11
409.3762515317997
 21
819.2812581840071
 31
0.0
  0
LINE
  5
D79
330
1D9
100
AcDbEntity
  8
0
100
AcDbLine
 10
223.5000000000004
 20
880.9999999999961
 30
0.0
 11
446.5000000000004
 21
880.9999999999961
 31
0.0
  0
LINE
  5
D7B
330
1D9
100
AcDbEntity
  8
0
100
AcDbLine
 10
260.6237484682015
 20
775.7187418159856
 30
0.0
 11
409.3762515317997
 21
775.7187418159856
 31
0.0
  0
LINE
  5
D7C
330
1D9
100
AcDbEntity
  8
0
100
AcDbLine
 10
260.8380151290439
 20
774.2499999999964
 30
0.0
 11
409.1619848709574
 21
774.2499999999964
 31
0.0
  0
ARC
  5
D7D
330
1D9
100
AcDbEntity
  8
0
100
AcDbCircle
 10
335.0000000000004
 20
797.4999999999964
 30
0.0
 40
77.5
100
AcDbArc
 50
159.3485105906783
 51
162.5423968762681
  0
ARC
  5
D7E
330
1D9
100
AcDbEntity
  8
0
100
AcDbCircle
 10
335.0000000000004
 20
797.4999999999964
 30
0.0
 40
77.5
100
AcDbArc
 50
163.6772080106784
 51
196.3227919893215
  0
ARC
  5
D7F
330
1D9
100
AcDbEntity
  8
0
100
AcDbCircle
 10
260.8380151290439
 20
819.9999999999961
 30
0.0
 40
0.75
100
AcDbArc
 50
90.0
 51
253.39996928602
  0
ARC
  5
D80
330
1D9
100
AcDbEntity
  8
0
100
AcDbCircle
 10
260.8380151290439
 20
774.9999999999961
 30
0.0
 40
0.75
100
AcDbArc
 50
106.6000307139798
 51
270.0
  0
ARC
  5
D81
330
1D9
100
AcDbEntity
  8
0
100
AcDbCircle
 10
335.0000000000004
 20
797.4999999999964
 30
0.0
 40
77.5
100
AcDbArc
 50
197.4576031237317
 51
200.6514894093216
  0
ARC
  5
D82
330
1D9
100
AcDbEntity
  8
0
100
AcDbCircle
 10
218.5000000000012
 20
753.5910031997937
 30
0.0
 40
47.0
100
AcDbArc
 50
0.0
 51
20.65148940932159
  0
LINE
  5
D83
330
1D9
100
AcDbEntity
  8
0
100
AcDbLine
 10
256.6022416834785
 20
868.4999999999961
 30
0.0
 11
282.5830037970116
 21
868.4999999999961
 31
0.0
  0
ARC
  5
D84
330
1D9
100
AcDbEntity
  8
0
100
AcDbCircle
 10
269.592622740245
 20
879.2227272727236
 30
0.0
 40
10.72272727272727
100
AcDbArc
 50
216.1326457057484
 51
323.8673542942515
  0
LINE
  5
D85
330
1D9
100
AcDbEntity
  8
0
100
AcDbLine
 10
222.5000000000004
 20
881.9999999999961
 30
0.0
 11
223.5000000000004
 21
880.9999999999961
 31
0.0
  0
LINE
  5
D86
330
1D9
100
AcDbEntity
  8
0
100
AcDbLine
 10
225.1794919243116
 20
880.9999999999961
 30
0.0
 11
225.1794919243116
 21
872.8999999999965
 31
0.0
  0
LINE
  5
D87
330
1D9
100
AcDbEntity
  8
0
100
AcDbLine
 10
229.5096189432337
 20
868.4999999999961
 30
0.0
 11
255.4903810567671
 21
868.4999999999961
 31
0.0
  0
LINE
  5
D88
330
1D9
100
AcDbEntity
  8
0
100
AcDbLine
 10
251.1602540378448
 20
880.9999999999961
 30
0.0
 11
251.1602540378448
 21
872.8999999999965
 31
0.0
  0
LINE
  5
D89
330
1D9
100
AcDbEntity
  8
0
100
AcDbLine
 10
233.8397459621559
 20
880.9999999999961
 30
0.0
 11
233.8397459621559
 21
872.8999999999965
 31
0.0
  0
ARC
  5
D8A
330
1D9
100
AcDbEntity
  8
0
100
AcDbCircle
 10
229.5096189432337
 20
872.830681818178
 30
0.0
 40
4.330681818181814
100
AcDbArc
 50
179.0828675395624
 51
0.9171324604375683
  0
ARC
  5
D8B
330
1D9
100
AcDbEntity
  8
0
100
AcDbCircle
 10
242.5000000000004
 20
879.2227272727236
 30
0.0
 40
10.72272727272727
100
AcDbArc
 50
216.1326457057484
 51
323.8673542942515
  0
LINE
  5
D8C
330
1D9
100
AcDbEntity
  8
0
100
AcDbLine
 10
252.2721146645563
 20
880.9999999999961
 30
0.0
 11
252.2721146645563
 21
872.8999999999965
 31
0.0
  0
LINE
  5
D8D
330
1D9
100
AcDbEntity
  8
0
100
AcDbLine
 10
260.9323687024007
 20
880.9999999999961
 30
0.0
 11
260.9323687024007
 21
872.8999999999965
 31
0.0
  0
ARC
  5
D8E
330
1D9
100
AcDbEntity
  8
0
100
AcDbCircle
 10
256.6022416834785
 20
872.830681818178
 30
0.0
 40
4.330681818181814
100
AcDbArc
 50
179.0828675395624
 51
0.9171324604375683
  0
ARC
  5
D8F
330
1D9
100
AcDbEntity
  8
0
100
AcDbCircle
 10
255.4903810567671
 20
872.830681818178
 30
0.0
 40
4.330681818181816
100
AcDbArc
 50
179.0828675395624
 51
277.3754201763665
  0
LINE
  5
D90
330
1D9
100
AcDbEntity
  8
0
100
AcDbLine
 10
265.5000000000013
 20
841.408996800199
 30
0.0
 11
265.5000000000013
 21
868.4999999999961
 31
0.0
  0
ARC
  5
D91
330
1D9
100
AcDbEntity
  8
0
100
AcDbCircle
 10
218.5000000000012
 20
841.408996800199
 30
0.0
 40
47.0
100
AcDbArc
 50
339.3485105906784
 51
0.0
  0
LINE
  5
D92
330
1D9
100
AcDbEntity
  8
0
100
AcDbLine
 10
286.9131308159338
 20
872.8999999999965
 30
0.0
 11
286.9131308159338
 21
880.9999999999961
 31
0.0
  0
LINE
  5
D93
330
1D9
100
AcDbEntity
  8
0
100
AcDbLine
 10
278.2528767780894
 20
880.9999999999961
 30
0.0
 11
278.2528767780894
 21
872.8999999999965
 31
0.0
  0
ARC
  5
D94
330
1D9
100
AcDbEntity
  8
0
100
AcDbCircle
 10
282.5830037970116
 20
872.830681818178
 30
0.0
 40
4.330681818181816
100
AcDbArc
 50
179.0828675395624
 51
0.9171324604375683
  0
ARC
  5
D95
330
1D9
100
AcDbEntity
  8
0
100
AcDbCircle
 10
335.0000000000004
 20
797.4999999999964
 30
0.0
 40
77.5
100
AcDbArc
 50
17.45760312373177
 51
20.65148940932159
  0
ARC
  5
D96
330
1D9
100
AcDbEntity
  8
0
100
AcDbCircle
 10
335.0000000000004
 20
797.4999999999964
 30
0.0
 40
77.5
100
AcDbArc
 50
343.6772080106783
 51
16.32279198932158
  0
ARC
  5
D97
330
1D9
100
AcDbEntity
  8
0
100
AcDbCircle
 10
409.1619848709574
 20
819.9999999999961
 30
0.0
 40
0.75
100
AcDbArc
 50
286.6000307139799
 51
90.0
  0
ARC
  5
D98
330
1D9
100
AcDbEntity
  8
0
100
AcDbCircle
 10
409.1619848709574
 20
774.9999999999961
 30
0.0
 40
0.75
100
AcDbArc
 50
270.0
 51
73.39996928602005
  0
ARC
  5
D99
330
1D9
100
AcDbEntity
  8
0
100
AcDbCircle
 10
335.0000000000004
 20
797.4999999999964
 30
0.0
 40
77.5
100
AcDbArc
 50
339.3485105906784
 51
342.5423968762673
  0
ARC
  5
D9A
330
1D9
100
AcDbEntity
  8
0
100
AcDbCircle
 10
451.4999999999995
 20
753.5910031997937
 30
0.0
 40
47.0
100
AcDbArc
 50
159.3485105906783
 51
180.0
  0
ARC
  5
D9B
330
1D9
100
AcDbEntity
  8
0
100
AcDbCircle
 10
427.5000000000003
 20
879.2227272727236
 30
0.0
 40
10.72272727272727
100
AcDbArc
 50
216.1326457057484
 51
323.8673542942515
  0
LINE
  5
D9C
330
1D9
100
AcDbEntity
  8
0
100
AcDbLine
 10
440.4903810567669
 20
868.4999999999961
 30
0.0
 11
414.5096189432337
 21
868.4999999999961
 31
0.0
  0
ARC
  5
D9D
330
1D9
100
AcDbEntity
  8
0
100
AcDbCircle
 10
400.4073772597557
 20
879.2227272727236
 30
0.0
 40
10.72272727272727
100
AcDbArc
 50
216.1326457057484
 51
323.8673542942515
  0
ARC
  5
D9E
330
1D9
100
AcDbEntity
  8
0
100
AcDbCircle
 10
414.5096189432337
 20
872.830681818178
 30
0.0
 40
4.330681818181816
100
AcDbArc
 50
262.6245798236333
 51
0.9171324604375683
  0
ARC
  5
D9F
330
1D9
100
AcDbEntity
  8
0
100
AcDbCircle
 10
413.3977583165223
 20
872.830681818178
 30
0.0
 40
4.330681818181814
100
AcDbArc
 50
179.0828675395624
 51
0.9171324604375683
  0
LINE
  5
DA0
330
1D9
100
AcDbEntity
  8
0
100
AcDbLine
 10
409.0676312976
 20
880.9999999999961
 30
0.0
 11
409.0676312976
 21
872.8999999999965
 31
0.0
  0
LINE
  5
DA1
330
1D9
100
AcDbEntity
  8
0
100
AcDbLine
 10
417.7278853354446
 20
880.9999999999961
 30
0.0
 11
417.7278853354446
 21
872.8999999999965
 31
0.0
  0
LINE
  5
DA2
330
1D9
100
AcDbEntity
  8
0
100
AcDbLine
 10
418.8397459621559
 20
880.9999999999961
 30
0.0
 11
418.8397459621559
 21
872.8999999999965
 31
0.0
  0
ARC
  5
DA3
330
1D9
100
AcDbEntity
  8
0
100
AcDbCircle
 10
387.4169962029891
 20
872.830681818178
 30
0.0
 40
4.330681818181816
100
AcDbArc
 50
179.0828675395624
 51
0.9171324604375683
  0
LINE
  5
DA4
330
1D9
100
AcDbEntity
  8
0
100
AcDbLine
 10
391.7471232219113
 20
880.9999999999961
 30
0.0
 11
391.7471232219113
 21
872.8999999999965
 31
0.0
  0
LINE
  5
DA5
330
1D9
100
AcDbEntity
  8
0
100
AcDbLine
 10
383.0868691840668
 20
872.8999999999965
 30
0.0
 11
383.0868691840668
 21
880.9999999999961
 31
0.0
  0
LINE
  5
DA6
330
1D9
100
AcDbEntity
  8
0
100
AcDbLine
 10
413.3977583165223
 20
868.4999999999961
 30
0.0
 11
387.4169962029891
 21
868.4999999999961
 31
0.0
  0
LINE
  5
DA7
330
1D9
100
AcDbEntity
  8
0
100
AcDbLine
 10
404.4999999999994
 20
841.408996800199
 30
0.0
 11
404.4999999999994
 21
868.4999999999961
 31
0.0
  0
ARC
  5
DA8
330
1D9
100
AcDbEntity
  8
0
100
AcDbCircle
 10
451.4999999999995
 20
841.408996800199
 30
0.0
 40
47.0
100
AcDbArc
 50
180.0
 51
200.6514894093216
  0
LINE
  5
DA9
330
1D9
100
AcDbEntity
  8
0
100
AcDbLine
 10
447.5000000000004
 20
881.9999999999961
 30
0.0
 11
446.5000000000004
 21
880.9999999999961
 31
0.0
  0
ARC
  5
DAA
330
1D9
100
AcDbEntity
  8
0
100
AcDbCircle
 10
440.4903810567669
 20
872.830681818178
 30
0.0
 40
4.330681818181814
100
AcDbArc
 50
179.0828675395624
 51
0.9171324604375683
  0
LINE
  5
DAB
330
1D9
100
AcDbEntity
  8
0
100
AcDbLine
 10
436.1602540378448
 20
880.9999999999961
 30
0.0
 11
436.1602540378448
 21
872.8999999999965
 31
0.0
  0
LINE
  5
DAC
330
1D9
100
AcDbEntity
  8
0
100
AcDbLine
 10
444.8205080756893
 20
880.9999999999961
 30
0.0
 11
444.8205080756893
 21
872.8999999999965
 31
0.0
  0
LINE
  5
DAD
330
1D9
100
AcDbEntity
  8
0
100
AcDbLine
 10
273.0000000000018
 20
949.9999999999964
 30
0.0
 11
397.0000000000018
 21
949.9999999999964
 31
0.0
  0
LINE
  5
DAE
330
1D9
100
AcDbEntity
  8
0
100
AcDbLine
 10
446.4999999999998
 20
938.9999999999968
 30
0.0
 11
223.5000000000004
 21
938.9999999999963
 31
0.0
  0
LINE
  5
DAF
330
1D9
100
AcDbEntity
  8
0
100
AcDbLine
 10
256.0000000000004
 20
946.9999999999963
 30
0.0
 11
414.0000000000008
 21
946.9999999999963
 31
0.0
  0
LINE
  5
DB0
330
1D9
100
AcDbEntity
  8
0
100
AcDbLine
 10
223.5000000000004
 20
904.9999999999963
 30
0.0
 11
446.5000000000004
 21
904.9999999999963
 31
0.0
  0
LINE
  5
DB1
330
1D9
100
AcDbEntity
  8
0
100
AcDbLine
 10
223.5000000000004
 20
909.9999999999964
 30
0.0
 11
446.5000000000004
 21
909.9999999999964
 31
0.0
  0
LINE
  5
DB2
330
1D9
100
AcDbEntity
  8
0
100
AcDbLine
 10
255.0000000000004
 20
945.9999999999963
 30
0.0
 11
255.0000000000004
 21
938.9999999999963
 31
0.0
  0
LINE
  5
DB3
330
1D9
100
AcDbEntity
  8
0
100
AcDbLine
 10
256.0000000000004
 20
946.9999999999963
 30
0.0
 11
255.0000000000004
 21
945.9999999999963
 31
0.0
  0
LINE
  5
DB4
330
1D9
100
AcDbEntity
  8
0
100
AcDbLine
 10
222.5000000000004
 20
910.9999999999963
 30
0.0
 11
222.5000000000004
 21
937.9999999999963
 31
0.0
  0
LINE
  5
DB5
330
1D9
100
AcDbEntity
  8
0
100
AcDbLine
 10
223.5000000000004
 20
938.9999999999963
 30
0.0
 11
222.5000000000004
 21
937.9999999999963
 31
0.0
  0
LINE
  5
DB6
330
1D9
100
AcDbEntity
  8
0
100
AcDbLine
 10
265.0000000000003
 20
952.9999999999963
 30
0.0
 11
265.0
 21
932.999999999996
 31
0.0
  0
LINE
  5
DB7
330
1D9
100
AcDbEntity
  8
0
100
AcDbLine
 10
223.5000000000004
 20
904.9999999999963
 30
0.0
 11
222.5000000000004
 21
903.9999999999963
 31
0.0
  0
LINE
  5
DB8
330
1D9
100
AcDbEntity
  8
0
100
AcDbLine
 10
252.5000199999999
 20
909.9999999999964
 30
0.0
 11
252.5000200000004
 21
905.0000099999966
 31
0.0
  0
LINE
  5
DB9
330
1D9
100
AcDbEntity
  8
0
100
AcDbLine
 10
251.1500100000001
 20
905.0000099999966
 30
0.0
 11
251.1500100000001
 21
909.9999999999964
 31
0.0
  0
LINE
  5
DBA
330
1D9
100
AcDbEntity
  8
0
100
AcDbLine
 10
233.8500100000004
 20
905.0000099999966
 30
0.0
 11
233.8500100000004
 21
909.9999999999964
 31
0.0
  0
LINE
  5
DBB
330
1D9
100
AcDbEntity
  8
0
100
AcDbLine
 10
232.5000000000004
 20
909.9999999999964
 30
0.0
 11
232.5000000000004
 21
905.0000099999966
 31
0.0
  0
LINE
  5
DBC
330
1D9
100
AcDbEntity
  8
0
100
AcDbLine
 10
259.592622740245
 20
909.9999999999964
 30
0.0
 11
259.592622740245
 21
905.0000099999966
 31
0.0
  0
LINE
  5
DBD
330
1D9
100
AcDbEntity
  8
0
100
AcDbLine
 10
260.9426327402451
 20
905.0000099999966
 30
0.0
 11
260.9426327402451
 21
909.9999999999964
 31
0.0
  0
LINE
  5
DBE
330
1D9
100
AcDbEntity
  8
0
100
AcDbLine
 10
222.5000000000004
 20
910.9999999999963
 30
0.0
 11
223.5000000000004
 21
909.9999999999964
 31
0.0
  0
LINE
  5
DBF
330
1D9
100
AcDbEntity
  8
0
100
AcDbLine
 10
273.0000000000018
 20
949.9999999999964
 30
0.0
 11
273.0000000000018
 21
946.9999999999963
 31
0.0
  0
LINE
  5
DC0
330
1D9
100
AcDbEntity
  8
0
100
AcDbLine
 10
285.5025253169419
 20
952.9999999999956
 30
0.0
 11
285.5025253169419
 21
932.999999999996
 31
0.0
  0
LINE
  5
DC1
330
1D9
100
AcDbEntity
  8
0
100
AcDbLine
 10
325.0000000000003
 20
909.9999999999964
 30
0.0
 11
325.0000000000003
 21
905.0000099999966
 31
0.0
  0
LINE
  5
DC2
330
1D9
100
AcDbEntity
  8
0
100
AcDbLine
 10
326.3500100000005
 20
905.0000099999966
 30
0.0
 11
326.3500100000005
 21
909.9999999999964
 31
0.0
  0
LINE
  5
DC3
330
1D9
100
AcDbEntity
  8
0
100
AcDbLine
 10
343.6500100000003
 20
905.0000099999966
 30
0.0
 11
343.6500100000003
 21
909.9999999999964
 31
0.0
  0
LINE
  5
DC4
330
1D9
100
AcDbEntity
  8
0
100
AcDbLine
 10
278.2426327402449
 20
905.0000099999966
 30
0.0
 11
278.2426327402449
 21
909.9999999999964
 31
0.0
  0
LINE
  5
DC5
330
1D9
100
AcDbEntity
  8
0
100
AcDbLine
 10
279.5926427402445
 20
909.9999999999964
 30
0.0
 11
279.592642740245
 21
905.0000099999966
 31
0.0
  0
LINE
  5
DC6
330
1D9
100
AcDbEntity
  8
0
100
AcDbLine
 10
397.0000000000018
 20
949.9999999999964
 30
0.0
 11
397.0000000000018
 21
946.9999999999963
 31
0.0
  0
LINE
  5
DC7
330
1D9
100
AcDbEntity
  8
0
100
AcDbLine
 10
415.0000000000003
 20
945.9999999999963
 30
0.0
 11
415.0000000000003
 21
938.9999999999963
 31
0.0
  0
LINE
  5
DC8
330
1D9
100
AcDbEntity
  8
0
100
AcDbLine
 10
414.0000000000005
 20
946.9999999999963
 30
0.0
 11
415.0000000000003
 21
945.9999999999963
 31
0.0
  0
LINE
  5
DC9
330
1D9
100
AcDbEntity
  8
0
100
AcDbLine
 10
405.0000000000004
 20
952.9999999999963
 30
0.0
 11
405.0000000000008
 21
932.999999999996
 31
0.0
  0
LINE
  5
DCA
330
1D9
100
AcDbEntity
  8
0
100
AcDbLine
 10
384.4974746830588
 20
952.9999999999956
 30
0.0
 11
384.4974746830588
 21
932.999999999996
 31
0.0
  0
LINE
  5
DCB
330
1D9
100
AcDbEntity
  8
0
100
AcDbLine
 10
345.0000199999998
 20
909.9999999999964
 30
0.0
 11
345.0000200000004
 21
905.0000099999966
 31
0.0
  0
LINE
  5
DCC
330
1D9
100
AcDbEntity
  8
0
100
AcDbLine
 10
409.0573672597556
 20
905.0000099999966
 30
0.0
 11
409.0573672597556
 21
909.9999999999964
 31
0.0
  0
LINE
  5
DCD
330
1D9
100
AcDbEntity
  8
0
100
AcDbLine
 10
410.4073772597558
 20
909.9999999999964
 30
0.0
 11
410.4073772597558
 21
905.0000099999966
 31
0.0
  0
LINE
  5
DCE
330
1D9
100
AcDbEntity
  8
0
100
AcDbLine
 10
418.8499900000006
 20
905.0000099999966
 30
0.0
 11
418.8499900000006
 21
909.9999999999964
 31
0.0
  0
LINE
  5
DCF
330
1D9
100
AcDbEntity
  8
0
100
AcDbLine
 10
417.4999800000008
 20
909.9999999999964
 30
0.0
 11
417.4999800000005
 21
905.0000099999966
 31
0.0
  0
LINE
  5
DD0
330
1D9
100
AcDbEntity
  8
0
100
AcDbLine
 10
390.4073572597561
 20
909.9999999999964
 30
0.0
 11
390.4073572597557
 21
905.0000099999966
 31
0.0
  0
LINE
  5
DD1
330
1D9
100
AcDbEntity
  8
0
100
AcDbLine
 10
391.7573672597558
 20
905.0000099999966
 30
0.0
 11
391.7573672597558
 21
909.9999999999964
 31
0.0
  0
LINE
  5
DD2
330
1D9
100
AcDbEntity
  8
0
100
AcDbLine
 10
446.5000000000004
 20
938.9999999999963
 30
0.0
 11
447.5000000000004
 21
937.9999999999963
 31
0.0
  0
LINE
  5
DD3
330
1D9
100
AcDbEntity
  8
0
100
AcDbLine
 10
447.5000000000004
 20
910.9999999999963
 30
0.0
 11
447.5000000000004
 21
937.9999999999963
 31
0.0
  0
LINE
  5
DD4
330
1D9
100
AcDbEntity
  8
0
100
AcDbLine
 10
446.5000000000004
 20
904.9999999999963
 30
0.0
 11
447.5000000000004
 21
903.9999999999963
 31
0.0
  0
LINE
  5
DD5
330
1D9
100
AcDbEntity
  8
0
100
AcDbLine
 10
437.5000000000004
 20
909.9999999999964
 30
0.0
 11
437.5000000000004
 21
905.0000099999966
 31
0.0
  0
LINE
  5
DD6
330
1D9
100
AcDbEntity
  8
0
100
AcDbLine
 10
436.1499900000002
 20
905.0000099999966
 30
0.0
 11
436.1499900000002
 21
909.9999999999964
 31
0.0
  0
LINE
  5
DD7
330
1D9
100
AcDbEntity
  8
0
100
AcDbLine
 10
447.5000000000004
 20
910.9999999999963
 30
0.0
 11
446.5000000000004
 21
909.9999999999964
 31
0.0
  0
LINE
  5
DD8
330
1D9
100
AcDbEntity
  8
0
100
AcDbLine
 10
385.0000000000004
 20
1176.499999999995
 30
0.0
 11
385.0000000000004
 21
1192.264075471769
 31
0.0
  0
LINE
  5
DD9
330
1D9
100
AcDbEntity
  8
0
100
AcDbLine
 10
285.0000000000004
 20
1176.499999999995
 30
0.0
 11
285.0000000000004
 21
1192.264075471769
 31
0.0
  0
ARC
  5
DDA
330
1D9
100
AcDbEntity
  8
0
100
AcDbCircle
 10
345.3923048454135
 20
1173.035714285709
 30
0.0
 40
3.464285714285713
100
AcDbArc
 50
359.4093113971838
 51
180.590688602816
  0
LINE
  5
DDB
330
1D9
100
AcDbEntity
  8
0
100
AcDbLine
 10
324.6076951545873
 20
1176.499999999995
 30
0.0
 11
345.3923048454135
 21
1176.499999999995
 31
0.0
  0
LINE
  5
DDC
330
1D9
100
AcDbEntity
  8
0
100
AcDbLine
 10
248.5000000000004
 20
1142.499999999995
 30
0.0
 11
421.4999999999998
 21
1142.499999999995
 31
0.0
  0
LINE
  5
DDD
330
1D9
100
AcDbEntity
  8
0
100
AcDbLine
 10
248.5000000000004
 20
1146.499999999994
 30
0.0
 11
421.5000000000004
 21
1146.499999999994
 31
0.0
  0
LINE
  5
DDE
330
1D9
100
AcDbEntity
  8
0
100
AcDbLine
 10
421.5000000000004
 20
1166.499999999994
 30
0.0
 11
248.5000000000004
 21
1166.499999999994
 31
0.0
  0
LINE
  5
DDF
330
1D9
100
AcDbEntity
  8
0
100
AcDbLine
 10
293.0000000000008
 20
1102.499999999995
 30
0.0
 11
377.0000000000008
 21
1102.499999999995
 31
0.0
  0
LINE
  5
DE0
330
1D9
100
AcDbEntity
  8
0
100
AcDbLine
 10
421.5000000000008
 20
1113.499999999995
 30
0.0
 11
248.5000000000004
 21
1113.499999999995
 31
0.0
  0
LINE
  5
DE1
330
1D9
100
AcDbEntity
  8
0
100
AcDbLine
 10
276.0000000000004
 20
1105.499999999995
 30
0.0
 11
394.0000000000013
 21
1105.499999999995
 31
0.0
  0
LINE
  5
DE2
330
1D9
100
AcDbEntity
  8
0
100
AcDbLine
 10
285.0000000000004
 20
1099.499999999995
 30
0.0
 11
285.0000000000008
 21
1119.499999999995
 31
0.0
  0
LINE
  5
DE3
330
1D9
100
AcDbEntity
  8
0
100
AcDbLine
 10
275.0000000000003
 20
1106.499999999994
 30
0.0
 11
275.0000000000003
 21
1113.499999999995
 31
0.0
  0
LINE
  5
DE4
330
1D9
100
AcDbEntity
  8
0
100
AcDbLine
 10
293.0000000000008
 20
1105.499999999995
 30
0.0
 11
293.0000000000008
 21
1102.499999999995
 31
0.0
  0
LINE
  5
DE5
330
1D9
100
AcDbEntity
  8
0
100
AcDbLine
 10
276.0000000000004
 20
1105.499999999995
 30
0.0
 11
275.0000000000003
 21
1106.499999999994
 31
0.0
  0
ARC
  5
DE6
330
1D9
100
AcDbEntity
  8
0
100
AcDbCircle
 10
265.0000000000003
 20
1167.892857142852
 30
0.0
 40
8.607142857142852
100
AcDbArc
 50
39.30789258193006
 51
143.6041208018989
  0
LINE
  5
DE7
330
1D9
100
AcDbEntity
  8
0
100
AcDbLine
 10
254.6076951545873
 20
1176.499999999995
 30
0.0
 11
275.3923048454133
 21
1176.499999999995
 31
0.0
  0
ARC
  5
DE8
330
1D9
100
AcDbEntity
  8
0
100
AcDbCircle
 10
254.6076951545873
 20
1173.035714285709
 30
0.0
 40
3.464285714285713
100
AcDbArc
 50
359.4093113971838
 51
180.590688602816
  0
LINE
  5
DE9
330
1D9
100
AcDbEntity
  8
0
100
AcDbLine
 10
258.0717967697251
 20
1166.499999999994
 30
0.0
 11
258.0717967697251
 21
1172.999999999995
 31
0.0
  0
LINE
  5
DEA
330
1D9
100
AcDbEntity
  8
0
100
AcDbLine
 10
251.1435935394493
 20
1166.499999999994
 30
0.0
 11
251.1435935394493
 21
1172.999999999995
 31
0.0
  0
LINE
  5
DEB
330
1D9
100
AcDbEntity
  8
0
100
AcDbLine
 10
256.9999800000005
 20
1142.499999999995
 30
0.0
 11
256.9999800000005
 21
1146.499989999995
 31
0.0
  0
LINE
  5
DEC
330
1D9
100
AcDbEntity
  8
0
100
AcDbLine
 10
258.1000000000003
 20
1146.499989999995
 30
0.0
 11
258.1000000000003
 21
1142.499999999995
 31
0.0
  0
LINE
  5
DED
330
1D9
100
AcDbEntity
  8
0
100
AcDbLine
 10
247.5000000000004
 20
1141.499999999995
 30
0.0
 11
248.5000000000004
 21
1142.499999999995
 31
0.0
  0
LINE
  5
DEE
330
1D9
100
AcDbEntity
  8
0
100
AcDbLine
 10
247.5000000000004
 20
1147.499999999995
 30
0.0
 11
248.5000000000004
 21
1146.499999999994
 31
0.0
  0
LINE
  5
DEF
330
1D9
100
AcDbEntity
  8
0
100
AcDbLine
 10
247.5000000000004
 20
1165.499999999995
 30
0.0
 11
248.5000000000004
 21
1166.499999999994
 31
0.0
  0
LINE
  5
DF0
330
1D9
100
AcDbEntity
  8
0
100
AcDbLine
 10
247.5000000000004
 20
1147.499999999995
 30
0.0
 11
247.5000000000004
 21
1165.499999999995
 31
0.0
  0
LINE
  5
DF1
330
1D9
100
AcDbEntity
  8
0
100
AcDbLine
 10
248.5000000000004
 20
1113.499999999995
 30
0.0
 11
247.5000000000004
 21
1114.499999999994
 31
0.0
  0
LINE
  5
DF2
330
1D9
100
AcDbEntity
  8
0
100
AcDbLine
 10
247.5000000000004
 20
1141.499999999995
 30
0.0
 11
247.5000000000004
 21
1114.499999999994
 31
0.0
  0
LINE
  5
DF3
330
1D9
100
AcDbEntity
  8
0
100
AcDbLine
 10
292.402545316942
 20
1146.499989999995
 30
0.0
 11
292.402545316942
 21
1142.499999999995
 31
0.0
  0
LINE
  5
DF4
330
1D9
100
AcDbEntity
  8
0
100
AcDbLine
 10
293.5025653169418
 20
1142.499999999995
 30
0.0
 11
293.5025653169418
 21
1146.499989999995
 31
0.0
  0
LINE
  5
DF5
330
1D9
100
AcDbEntity
  8
0
100
AcDbLine
 10
278.6025253169418
 20
1146.499989999995
 30
0.0
 11
278.6025253169418
 21
1142.499999999995
 31
0.0
  0
LINE
  5
DF6
330
1D9
100
AcDbEntity
  8
0
100
AcDbLine
 10
277.502505316942
 20
1142.499999999995
 30
0.0
 11
277.502505316942
 21
1146.499989999995
 31
0.0
  0
LINE
  5
DF7
330
1D9
100
AcDbEntity
  8
0
100
AcDbLine
 10
299.3589317774931
 20
1172.999999999995
 30
0.0
 11
299.3589317774931
 21
1166.499999999994
 31
0.0
  0
LINE
  5
DF8
330
1D9
100
AcDbEntity
  8
0
100
AcDbLine
 10
292.4307285472173
 20
1166.499999999994
 30
0.0
 11
292.4307285472173
 21
1172.999999999995
 31
0.0
  0
ARC
  5
DF9
330
1D9
100
AcDbEntity
  8
0
100
AcDbCircle
 10
295.894830162355
 20
1173.035714285709
 30
0.0
 40
3.464285714285713
100
AcDbArc
 50
359.4093113971838
 51
180.590688602816
  0
LINE
  5
DFA
330
1D9
100
AcDbEntity
  8
0
100
AcDbLine
 10
271.6461188563906
 20
1166.499999999994
 30
0.0
 11
271.6461188563906
 21
1172.999999999995
 31
0.0
  0
LINE
  5
DFB
330
1D9
100
AcDbEntity
  8
0
100
AcDbLine
 10
278.5743220866665
 20
1166.499999999994
 30
0.0
 11
278.5743220866665
 21
1172.999999999995
 31
0.0
  0
ARC
  5
DFC
330
1D9
100
AcDbEntity
  8
0
100
AcDbCircle
 10
275.1102204715289
 20
1173.035714285709
 30
0.0
 40
3.464285714285713
100
AcDbArc
 50
359.4093113971838
 51
180.590688602816
  0
LINE
  5
DFD
330
1D9
100
AcDbEntity
  8
0
100
AcDbLine
 10
275.1102204715289
 20
1176.499999999995
 30
0.0
 11
295.894830162355
 21
1176.499999999995
 31
0.0
  0
ARC
  5
DFE
330
1D9
100
AcDbEntity
  8
0
100
AcDbCircle
 10
285.5025253169419
 20
1167.892857142852
 30
0.0
 40
8.607142857142852
100
AcDbArc
 50
36.39587919810093
 51
143.6041208018989
  0
LINE
  5
DFF
330
1D9
100
AcDbEntity
  8
0
100
AcDbLine
 10
341.9000200000005
 20
1146.499989999995
 30
0.0
 11
341.9000200000005
 21
1142.499999999995
 31
0.0
  0
LINE
  5
E00
330
1D9
100
AcDbEntity
  8
0
100
AcDbLine
 10
343.0000400000003
 20
1142.499999999995
 30
0.0
 11
343.0000400000003
 21
1146.499989999995
 31
0.0
  0
LINE
  5
E01
330
1D9
100
AcDbEntity
  8
0
100
AcDbLine
 10
328.1000000000003
 20
1146.499989999995
 30
0.0
 11
328.1000000000003
 21
1142.499999999995
 31
0.0
  0
LINE
  5
E02
330
1D9
100
AcDbEntity
  8
0
100
AcDbLine
 10
326.9999800000005
 20
1142.499999999995
 30
0.0
 11
326.9999800000005
 21
1146.499989999995
 31
0.0
  0
LINE
  5
E03
330
1D9
100
AcDbEntity
  8
0
100
AcDbLine
 10
341.9282032302758
 20
1166.499999999994
 30
0.0
 11
341.9282032302758
 21
1172.999999999995
 31
0.0
  0
LINE
  5
E04
330
1D9
100
AcDbEntity
  8
0
100
AcDbLine
 10
321.1435935394491
 20
1166.499999999994
 30
0.0
 11
321.1435935394491
 21
1172.999999999995
 31
0.0
  0
LINE
  5
E05
330
1D9
100
AcDbEntity
  8
0
100
AcDbLine
 10
328.0717967697249
 20
1166.499999999994
 30
0.0
 11
328.0717967697249
 21
1172.999999999995
 31
0.0
  0
ARC
  5
E06
330
1D9
100
AcDbEntity
  8
0
100
AcDbCircle
 10
324.6076951545873
 20
1173.035714285709
 30
0.0
 40
3.464285714285713
100
AcDbArc
 50
359.4093113971838
 51
180.590688602816
  0
ARC
  5
E07
330
1D9
100
AcDbEntity
  8
0
100
AcDbCircle
 10
335.0000000000004
 20
1167.892857142852
 30
0.0
 40
8.607142857142852
100
AcDbArc
 50
36.39587919810093
 51
143.6041208018989
  0
LINE
  5
E08
330
1D9
100
AcDbEntity
  8
0
100
AcDbLine
 10
273.0000400000002
 20
1142.499999999995
 30
0.0
 11
273.0000400000002
 21
1146.499989999995
 31
0.0
  0
LINE
  5
E09
330
1D9
100
AcDbEntity
  8
0
100
AcDbLine
 10
271.9000200000004
 20
1146.499989999995
 30
0.0
 11
271.9000200000004
 21
1142.499999999995
 31
0.0
  0
LINE
  5
E0A
330
1D9
100
AcDbEntity
  8
0
100
AcDbLine
 10
385.0000000000012
 20
1099.499999999995
 30
0.0
 11
385.0000000000008
 21
1119.499999999995
 31
0.0
  0
LINE
  5
E0B
330
1D9
100
AcDbEntity
  8
0
100
AcDbLine
 10
395.0000000000004
 20
1106.499999999994
 30
0.0
 11
395.0000000000004
 21
1113.499999999995
 31
0.0
  0
LINE
  5
E0C
330
1D9
100
AcDbEntity
  8
0
100
AcDbLine
 10
377.0000000000008
 20
1105.499999999995
 30
0.0
 11
377.0000000000008
 21
1102.499999999995
 31
0.0
  0
LINE
  5
E0D
330
1D9
100
AcDbEntity
  8
0
100
AcDbLine
 10
394.0000000000003
 20
1105.499999999995
 30
0.0
 11
395.0000000000004
 21
1106.499999999994
 31
0.0
  0
LINE
  5
E0E
330
1D9
100
AcDbEntity
  8
0
100
AcDbLine
 10
398.0999800000003
 20
1146.499989999995
 30
0.0
 11
398.0999800000003
 21
1142.499999999995
 31
0.0
  0
LINE
  5
E0F
330
1D9
100
AcDbEntity
  8
0
100
AcDbLine
 10
396.9999600000005
 20
1142.499999999995
 30
0.0
 11
396.9999600000005
 21
1146.499989999995
 31
0.0
  0
LINE
  5
E10
330
1D9
100
AcDbEntity
  8
0
100
AcDbLine
 10
392.4974946830588
 20
1142.499999999995
 30
0.0
 11
392.4974946830588
 21
1146.499989999995
 31
0.0
  0
LINE
  5
E11
330
1D9
100
AcDbEntity
  8
0
100
AcDbLine
 10
391.3974746830589
 20
1146.499989999995
 30
0.0
 11
391.3974746830589
 21
1142.499999999995
 31
0.0
  0
LINE
  5
E12
330
1D9
100
AcDbEntity
  8
0
100
AcDbLine
 10
376.497434683059
 20
1142.499999999995
 30
0.0
 11
376.497434683059
 21
1146.499989999995
 31
0.0
  0
LINE
  5
E13
330
1D9
100
AcDbEntity
  8
0
100
AcDbLine
 10
377.5974546830588
 20
1146.499989999995
 30
0.0
 11
377.5974546830588
 21
1142.499999999995
 31
0.0
  0
LINE
  5
E14
330
1D9
100
AcDbEntity
  8
0
100
AcDbLine
 10
411.9000000000005
 20
1146.499989999995
 30
0.0
 11
411.9000000000005
 21
1142.499999999995
 31
0.0
  0
LINE
  5
E15
330
1D9
100
AcDbEntity
  8
0
100
AcDbLine
 10
413.0000200000004
 20
1142.499999999995
 30
0.0
 11
413.0000200000004
 21
1146.499989999995
 31
0.0
  0
LINE
  5
E16
330
1D9
100
AcDbEntity
  8
0
100
AcDbLine
 10
394.889779528472
 20
1176.499999999995
 30
0.0
 11
374.1051698376458
 21
1176.499999999995
 31
0.0
  0
LINE
  5
E17
330
1D9
100
AcDbEntity
  8
0
100
AcDbLine
 10
415.3923048454133
 20
1176.499999999995
 30
0.0
 11
394.6076951545874
 21
1176.499999999995
 31
0.0
  0
ARC
  5
E18
330
1D9
100
AcDbEntity
  8
0
100
AcDbCircle
 10
384.4974746830588
 20
1167.892857142852
 30
0.0
 40
8.607142857142852
100
AcDbArc
 50
36.39587919810093
 51
143.6041208018989
  0
ARC
  5
E19
330
1D9
100
AcDbEntity
  8
0
100
AcDbCircle
 10
394.889779528472
 20
1173.035714285709
 30
0.0
 40
3.464285714285713
100
AcDbArc
 50
359.4093113971838
 51
180.590688602816
  0
LINE
  5
E1A
330
1D9
100
AcDbEntity
  8
0
100
AcDbLine
 10
391.4256779133343
 20
1166.499999999994
 30
0.0
 11
391.4256779133343
 21
1172.999999999995
 31
0.0
  0
LINE
  5
E1B
330
1D9
100
AcDbEntity
  8
0
100
AcDbLine
 10
398.3538811436102
 20
1166.499999999994
 30
0.0
 11
398.3538811436102
 21
1172.999999999995
 31
0.0
  0
ARC
  5
E1C
330
1D9
100
AcDbEntity
  8
0
100
AcDbCircle
 10
374.1051698376458
 20
1173.035714285709
 30
0.0
 40
3.464285714285713
100
AcDbArc
 50
359.4093113971838
 51
180.590688602816
  0
LINE
  5
E1D
330
1D9
100
AcDbEntity
  8
0
100
AcDbLine
 10
377.5692714527834
 20
1166.499999999994
 30
0.0
 11
377.5692714527834
 21
1172.999999999995
 31
0.0
  0
LINE
  5
E1E
330
1D9
100
AcDbEntity
  8
0
100
AcDbLine
 10
370.6410682225077
 20
1172.999999999995
 30
0.0
 11
370.6410682225077
 21
1166.499999999994
 31
0.0
  0
LINE
  5
E1F
330
1D9
100
AcDbEntity
  8
0
100
AcDbLine
 10
418.8564064605516
 20
1166.499999999994
 30
0.0
 11
418.8564064605516
 21
1172.999999999995
 31
0.0
  0
LINE
  5
E20
330
1D9
100
AcDbEntity
  8
0
100
AcDbLine
 10
411.9282032302756
 20
1166.499999999994
 30
0.0
 11
411.9282032302756
 21
1172.999999999995
 31
0.0
  0
ARC
  5
E21
330
1D9
100
AcDbEntity
  8
0
100
AcDbCircle
 10
415.3923048454133
 20
1173.035714285709
 30
0.0
 40
3.464285714285713
100
AcDbArc
 50
359.4093113971838
 51
180.590688602816
  0
ARC
  5
E22
330
1D9
100
AcDbEntity
  8
0
100
AcDbCircle
 10
405.0000000000004
 20
1167.892857142852
 30
0.0
 40
8.607142857142852
100
AcDbArc
 50
36.39587919810093
 51
140.6921074180699
  0
LINE
  5
E23
330
1D9
100
AcDbEntity
  8
0
100
AcDbLine
 10
348.8564064605516
 20
1172.999999999995
 30
0.0
 11
348.8564064605516
 21
1166.499999999994
 31
0.0
  0
LINE
  5
E24
330
1D9
100
AcDbEntity
  8
0
100
AcDbLine
 10
422.5000000000004
 20
1141.499999999995
 30
0.0
 11
421.5000000000004
 21
1142.499999999995
 31
0.0
  0
LINE
  5
E25
330
1D9
100
AcDbEntity
  8
0
100
AcDbLine
 10
422.5000000000004
 20
1147.499999999995
 30
0.0
 11
421.5000000000004
 21
1146.499999999994
 31
0.0
  0
LINE
  5
E26
330
1D9
100
AcDbEntity
  8
0
100
AcDbLine
 10
422.5000000000004
 20
1165.499999999995
 30
0.0
 11
421.5000000000004
 21
1166.499999999994
 31
0.0
  0
LINE
  5
E27
330
1D9
100
AcDbEntity
  8
0
100
AcDbLine
 10
422.5000000000004
 20
1147.499999999995
 30
0.0
 11
422.5000000000004
 21
1165.499999999995
 31
0.0
  0
LINE
  5
E28
330
1D9
100
AcDbEntity
  8
0
100
AcDbLine
 10
421.5000000000004
 20
1113.499999999995
 30
0.0
 11
422.5000000000004
 21
1114.499999999994
 31
0.0
  0
LINE
  5
E29
330
1D9
100
AcDbEntity
  8
0
100
AcDbLine
 10
422.5000000000004
 20
1141.499999999995
 30
0.0
 11
422.5000000000004
 21
1114.499999999994
 31
0.0
  0
LINE
  5
E2A
330
1D9
100
AcDbEntity
  8
0
100
AcDbLine
 10
279.7030742265
 20
1247.999999999996
 30
0.0
 11
390.2969257735008
 21
1247.999999999996
 31
0.0
  0
LINE
  5
E2B
330
1D9
100
AcDbEntity
  8
0
100
AcDbLine
 10
279.5542682901696
 20
1247.0226565248
 30
0.0
 11
390.4457317098313
 21
1247.0226565248
 31
0.0
  0
LINE
  5
E2C
330
1D9
100
AcDbEntity
  8
0
100
AcDbLine
 10
421.5000000000004
 20
1293.499999999996
 30
0.0
 11
248.5000000000004
 21
1293.499999999996
 31
0.0
  0
LINE
  5
E2D
330
1D9
100
AcDbEntity
  8
0
100
AcDbLine
 10
248.5000000000004
 20
1313.499999999996
 30
0.0
 11
421.5000000000004
 21
1313.499999999996
 31
0.0
  0
LINE
  5
E2E
330
1D9
100
AcDbEntity
  8
0
100
AcDbLine
 10
248.5000000000004
 20
1317.499999999996
 30
0.0
 11
421.4999999999998
 21
1317.499999999996
 31
0.0
  0
LINE
  5
E2F
330
1D9
100
AcDbEntity
  8
0
100
AcDbLine
 10
324.6076951545873
 20
1283.499999999996
 30
0.0
 11
345.3923048454135
 21
1283.499999999996
 31
0.0
  0
ARC
  5
E30
330
1D9
100
AcDbEntity
  8
0
100
AcDbCircle
 10
345.3923048454135
 20
1286.964285714282
 30
0.0
 40
3.464285714285713
100
AcDbArc
 50
179.4093113971838
 51
0.5906886028161587
  0
LINE
  5
E31
330
1D9
100
AcDbEntity
  8
0
100
AcDbLine
 10
279.5542682901696
 20
1212.977343475192
 30
0.0
 11
390.4457317098313
 21
1212.977343475192
 31
0.0
  0
LINE
  5
E32
330
1D9
100
AcDbEntity
  8
0
100
AcDbLine
 10
279.7030742265
 20
1211.999999999995
 30
0.0
 11
390.2969257735008
 21
1211.999999999995
 31
0.0
  0
ARC
  5
E33
330
1D9
100
AcDbEntity
  8
0
100
AcDbCircle
 10
335.0000000000004
 20
1229.999999999995
 30
0.0
 40
58.0
100
AcDbArc
 50
156.0610737507946
 51
161.9199873755829
  0
ARC
  5
E34
330
1D9
100
AcDbEntity
  8
0
100
AcDbCircle
 10
335.0000000000004
 20
1229.999999999995
 30
0.0
 40
58.0
100
AcDbArc
 50
162.9327423516573
 51
197.0672576483425
  0
ARC
  5
E35
330
1D9
100
AcDbEntity
  8
0
100
AcDbCircle
 10
279.7030742265
 20
1247.499999999996
 30
0.0
 40
0.5
100
AcDbArc
 50
90.0
 51
252.6857770200541
  0
ARC
  5
E36
330
1D9
100
AcDbEntity
  8
0
100
AcDbCircle
 10
279.7030742265
 20
1212.499999999995
 30
0.0
 40
0.5
100
AcDbArc
 50
107.3142229799457
 51
270.0
  0
ARC
  5
E37
330
1D9
100
AcDbEntity
  8
0
100
AcDbCircle
 10
335.0000000000004
 20
1229.999999999995
 30
0.0
 40
58.0
100
AcDbArc
 50
198.0800126244169
 51
203.9389262492053
  0
ARC
  5
E38
330
1D9
100
AcDbEntity
  8
0
100
AcDbCircle
 10
250.0000000000004
 20
1192.264075471769
 30
0.0
 40
35.0
100
AcDbArc
 50
0.0
 51
23.93892624920539
  0
LINE
  5
E39
330
1D9
100
AcDbEntity
  8
0
100
AcDbLine
 10
254.6076951545873
 20
1283.499999999996
 30
0.0
 11
275.3923048454133
 21
1283.499999999996
 31
0.0
  0
ARC
  5
E3A
330
1D9
100
AcDbEntity
  8
0
100
AcDbCircle
 10
265.0000000000003
 20
1292.107142857139
 30
0.0
 40
8.607142857142852
100
AcDbArc
 50
216.3958791981008
 51
320.6921074180698
  0
LINE
  5
E3B
330
1D9
100
AcDbEntity
  8
0
100
AcDbLine
 10
247.5000000000004
 20
1312.499999999996
 30
0.0
 11
247.5000000000004
 21
1294.499999999996
 31
0.0
  0
LINE
  5
E3C
330
1D9
100
AcDbEntity
  8
0
100
AcDbLine
 10
247.5000000000004
 20
1294.499999999996
 30
0.0
 11
248.5000000000004
 21
1293.499999999996
 31
0.0
  0
LINE
  5
E3D
330
1D9
100
AcDbEntity
  8
0
100
AcDbLine
 10
247.5000000000004
 20
1312.499999999996
 30
0.0
 11
248.5000000000004
 21
1313.499999999996
 31
0.0
  0
LINE
  5
E3E
330
1D9
100
AcDbEntity
  8
0
100
AcDbLine
 10
247.5000000000004
 20
1318.499999999996
 30
0.0
 11
248.5000000000004
 21
1317.499999999996
 31
0.0
  0
LINE
  5
E3F
330
1D9
100
AcDbEntity
  8
0
100
AcDbLine
 10
258.1000000000003
 20
1313.500009999996
 30
0.0
 11
258.1000000000003
 21
1317.499999999996
 31
0.0
  0
LINE
  5
E40
330
1D9
100
AcDbEntity
  8
0
100
AcDbLine
 10
256.9999800000005
 20
1317.499999999996
 30
0.0
 11
256.9999800000005
 21
1313.500009999996
 31
0.0
  0
LINE
  5
E41
330
1D9
100
AcDbEntity
  8
0
100
AcDbLine
 10
251.1435935394493
 20
1293.499999999996
 30
0.0
 11
251.1435935394493
 21
1286.999999999996
 31
0.0
  0
LINE
  5
E42
330
1D9
100
AcDbEntity
  8
0
100
AcDbLine
 10
258.0717967697251
 20
1293.499999999996
 30
0.0
 11
258.0717967697251
 21
1286.999999999996
 31
0.0
  0
ARC
  5
E43
330
1D9
100
AcDbEntity
  8
0
100
AcDbCircle
 10
254.6076951545873
 20
1286.964285714282
 30
0.0
 40
3.464285714285713
100
AcDbArc
 50
179.4093113971838
 51
0.5906886028161587
  0
LINE
  5
E44
330
1D9
100
AcDbEntity
  8
0
100
AcDbLine
 10
271.9000200000004
 20
1313.500009999996
 30
0.0
 11
271.9000200000004
 21
1317.499999999996
 31
0.0
  0
LINE
  5
E45
330
1D9
100
AcDbEntity
  8
0
100
AcDbLine
 10
273.0000400000002
 20
1317.499999999996
 30
0.0
 11
273.0000400000002
 21
1313.500009999996
 31
0.0
  0
ARC
  5
E46
330
1D9
100
AcDbEntity
  8
0
100
AcDbCircle
 10
335.0000000000004
 20
1292.107142857139
 30
0.0
 40
8.607142857142852
100
AcDbArc
 50
216.3958791981008
 51
323.604120801899
  0
ARC
  5
E47
330
1D9
100
AcDbEntity
  8
0
100
AcDbCircle
 10
324.6076951545873
 20
1286.964285714282
 30
0.0
 40
3.464285714285713
100
AcDbArc
 50
179.4093113971838
 51
0.5906886028161587
  0
LINE
  5
E48
330
1D9
100
AcDbEntity
  8
0
100
AcDbLine
 10
328.0717967697249
 20
1293.499999999996
 30
0.0
 11
328.0717967697249
 21
1286.999999999996
 31
0.0
  0
LINE
  5
E49
330
1D9
100
AcDbEntity
  8
0
100
AcDbLine
 10
321.1435935394491
 20
1293.499999999996
 30
0.0
 11
321.1435935394491
 21
1286.999999999996
 31
0.0
  0
LINE
  5
E4A
330
1D9
100
AcDbEntity
  8
0
100
AcDbLine
 10
341.9282032302758
 20
1293.499999999996
 30
0.0
 11
341.9282032302758
 21
1286.999999999996
 31
0.0
  0
LINE
  5
E4B
330
1D9
100
AcDbEntity
  8
0
100
AcDbLine
 10
326.9999800000005
 20
1317.499999999996
 30
0.0
 11
326.9999800000005
 21
1313.500009999996
 31
0.0
  0
LINE
  5
E4C
330
1D9
100
AcDbEntity
  8
0
100
AcDbLine
 10
328.1000000000003
 20
1313.500009999996
 30
0.0
 11
328.1000000000003
 21
1317.499999999996
 31
0.0
  0
LINE
  5
E4D
330
1D9
100
AcDbEntity
  8
0
100
AcDbLine
 10
343.0000400000003
 20
1317.499999999996
 30
0.0
 11
343.0000400000003
 21
1313.500009999996
 31
0.0
  0
LINE
  5
E4E
330
1D9
100
AcDbEntity
  8
0
100
AcDbLine
 10
341.9000200000005
 20
1313.500009999996
 30
0.0
 11
341.9000200000005
 21
1317.499999999996
 31
0.0
  0
ARC
  5
E4F
330
1D9
100
AcDbEntity
  8
0
100
AcDbCircle
 10
285.5025253169419
 20
1292.107142857139
 30
0.0
 40
8.607142857142852
100
AcDbArc
 50
216.3958791981008
 51
323.604120801899
  0
LINE
  5
E50
330
1D9
100
AcDbEntity
  8
0
100
AcDbLine
 10
275.1102204715289
 20
1283.499999999996
 30
0.0
 11
295.894830162355
 21
1283.499999999996
 31
0.0
  0
ARC
  5
E51
330
1D9
100
AcDbEntity
  8
0
100
AcDbCircle
 10
275.1102204715289
 20
1286.964285714282
 30
0.0
 40
3.464285714285713
100
AcDbArc
 50
179.4093113971838
 51
0.5906886028161587
  0
LINE
  5
E52
330
1D9
100
AcDbEntity
  8
0
100
AcDbLine
 10
278.5743220866665
 20
1293.499999999996
 30
0.0
 11
278.5743220866665
 21
1286.999999999996
 31
0.0
  0
LINE
  5
E53
330
1D9
100
AcDbEntity
  8
0
100
AcDbLine
 10
271.6461188563906
 20
1293.499999999996
 30
0.0
 11
271.6461188563906
 21
1286.999999999996
 31
0.0
  0
ARC
  5
E54
330
1D9
100
AcDbEntity
  8
0
100
AcDbCircle
 10
295.894830162355
 20
1286.964285714282
 30
0.0
 40
3.464285714285713
100
AcDbArc
 50
179.4093113971838
 51
0.5906886028161587
  0
LINE
  5
E55
330
1D9
100
AcDbEntity
  8
0
100
AcDbLine
 10
292.4307285472173
 20
1293.499999999996
 30
0.0
 11
292.4307285472173
 21
1286.999999999996
 31
0.0
  0
LINE
  5
E56
330
1D9
100
AcDbEntity
  8
0
100
AcDbLine
 10
299.3589317774931
 20
1286.999999999996
 30
0.0
 11
299.3589317774931
 21
1293.499999999996
 31
0.0
  0
LINE
  5
E57
330
1D9
100
AcDbEntity
  8
0
100
AcDbLine
 10
277.502505316942
 20
1317.499999999996
 30
0.0
 11
277.502505316942
 21
1313.500009999996
 31
0.0
  0
LINE
  5
E58
330
1D9
100
AcDbEntity
  8
0
100
AcDbLine
 10
278.6025253169418
 20
1313.500009999996
 30
0.0
 11
278.6025253169418
 21
1317.499999999996
 31
0.0
  0
LINE
  5
E59
330
1D9
100
AcDbEntity
  8
0
100
AcDbLine
 10
293.5025653169418
 20
1317.499999999996
 30
0.0
 11
293.5025653169418
 21
1313.500009999996
 31
0.0
  0
LINE
  5
E5A
330
1D9
100
AcDbEntity
  8
0
100
AcDbLine
 10
292.402545316942
 20
1313.500009999996
 30
0.0
 11
292.402545316942
 21
1317.499999999996
 31
0.0
  0
ARC
  5
E5B
330
1D9
100
AcDbEntity
  8
0
100
AcDbCircle
 10
250.0000000000004
 20
1267.735924528222
 30
0.0
 40
35.0
100
AcDbArc
 50
336.0610737507946
 51
0.0
  0
LINE
  5
E5C
330
1D9
100
AcDbEntity
  8
0
100
AcDbLine
 10
285.0000000000004
 20
1283.499999999996
 30
0.0
 11
285.0000000000004
 21
1267.735924528222
 31
0.0
  0
ARC
  5
E5D
330
1D9
100
AcDbEntity
  8
0
100
AcDbCircle
 10
335.0000000000004
 20
1229.999999999995
 30
0.0
 40
58.0
100
AcDbArc
 50
18.08001262441692
 51
23.93892624920539
  0
ARC
  5
E5E
330
1D9
100
AcDbEntity
  8
0
100
AcDbCircle
 10
335.0000000000004
 20
1229.999999999995
 30
0.0
 40
58.0
100
AcDbArc
 50
342.9327423516575
 51
17.06725764834251
  0
ARC
  5
E5F
330
1D9
100
AcDbEntity
  8
0
100
AcDbCircle
 10
390.2969257735008
 20
1247.499999999996
 30
0.0
 40
0.5
100
AcDbArc
 50
287.3142229799456
 51
90.0
  0
ARC
  5
E60
330
1D9
100
AcDbEntity
  8
0
100
AcDbCircle
 10
335.0000000000004
 20
1229.999999999995
 30
0.0
 40
58.0
100
AcDbArc
 50
336.0610737507946
 51
341.9199873755831
  0
ARC
  5
E61
330
1D9
100
AcDbEntity
  8
0
100
AcDbCircle
 10
390.2969257735008
 20
1212.499999999995
 30
0.0
 40
0.5
100
AcDbArc
 50
270.0
 51
72.68577702005423
  0
ARC
  5
E62
330
1D9
100
AcDbEntity
  8
0
100
AcDbCircle
 10
420.0000000000003
 20
1192.264075471769
 30
0.0
 40
35.0
100
AcDbArc
 50
156.0610737507946
 51
180.0
  0
LINE
  5
E63
330
1D9
100
AcDbEntity
  8
0
100
AcDbLine
 10
422.5000000000004
 20
1312.499999999996
 30
0.0
 11
422.5000000000004
 21
1294.499999999996
 31
0.0
  0
LINE
  5
E64
330
1D9
100
AcDbEntity
  8
0
100
AcDbLine
 10
422.5000000000004
 20
1294.499999999996
 30
0.0
 11
421.5000000000004
 21
1293.499999999996
 31
0.0
  0
LINE
  5
E65
330
1D9
100
AcDbEntity
  8
0
100
AcDbLine
 10
422.5000000000004
 20
1312.499999999996
 30
0.0
 11
421.5000000000004
 21
1313.499999999996
 31
0.0
  0
LINE
  5
E66
330
1D9
100
AcDbEntity
  8
0
100
AcDbLine
 10
422.5000000000004
 20
1318.499999999996
 30
0.0
 11
421.5000000000004
 21
1317.499999999996
 31
0.0
  0
LINE
  5
E67
330
1D9
100
AcDbEntity
  8
0
100
AcDbLine
 10
348.8564064605516
 20
1286.999999999996
 30
0.0
 11
348.8564064605516
 21
1293.499999999996
 31
0.0
  0
ARC
  5
E68
330
1D9
100
AcDbEntity
  8
0
100
AcDbCircle
 10
405.0000000000004
 20
1292.107142857139
 30
0.0
 40
8.607142857142852
100
AcDbArc
 50
219.3078925819301
 51
323.604120801899
  0
ARC
  5
E69
330
1D9
100
AcDbEntity
  8
0
100
AcDbCircle
 10
415.3923048454133
 20
1286.964285714282
 30
0.0
 40
3.464285714285713
100
AcDbArc
 50
179.4093113971838
 51
0.5906886028161587
  0
LINE
  5
E6A
330
1D9
100
AcDbEntity
  8
0
100
AcDbLine
 10
411.9282032302756
 20
1293.499999999996
 30
0.0
 11
411.9282032302756
 21
1286.999999999996
 31
0.0
  0
LINE
  5
E6B
330
1D9
100
AcDbEntity
  8
0
100
AcDbLine
 10
418.8564064605516
 20
1293.499999999996
 30
0.0
 11
418.8564064605516
 21
1286.999999999996
 31
0.0
  0
LINE
  5
E6C
330
1D9
100
AcDbEntity
  8
0
100
AcDbLine
 10
370.6410682225077
 20
1286.999999999996
 30
0.0
 11
370.6410682225077
 21
1293.499999999996
 31
0.0
  0
LINE
  5
E6D
330
1D9
100
AcDbEntity
  8
0
100
AcDbLine
 10
377.5692714527834
 20
1293.499999999996
 30
0.0
 11
377.5692714527834
 21
1286.999999999996
 31
0.0
  0
ARC
  5
E6E
330
1D9
100
AcDbEntity
  8
0
100
AcDbCircle
 10
374.1051698376458
 20
1286.964285714282
 30
0.0
 40
3.464285714285713
100
AcDbArc
 50
179.4093113971838
 51
0.5906886028161587
  0
LINE
  5
E6F
330
1D9
100
AcDbEntity
  8
0
100
AcDbLine
 10
398.3538811436102
 20
1293.499999999996
 30
0.0
 11
398.3538811436102
 21
1286.999999999996
 31
0.0
  0
LINE
  5
E70
330
1D9
100
AcDbEntity
  8
0
100
AcDbLine
 10
391.4256779133343
 20
1293.499999999996
 30
0.0
 11
391.4256779133343
 21
1286.999999999996
 31
0.0
  0
ARC
  5
E71
330
1D9
100
AcDbEntity
  8
0
100
AcDbCircle
 10
394.889779528472
 20
1286.964285714282
 30
0.0
 40
3.464285714285713
100
AcDbArc
 50
179.4093113971838
 51
0.5906886028161587
  0
ARC
  5
E72
330
1D9
100
AcDbEntity
  8
0
100
AcDbCircle
 10
384.4974746830588
 20
1292.107142857139
 30
0.0
 40
8.607142857142852
100
AcDbArc
 50
216.3958791981008
 51
323.604120801899
  0
LINE
  5
E73
330
1D9
100
AcDbEntity
  8
0
100
AcDbLine
 10
415.3923048454133
 20
1283.499999999996
 30
0.0
 11
394.6076951545874
 21
1283.499999999996
 31
0.0
  0
LINE
  5
E74
330
1D9
100
AcDbEntity
  8
0
100
AcDbLine
 10
394.889779528472
 20
1283.499999999996
 30
0.0
 11
374.1051698376458
 21
1283.499999999996
 31
0.0
  0
LINE
  5
E75
330
1D9
100
AcDbEntity
  8
0
100
AcDbLine
 10
413.0000200000004
 20
1317.499999999996
 30
0.0
 11
413.0000200000004
 21
1313.500009999996
 31
0.0
  0
LINE
  5
E76
330
1D9
100
AcDbEntity
  8
0
100
AcDbLine
 10
411.9000000000005
 20
1313.500009999996
 30
0.0
 11
411.9000000000005
 21
1317.499999999996
 31
0.0
  0
LINE
  5
E77
330
1D9
100
AcDbEntity
  8
0
100
AcDbLine
 10
377.5974546830588
 20
1313.500009999996
 30
0.0
 11
377.5974546830588
 21
1317.499999999996
 31
0.0
  0
LINE
  5
E78
330
1D9
100
AcDbEntity
  8
0
100
AcDbLine
 10
376.497434683059
 20
1317.499999999996
 30
0.0
 11
376.497434683059
 21
1313.500009999996
 31
0.0
  0
LINE
  5
E79
330
1D9
100
AcDbEntity
  8
0
100
AcDbLine
 10
391.3974746830589
 20
1313.500009999996
 30
0.0
 11
391.3974746830589
 21
1317.499999999996
 31
0.0
  0
LINE
  5
E7A
330
1D9
100
AcDbEntity
  8
0
100
AcDbLine
 10
392.4974946830588
 20
1317.499999999996
 30
0.0
 11
392.4974946830588
 21
1313.500009999996
 31
0.0
  0
LINE
  5
E7B
330
1D9
100
AcDbEntity
  8
0
100
AcDbLine
 10
396.9999600000005
 20
1317.499999999996
 30
0.0
 11
396.9999600000005
 21
1313.500009999996
 31
0.0
  0
LINE
  5
E7C
330
1D9
100
AcDbEntity
  8
0
100
AcDbLine
 10
398.0999800000003
 20
1313.500009999996
 30
0.0
 11
398.0999800000003
 21
1317.499999999996
 31
0.0
  0
ARC
  5
E7D
330
1D9
100
AcDbEntity
  8
0
100
AcDbCircle
 10
420.0000000000003
 20
1267.735924528222
 30
0.0
 40
35.0
100
AcDbArc
 50
180.0
 51
203.9389262492053
  0
LINE
  5
E7E
330
1D9
100
AcDbEntity
  8
0
100
AcDbLine
 10
385.0000000000004
 20
1283.499999999996
 30
0.0
 11
385.0000000000004
 21
1267.735924528222
 31
0.0
  0
LINE
  5
E7F
330
1D9
100
AcDbEntity
  8
0
100
AcDbLine
 10
276.0000000000004
 20
1354.499999999996
 30
0.0
 11
394.0000000000013
 21
1354.499999999996
 31
0.0
  0
LINE
  5
E80
330
1D9
100
AcDbEntity
  8
0
100
AcDbLine
 10
421.5000000000008
 20
1346.499999999996
 30
0.0
 11
248.5000000000004
 21
1346.499999999996
 31
0.0
  0
LINE
  5
E81
330
1D9
100
AcDbEntity
  8
0
100
AcDbLine
 10
293.0000000000008
 20
1357.499999999996
 30
0.0
 11
377.0000000000008
 21
1357.499999999997
 31
0.0
  0
LINE
  5
E82
330
1D9
100
AcDbEntity
  8
0
100
AcDbLine
 10
248.5000000000004
 20
1346.499999999996
 30
0.0
 11
247.5000000000004
 21
1345.499999999996
 31
0.0
  0
LINE
  5
E83
330
1D9
100
AcDbEntity
  8
0
100
AcDbLine
 10
275.0000000000003
 20
1353.499999999996
 30
0.0
 11
275.0000000000003
 21
1346.499999999996
 31
0.0
  0
LINE
  5
E84
330
1D9
100
AcDbEntity
  8
0
100
AcDbLine
 10
276.0000000000004
 20
1354.499999999996
 30
0.0
 11
275.0000000000003
 21
1353.499999999996
 31
0.0
  0
LINE
  5
E85
330
1D9
100
AcDbEntity
  8
0
100
AcDbLine
 10
293.0000000000008
 20
1354.499999999996
 30
0.0
 11
293.0000000000008
 21
1357.499999999996
 31
0.0
  0
LINE
  5
E86
330
1D9
100
AcDbEntity
  8
0
100
AcDbLine
 10
285.0000000000004
 20
1360.499999999996
 30
0.0
 11
285.0000000000008
 21
1340.499999999996
 31
0.0
  0
LINE
  5
E87
330
1D9
100
AcDbEntity
  8
0
100
AcDbLine
 10
395.0000000000004
 20
1353.499999999996
 30
0.0
 11
395.0000000000004
 21
1346.499999999996
 31
0.0
  0
LINE
  5
E88
330
1D9
100
AcDbEntity
  8
0
100
AcDbLine
 10
394.0000000000003
 20
1354.499999999996
 30
0.0
 11
395.0000000000004
 21
1353.499999999996
 31
0.0
  0
LINE
  5
E89
330
1D9
100
AcDbEntity
  8
0
100
AcDbLine
 10
421.5000000000004
 20
1346.499999999996
 30
0.0
 11
422.5000000000004
 21
1345.499999999996
 31
0.0
  0
LINE
  5
E8A
330
1D9
100
AcDbEntity
  8
0
100
AcDbLine
 10
377.0000000000008
 20
1354.499999999996
 30
0.0
 11
377.0000000000008
 21
1357.499999999997
 31
0.0
  0
LINE
  5
E8B
330
1D9
100
AcDbEntity
  8
0
100
AcDbLine
 10
385.0000000000012
 20
1360.499999999996
 30
0.0
 11
385.0000000000008
 21
1340.499999999996
 31
0.0
  0
LINE
  5
E8C
330
1D9
100
AcDbEntity
  8
0
100
AcDbLine
 10
1755.0
 20
1336.499999999996
 30
0.0
 11
1755.0
 21
1314.499999999996
 31
0.0
  0
LINE
  5
E8D
330
1D9
100
AcDbEntity
  8
0
100
AcDbLine
 10
1530.0
 20
1336.499999999996
 30
0.0
 11
1530.0
 21
1314.499999999996
 31
0.0
  0
LINE
  5
E8E
330
1D9
100
AcDbEntity
  8
0
100
AcDbLine
 10
860.0000000000003
 20
1318.499999999996
 30
0.0
 11
860.0000000000008
 21
1345.499999999996
 31
0.0
  0
LINE
  5
E8F
330
1D9
100
AcDbEntity
  8
0
100
AcDbLine
 10
1060.0
 20
1318.499999999996
 30
0.0
 11
1060.0
 21
1345.499999999996
 31
0.0
  0
LINE
  5
E90
330
1D9
100
AcDbEntity
  8
0
100
AcDbLine
 10
960.0000000000003
 20
1363.499999999996
 30
0.0
 11
960.0000000000003
 21
1096.499999999996
 31
0.0
  0
LINE
  5
E91
330
1D9
100
AcDbEntity
  8
0
100
AcDbLine
 10
1642.499999999999
 20
1388.499999999996
 30
0.0
 11
1642.499999999999
 21
1071.499999999996
 31
0.0
  0
LINE
  5
E92
330
1D9
100
AcDbEntity
  8
0
100
AcDbLine
 10
1403.5
 20
412.5
 30
0.0
 11
1881.5
 21
412.5
 31
0.0
  0
LINE
  5
E93
330
1D9
100
AcDbEntity
  8
0
100
AcDbLine
 10
1403.5
 20
376.5
 30
0.0
 11
1881.5
 21
376.5
 31
0.0
  0
LINE
  5
E94
330
1D9
100
AcDbEntity
  8
0
100
AcDbLine
 10
1464.108427802663
 20
316.5093100476165
 30
0.0
 11
1820.891572197334
 21
316.5093100476159
 31
0.0
  0
LINE
  5
E95
330
1D9
100
AcDbEntity
  8
0
100
AcDbLine
 10
1464.24456530024
 20
318.5
 30
0.0
 11
1820.755434699758
 21
318.5
 31
0.0
  0
LINE
  5
E96
330
1D9
100
AcDbEntity
  8
0
100
AcDbLine
 10
1881.500000000002
 20
457.4999999999971
 30
0.0
 11
1403.5
 21
457.5000000000009
 31
0.0
  0
LINE
  5
E97
330
1D9
100
AcDbEntity
  8
0
100
AcDbLine
 10
1403.5
 20
417.5000000000008
 30
0.0
 11
1881.499999999999
 21
417.499999999999
 31
0.0
  0
LINE
  5
E98
330
1D9
100
AcDbEntity
  8
0
100
AcDbLine
 10
1816.499999999999
 20
464.5000000000004
 30
0.0
 11
1468.5
 21
464.5000000000004
 31
0.0
  0
LINE
  5
E99
330
1D9
100
AcDbEntity
  8
0
100
AcDbLine
 10
1783.999999999999
 20
467.5000000000004
 30
0.0
 11
1500.999999999999
 21
467.5000000000004
 31
0.0
  0
LINE
  5
E9A
330
1D9
100
AcDbEntity
  8
0
100
AcDbLine
 10
1464.24456530024
 20
266.5
 30
0.0
 11
1820.755434699758
 21
266.5
 31
0.0
  0
LINE
  5
E9B
330
1D9
100
AcDbEntity
  8
0
100
AcDbLine
 10
1464.108427802663
 20
268.4906899523834
 30
0.0
 11
1820.891572197334
 21
268.4906899523839
 31
0.0
  0
LINE
  5
E9C
330
1D9
100
AcDbEntity
  8
0
100
AcDbLine
 10
1403.5
 20
208.4999999999999
 30
0.0
 11
1881.5
 21
208.4999999999999
 31
0.0
  0
LINE
  5
E9D
330
1D9
100
AcDbEntity
  8
0
100
AcDbLine
 10
1537.176267874325
 20
819.021186099264
 30
0.0
 11
1747.823732125674
 21
819.021186099264
 31
0.0
  0
LINE
  5
E9E
330
1D9
100
AcDbEntity
  8
0
100
AcDbLine
 10
1537.381019791856
 20
820.9999999999968
 30
0.0
 11
1747.618980208143
 21
820.9999999999961
 31
0.0
  0
LINE
  5
E9F
330
1D9
100
AcDbEntity
  8
0
100
AcDbLine
 10
1490.999999999999
 20
904.9999999999963
 30
0.0
 11
1794.0
 21
904.9999999999963
 31
0.0
  0
LINE
  5
EA0
330
1D9
100
AcDbEntity
  8
0
100
AcDbLine
 10
1794.0
 20
876.9999999999964
 30
0.0
 11
1491.0
 21
876.9999999999964
 31
0.0
  0
ARC
  5
EA1
330
1D9
100
AcDbEntity
  8
0
100
AcDbCircle
 10
1642.5
 20
797.4999999999964
 30
0.0
 40
107.4999999999999
100
AcDbArc
 50
12.62709066116718
 51
23.66013615810639
  0
LINE
  5
EA2
330
1D9
100
AcDbEntity
  8
0
100
AcDbLine
 10
1491.0
 20
909.9999999999964
 30
0.0
 11
1794.0
 21
909.9999999999964
 31
0.0
  0
LINE
  5
EA3
330
1D9
100
AcDbEntity
  8
0
100
AcDbLine
 10
1793.999999999999
 20
943.9999999999963
 30
0.0
 11
1491.0
 21
943.9999999999963
 31
0.0
  0
LINE
  5
EA4
330
1D9
100
AcDbEntity
  8
0
100
AcDbLine
 10
1531.0
 20
951.9999999999964
 30
0.0
 11
1753.999999999999
 21
951.9999999999956
 31
0.0
  0
ARC
  5
EA5
330
1D9
100
AcDbEntity
  8
0
100
AcDbCircle
 10
1755.083302491977
 20
874.9230113636322
 30
0.0
 40
11.92301136363636
100
AcDbArc
 50
219.1214070650605
 51
320.8785929349393
  0
LINE
  5
EA6
330
1D9
100
AcDbEntity
  8
0
100
AcDbLine
 10
1768.958302491977
 20
862.9999999999959
 30
0.0
 11
1741.208302491977
 21
862.9999999999959
 31
0.0
  0
LINE
  5
EA7
330
1D9
100
AcDbEntity
  8
0
100
AcDbLine
 10
1768.958302491977
 20
731.9999999999968
 30
0.0
 11
1741.208302491977
 21
731.9999999999968
 31
0.0
  0
ARC
  5
EA8
330
1D9
100
AcDbEntity
  8
0
100
AcDbCircle
 10
1755.083302491977
 20
720.0769886363603
 30
0.0
 40
11.92301136363636
100
AcDbArc
 50
39.1214070650605
 51
140.8785929349394
  0
LINE
  5
EA9
330
1D9
100
AcDbEntity
  8
0
100
AcDbLine
 10
1531.0
 20
642.9999999999964
 30
0.0
 11
1753.999999999999
 21
642.9999999999966
 31
0.0
  0
LINE
  5
EAA
330
1D9
100
AcDbEntity
  8
0
100
AcDbLine
 10
1793.999999999999
 20
650.9999999999962
 30
0.0
 11
1491.0
 21
650.9999999999962
 31
0.0
  0
LINE
  5
EAB
330
1D9
100
AcDbEntity
  8
0
100
AcDbLine
 10
1491.0
 20
684.9999999999964
 30
0.0
 11
1794.0
 21
684.9999999999964
 31
0.0
  0
ARC
  5
EAC
330
1D9
100
AcDbEntity
  8
0
100
AcDbCircle
 10
1642.5
 20
797.4999999999964
 30
0.0
 40
107.4999999999999
100
AcDbArc
 50
336.3398638418936
 51
347.3729093388327
  0
LINE
  5
EAD
330
1D9
100
AcDbEntity
  8
0
100
AcDbLine
 10
1794.0
 20
717.9999999999964
 30
0.0
 11
1491.0
 21
717.9999999999964
 31
0.0
  0
LINE
  5
EAE
330
1D9
100
AcDbEntity
  8
0
100
AcDbLine
 10
1490.999999999999
 20
689.9999999999961
 30
0.0
 11
1794.0
 21
689.9999999999961
 31
0.0
  0
LINE
  5
EAF
330
1D9
100
AcDbEntity
  8
0
100
AcDbLine
 10
1537.381019791856
 20
773.9999999999959
 30
0.0
 11
1747.618980208143
 21
773.9999999999961
 31
0.0
  0
LINE
  5
EB0
330
1D9
100
AcDbEntity
  8
0
100
AcDbLine
 10
1537.176267874325
 20
775.9788139007286
 30
0.0
 11
1747.823732125674
 21
775.9788139007286
 31
0.0
  0
LINE
  5
EB1
330
1D9
100
AcDbEntity
  8
0
100
AcDbLine
 10
1531.0
 20
1313.499999999996
 30
0.0
 11
1754.0
 21
1313.499999999996
 31
0.0
  0
ARC
  5
EB2
330
1D9
100
AcDbEntity
  8
0
100
AcDbCircle
 10
1747.990381056766
 20
1305.330681818178
 30
0.0
 40
4.330681818181814
100
AcDbArc
 50
179.0828675395624
 51
0.9171324604375683
  0
LINE
  5
EB3
330
1D9
100
AcDbEntity
  8
0
100
AcDbLine
 10
1747.990381056766
 20
1300.999999999996
 30
0.0
 11
1722.009618943233
 21
1300.999999999996
 31
0.0
  0
LINE
  5
EB4
330
1D9
100
AcDbEntity
  8
0
100
AcDbLine
 10
1747.990381056766
 20
1158.999999999996
 30
0.0
 11
1722.009618943233
 21
1158.999999999996
 31
0.0
  0
ARC
  5
EB5
330
1D9
100
AcDbEntity
  8
0
100
AcDbCircle
 10
1747.990381056766
 20
1154.669318181813
 30
0.0
 40
4.330681818181814
100
AcDbArc
 50
359.0828675395623
 51
180.9171324604374
  0
LINE
  5
EB6
330
1D9
100
AcDbEntity
  8
0
100
AcDbLine
 10
1531.0
 20
1146.499999999996
 30
0.0
 11
1754.0
 21
1146.499999999996
 31
0.0
  0
LINE
  5
EB7
330
1D9
100
AcDbEntity
  8
0
100
AcDbLine
 10
1531.0
 20
1122.499999999996
 30
0.0
 11
1754.0
 21
1122.499999999996
 31
0.0
  0
LINE
  5
EB8
330
1D9
100
AcDbEntity
  8
0
100
AcDbLine
 10
1531.0
 20
1117.499999999996
 30
0.0
 11
1754.0
 21
1117.499999999996
 31
0.0
  0
LINE
  5
EB9
330
1D9
100
AcDbEntity
  8
0
100
AcDbLine
 10
1754.000000000001
 20
1088.499999999996
 30
0.0
 11
1531.0
 21
1088.499999999996
 31
0.0
  0
TEXT
  5
EBA
330
1D9
100
AcDbEntity
  8
0
100
AcDbText
 10
1482.5
 20
562.2
 30
0.0
 40
15.0
  1
パイプサイレンサー：ＫＶＨ－１００Ｎ
 72
     4
 11
1642.5
 21
570.0
 31
0.0
100
AcDbText
  0
TEXT
  5
EBB
330
1D9
100
AcDbEntity
  8
0
100
AcDbText
 10
1491.5
 20
1017.200000000001
 30
0.0
 40
15.0
  1
パイプサイレンサー：ＫＶＨ－５０Ｎ
 72
     4
 11
1642.5
 21
1025.000000000001
 31
0.0
100
AcDbText
  0
ARC
  5
EBC
330
1D9
100
AcDbEntity
  8
0
100
AcDbCircle
 10
1800.499999999999
 20
728.2739210990503
 30
0.0
 40
65.0
100
AcDbArc
 50
156.3398638418935
 51
180.0
  0
ARC
  5
EBD
330
1D9
100
AcDbEntity
  8
0
100
AcDbCircle
 10
1484.5
 20
728.2739210990503
 30
0.0
 40
65.0
100
AcDbArc
 50
0.0
 51
23.66013615810639
  0
ARC
  5
EBE
330
1D9
100
AcDbEntity
  8
0
100
AcDbCircle
 10
1104.5
 20
742.8191075420268
 30
0.0
 40
58.0
100
AcDbArc
 50
159.2726317059801
 51
180.0
  0
ARC
  5
EBF
330
1D9
100
AcDbEntity
  8
0
100
AcDbCircle
 10
815.5000000000002
 20
742.8191075420268
 30
0.0
 40
58.0
100
AcDbArc
 50
0.0
 51
20.72736829401985
  0
LINE
  5
EC0
330
1D9
100
AcDbEntity
  8
0
100
AcDbLine
 10
960.0000000000003
 20
960.9999999999947
 30
0.0
 11
959.999999999999
 21
633.9999999999973
 31
0.0
  0
LINE
  5
EC1
330
1D9
100
AcDbEntity
  8
0
100
AcDbLine
 10
1642.499999999999
 20
960.9999999999963
 30
0.0
 11
1642.499999999999
 21
633.9999999999962
 31
0.0
  0
LINE
  5
EC2
330
1D9
100
AcDbEntity
  8
0
100
AcDbLine
 10
1174.0
 20
378.5
 30
0.0
 11
746.0000000000003
 21
378.5
 31
0.0
  0
LINE
  5
EC3
330
1D9
100
AcDbEntity
  8
0
100
AcDbLine
 10
1174.0
 20
412.5
 30
0.0
 11
746.0000000000003
 21
412.5
 31
0.0
  0
LINE
  5
EC4
330
1D9
100
AcDbEntity
  8
0
100
AcDbLine
 10
1173.999999999999
 20
455.4999999999998
 30
0.0
 11
746.0000000000003
 21
455.4999999999998
 31
0.0
  0
LINE
  5
EC5
330
1D9
100
AcDbEntity
  8
0
100
AcDbLine
 10
746.0000000000003
 20
417.4999999999998
 30
0.0
 11
1174.0
 21
417.4999999999998
 31
0.0
  0
ARC
  5
EC6
330
1D9
100
AcDbEntity
  8
0
100
AcDbCircle
 10
1124.544826719042
 20
376.6382352941176
 30
0.0
 40
13.13823529411763
100
AcDbArc
 50
217.721218445649
 51
322.2787815543508
  0
LINE
  5
EC7
330
1D9
100
AcDbEntity
  8
0
100
AcDbLine
 10
1140.133283987162
 20
363.5
 30
0.0
 11
1108.956369450923
 21
363.5
 31
0.0
  0
LINE
  5
EC8
330
1D9
100
AcDbEntity
  8
0
100
AcDbLine
 10
1140.133283987162
 20
221.4999999999999
 30
0.0
 11
1108.956369450923
 21
221.4999999999999
 31
0.0
  0
ARC
  5
EC9
330
1D9
100
AcDbEntity
  8
0
100
AcDbCircle
 10
1124.544826719042
 20
208.3617647058821
 30
0.0
 40
13.13823529411763
100
AcDbArc
 50
37.721218445649
 51
142.278781554351
  0
LINE
  5
ECA
330
1D9
100
AcDbEntity
  8
0
100
AcDbLine
 10
1174.0
 20
206.4999999999999
 30
0.0
 11
746.0000000000003
 21
206.4999999999999
 31
0.0
  0
LINE
  5
ECB
330
1D9
100
AcDbEntity
  8
0
100
AcDbLine
 10
1090.0
 20
470.5
 30
0.0
 11
1090.0
 21
449.4999999999994
 31
0.0
  0
LINE
  5
ECC
330
1D9
100
AcDbEntity
  8
0
100
AcDbLine
 10
1072.583302491976
 20
470.5
 30
0.0
 11
1072.583302491976
 21
449.4999999999994
 31
0.0
  0
LINE
  5
ECD
330
1D9
100
AcDbEntity
  8
0
100
AcDbLine
 10
1025.000000000001
 20
470.5
 30
0.0
 11
1025.000000000001
 21
449.5
 31
0.0
  0
LINE
  5
ECE
330
1D9
100
AcDbEntity
  8
0
100
AcDbLine
 10
894.9999999999995
 20
470.5
 30
0.0
 11
895.0
 21
449.5
 31
0.0
  0
LINE
  5
ECF
330
1D9
100
AcDbEntity
  8
0
100
AcDbLine
 10
847.4166975080233
 20
470.5
 30
0.0
 11
847.4166975080239
 21
449.4999999999994
 31
0.0
  0
LINE
  5
ED0
330
1D9
100
AcDbEntity
  8
0
100
AcDbLine
 10
830.0000000000004
 20
470.5
 30
0.0
 11
830.0
 21
449.4999999999994
 31
0.0
  0
LINE
  5
ED1
330
1D9
100
AcDbEntity
  8
0
100
AcDbLine
 10
1118.187968912534
 20
316.5117990022709
 30
0.0
 11
801.8120310874643
 21
316.5117990022709
 31
0.0
  0
LINE
  5
ED2
330
1D9
100
AcDbEntity
  8
0
100
AcDbLine
 10
1117.873366974927
 20
318.5
 30
0.0
 11
802.1266330250732
 21
318.5
 31
0.0
  0
LINE
  5
ED3
330
1D9
100
AcDbEntity
  8
0
100
AcDbLine
 10
1111.5
 20
464.5
 30
0.0
 11
808.5
 21
464.5
 31
0.0
  0
ARC
  5
ED4
330
1D9
100
AcDbEntity
  8
0
100
AcDbCircle
 10
811.043630549077
 20
368.6970588235293
 30
0.0
 40
5.19705882352941
100
AcDbArc
 50
181.0701022365135
 51
358.9298977634864
  0
ARC
  5
ED5
330
1D9
100
AcDbEntity
  8
0
100
AcDbCircle
 10
718.5000000000003
 20
377.4337977485993
 30
0.0
 40
96.0
100
AcDbArc
 50
340.6235966604496
 51
352.0521774694125
  0
ARC
  5
ED6
330
1D9
100
AcDbEntity
  8
0
100
AcDbCircle
 10
718.5000000000003
 20
207.5662022514006
 30
0.0
 40
96.0
100
AcDbArc
 50
7.947822530587447
 51
19.37640333955034
  0
ARC
  5
ED7
330
1D9
100
AcDbEntity
  8
0
100
AcDbCircle
 10
811.043630549077
 20
216.3029411764704
 30
0.0
 40
5.19705882352941
100
AcDbArc
 50
1.070102236513484
 51
178.9298977634865
  0
LINE
  5
ED8
330
1D9
100
AcDbEntity
  8
0
100
AcDbLine
 10
1117.873366974927
 20
266.5
 30
0.0
 11
802.1266330250732
 21
266.5
 31
0.0
  0
LINE
  5
ED9
330
1D9
100
AcDbEntity
  8
0
100
AcDbLine
 10
1118.187968912534
 20
268.488200997729
 30
0.0
 11
801.8120310874643
 21
268.488200997729
 31
0.0
  0
ARC
  5
EDA
330
1D9
100
AcDbEntity
  8
0
100
AcDbCircle
 10
960.0000000000003
 20
292.5
 30
0.0
 40
160.0
100
AcDbArc
 50
160.6235966604496
 51
170.647964942442
  0
LINE
  5
EDB
330
1D9
100
AcDbEntity
  8
0
100
AcDbLine
 10
506.0
 20
202.4999999999999
 30
0.0
 11
506.0
 21
212.0999999999999
 31
0.0
  0
LINE
  5
EDC
330
1D9
100
AcDbEntity
  8
0
100
AcDbLine
 10
510.0000000000004
 20
201.5
 30
0.0
 11
509.0000000000004
 21
202.4999999999999
 31
0.0
  0
ARC
  5
EDD
330
1D9
100
AcDbEntity
  8
0
100
AcDbCircle
 10
960.0000000000003
 20
292.5
 30
0.0
 40
160.0
100
AcDbArc
 50
189.3520350575579
 51
199.3764033395503
  0
ARC
  5
EDE
330
1D9
100
AcDbEntity
  8
0
100
AcDbCircle
 10
770.0
 20
208.3617647058821
 30
0.0
 40
13.13823529411763
100
AcDbArc
 50
61.97347362378289
 51
142.278781554351
  0
LINE
  5
EDF
330
1D9
100
AcDbEntity
  8
0
100
AcDbLine
 10
779.8667160128375
 20
221.4999999999999
 30
0.0
 11
811.043630549077
 21
221.4999999999999
 31
0.0
  0
ARC
  5
EE0
330
1D9
100
AcDbEntity
  8
0
100
AcDbCircle
 10
795.4551732809571
 20
208.3617647058821
 30
0.0
 40
13.13823529411763
100
AcDbArc
 50
37.721218445649
 51
142.278781554351
  0
LINE
  5
EE1
330
1D9
100
AcDbEntity
  8
0
100
AcDbLine
 10
774.6705635901308
 20
206.4999999999999
 30
0.0
 11
774.6705635901308
 21
216.4
 31
0.0
  0
LINE
  5
EE2
330
1D9
100
AcDbEntity
  8
0
100
AcDbLine
 10
785.0628684355442
 20
206.4999999999999
 30
0.0
 11
785.0628684355442
 21
216.4
 31
0.0
  0
ARC
  5
EE3
330
1D9
100
AcDbEntity
  8
0
100
AcDbCircle
 10
779.8667160128375
 20
216.3029411764704
 30
0.0
 40
5.19705882352941
100
AcDbArc
 50
1.070102236513484
 51
178.9298977634865
  0
LINE
  5
EE4
330
1D9
100
AcDbEntity
  8
0
100
AcDbLine
 10
805.8474781263702
 20
206.4999999999999
 30
0.0
 11
805.8474781263702
 21
216.4
 31
0.0
  0
ARC
  5
EE5
330
1D9
100
AcDbEntity
  8
0
100
AcDbCircle
 10
754.4115427318802
 20
216.3029411764704
 30
0.0
 40
5.19705882352941
100
AcDbArc
 50
1.070102236513484
 51
178.9298977634865
  0
LINE
  5
EE6
330
1D9
100
AcDbEntity
  8
0
100
AcDbLine
 10
759.6076951545869
 20
206.4999999999999
 30
0.0
 11
759.6076951545869
 21
216.4
 31
0.0
  0
LINE
  5
EE7
330
1D9
100
AcDbEntity
  8
0
100
AcDbLine
 10
754.4115427318802
 20
221.4999999999999
 30
0.0
 11
785.5884572681198
 21
221.4999999999999
 31
0.0
  0
LINE
  5
EE8
330
1D9
100
AcDbEntity
  8
0
100
AcDbLine
 10
749.2153903091734
 20
206.4999999999999
 30
0.0
 11
749.2153903091734
 21
216.4
 31
0.0
  0
LINE
  5
EE9
330
1D9
100
AcDbEntity
  8
0
100
AcDbLine
 10
745.0000000000003
 20
205.5
 30
0.0
 11
746.0000000000003
 21
206.4999999999999
 31
0.0
  0
ARC
  5
EEA
330
1D9
100
AcDbEntity
  8
0
100
AcDbCircle
 10
801.9651937072094
 20
317.5
 30
0.0
 40
1.0
100
AcDbArc
 50
90.0
 51
261.1897502572838
  0
ARC
  5
EEB
330
1D9
100
AcDbEntity
  8
0
100
AcDbCircle
 10
801.9651937072094
 20
267.5
 30
0.0
 40
1.0
100
AcDbArc
 50
98.81024974271614
 51
270.0
  0
ARC
  5
EEC
330
1D9
100
AcDbEntity
  8
0
100
AcDbCircle
 10
960.0000000000003
 20
292.5
 30
0.0
 40
160.0
100
AcDbArc
 50
171.3687998596451
 51
188.6312001403548
  0
LINE
  5
EED
330
1D9
100
AcDbEntity
  8
0
100
AcDbLine
 10
510.0000000000004
 20
411.5
 30
0.0
 11
510.0000000000004
 21
383.4999999999998
 31
0.0
  0
LINE
  5
EEE
330
1D9
100
AcDbEntity
  8
0
100
AcDbLine
 10
510.0000000000004
 20
383.4999999999998
 30
0.0
 11
509.0000000000004
 21
382.5
 31
0.0
  0
LINE
  5
EEF
330
1D9
100
AcDbEntity
  8
0
100
AcDbLine
 10
506.0
 20
382.5
 30
0.0
 11
506.0
 21
372.8999999999999
 31
0.0
  0
LINE
  5
EF0
330
1D9
100
AcDbEntity
  8
0
100
AcDbLine
 10
509.0000000000004
 20
451.4999999999998
 30
0.0
 11
510.0000000000004
 21
450.4999999999998
 31
0.0
  0
LINE
  5
EF1
330
1D9
100
AcDbEntity
  8
0
100
AcDbLine
 10
510.0000000000004
 20
450.4999999999998
 30
0.0
 11
510.0000000000004
 21
418.5
 31
0.0
  0
LINE
  5
EF2
330
1D9
100
AcDbEntity
  8
0
100
AcDbLine
 10
510.0000000000004
 20
418.5
 30
0.0
 11
509.0000000000004
 21
417.4999999999998
 31
0.0
  0
LINE
  5
EF3
330
1D9
100
AcDbEntity
  8
0
100
AcDbLine
 10
510.0000000000004
 20
411.5
 30
0.0
 11
509.0000000000004
 21
412.5
 31
0.0
  0
LINE
  5
EF4
330
1D9
100
AcDbEntity
  8
0
100
AcDbLine
 10
745.0000000000003
 20
411.5
 30
0.0
 11
745.0000000000003
 21
379.4999999999998
 31
0.0
  0
LINE
  5
EF5
330
1D9
100
AcDbEntity
  8
0
100
AcDbLine
 10
745.0000000000003
 20
379.4999999999998
 30
0.0
 11
746.0000000000003
 21
378.5
 31
0.0
  0
LINE
  5
EF6
330
1D9
100
AcDbEntity
  8
0
100
AcDbLine
 10
749.2153903091734
 20
378.5
 30
0.0
 11
749.2153903091734
 21
368.5999999999998
 31
0.0
  0
LINE
  5
EF7
330
1D9
100
AcDbEntity
  8
0
100
AcDbLine
 10
754.4115427318802
 20
363.5
 30
0.0
 11
785.5884572681198
 21
363.5
 31
0.0
  0
LINE
  5
EF8
330
1D9
100
AcDbEntity
  8
0
100
AcDbLine
 10
759.6076951545869
 20
378.5
 30
0.0
 11
759.6076951545869
 21
368.5999999999998
 31
0.0
  0
ARC
  5
EF9
330
1D9
100
AcDbEntity
  8
0
100
AcDbCircle
 10
754.4115427318802
 20
368.6970588235293
 30
0.0
 40
5.19705882352941
100
AcDbArc
 50
181.0701022365135
 51
358.9298977634864
  0
LINE
  5
EFA
330
1D9
100
AcDbEntity
  8
0
100
AcDbLine
 10
805.8474781263702
 20
378.5
 30
0.0
 11
805.8474781263702
 21
368.5999999999998
 31
0.0
  0
ARC
  5
EFB
330
1D9
100
AcDbEntity
  8
0
100
AcDbCircle
 10
779.8667160128375
 20
368.6970588235293
 30
0.0
 40
5.19705882352941
100
AcDbArc
 50
181.0701022365135
 51
358.9298977634864
  0
LINE
  5
EFC
330
1D9
100
AcDbEntity
  8
0
100
AcDbLine
 10
785.0628684355442
 20
378.5
 30
0.0
 11
785.0628684355442
 21
368.5999999999998
 31
0.0
  0
LINE
  5
EFD
330
1D9
100
AcDbEntity
  8
0
100
AcDbLine
 10
774.6705635901308
 20
378.5
 30
0.0
 11
774.6705635901308
 21
368.5999999999998
 31
0.0
  0
ARC
  5
EFE
330
1D9
100
AcDbEntity
  8
0
100
AcDbCircle
 10
795.4551732809571
 20
376.6382352941176
 30
0.0
 40
13.13823529411763
100
AcDbArc
 50
217.721218445649
 51
322.2787815543508
  0
LINE
  5
EFF
330
1D9
100
AcDbEntity
  8
0
100
AcDbLine
 10
779.8667160128375
 20
363.5
 30
0.0
 11
811.043630549077
 21
363.5
 31
0.0
  0
ARC
  5
F00
330
1D9
100
AcDbEntity
  8
0
100
AcDbCircle
 10
770.0
 20
376.6382352941176
 30
0.0
 40
13.13823529411763
100
AcDbArc
 50
217.721218445649
 51
298.0265263762171
  0
LINE
  5
F01
330
1D9
100
AcDbEntity
  8
0
100
AcDbLine
 10
745.0000000000003
 20
454.4999999999998
 30
0.0
 11
745.0000000000003
 21
418.5
 31
0.0
  0
LINE
  5
F02
330
1D9
100
AcDbEntity
  8
0
100
AcDbLine
 10
745.0000000000003
 20
418.5
 30
0.0
 11
746.0000000000003
 21
417.4999999999998
 31
0.0
  0
LINE
  5
F03
330
1D9
100
AcDbEntity
  8
0
100
AcDbLine
 10
746.0000000000003
 20
455.4999999999998
 30
0.0
 11
745.0000000000003
 21
454.4999999999998
 31
0.0
  0
LINE
  5
F04
330
1D9
100
AcDbEntity
  8
0
100
AcDbLine
 10
808.5
 20
464.5
 30
0.0
 11
807.4999999999999
 21
463.4999999999998
 31
0.0
  0
LINE
  5
F05
330
1D9
100
AcDbEntity
  8
0
100
AcDbLine
 10
807.4999999999999
 20
463.4999999999998
 30
0.0
 11
807.4999999999999
 21
455.4999999999998
 31
0.0
  0
LINE
  5
F06
330
1D9
100
AcDbEntity
  8
0
100
AcDbLine
 10
782.0000000000003
 20
417.4999999999998
 30
0.0
 11
782.0000000000003
 21
412.5000099999998
 31
0.0
  0
LINE
  5
F07
330
1D9
100
AcDbEntity
  8
0
100
AcDbLine
 10
780.3499900000006
 20
412.5000099999998
 30
0.0
 11
780.3499900000006
 21
417.4999999999998
 31
0.0
  0
LINE
  5
F08
330
1D9
100
AcDbEntity
  8
0
100
AcDbLine
 10
759.6500100000002
 20
412.5000099999998
 30
0.0
 11
759.6500099999997
 21
417.4999999999998
 31
0.0
  0
LINE
  5
F09
330
1D9
100
AcDbEntity
  8
0
100
AcDbLine
 10
758.0
 20
417.4999999999998
 30
0.0
 11
758.0000000000003
 21
412.5000099999998
 31
0.0
  0
LINE
  5
F0A
330
1D9
100
AcDbEntity
  8
0
100
AcDbLine
 10
805.8051632809579
 20
412.5000099999998
 30
0.0
 11
805.8051632809579
 21
417.4999999999998
 31
0.0
  0
LINE
  5
F0B
330
1D9
100
AcDbEntity
  8
0
100
AcDbLine
 10
807.4551732809577
 20
417.4999999999998
 30
0.0
 11
807.4551732809577
 21
412.5000099999998
 31
0.0
  0
LINE
  5
F0C
330
1D9
100
AcDbEntity
  8
0
100
AcDbLine
 10
783.4551732809572
 20
417.4999999999998
 30
0.0
 11
783.4551732809577
 21
412.5000099999998
 31
0.0
  0
LINE
  5
F0D
330
1D9
100
AcDbEntity
  8
0
100
AcDbLine
 10
785.1051832809575
 20
412.5000099999998
 30
0.0
 11
785.1051832809571
 21
417.4999999999998
 31
0.0
  0
LINE
  5
F0E
330
1D9
100
AcDbEntity
  8
0
100
AcDbLine
 10
746.0000000000003
 20
412.5
 30
0.0
 11
745.0000000000003
 21
411.5
 31
0.0
  0
ARC
  5
F0F
330
1D9
100
AcDbEntity
  8
0
100
AcDbCircle
 10
960.0000000000003
 20
292.5
 30
0.0
 40
160.0
100
AcDbArc
 50
9.352035057558003
 51
19.37640333955034
  0
LINE
  5
F10
330
1D9
100
AcDbEntity
  8
0
100
AcDbLine
 10
944.4115427318806
 20
221.4999999999999
 30
0.0
 11
975.5884572681202
 21
221.4999999999999
 31
0.0
  0
ARC
  5
F11
330
1D9
100
AcDbEntity
  8
0
100
AcDbCircle
 10
960.0000000000003
 20
208.3617647058821
 30
0.0
 40
13.13823529411763
100
AcDbArc
 50
37.721218445649
 51
142.278781554351
  0
LINE
  5
F12
330
1D9
100
AcDbEntity
  8
0
100
AcDbLine
 10
816.2397829717837
 20
216.4
 30
0.0
 11
816.2397829717837
 21
206.4999999999999
 31
0.0
  0
ARC
  5
F13
330
1D9
100
AcDbEntity
  8
0
100
AcDbCircle
 10
880.5884572681197
 20
216.3029411764704
 30
0.0
 40
5.19705882352941
100
AcDbArc
 50
1.070102236513484
 51
178.9298977634865
  0
LINE
  5
F14
330
1D9
100
AcDbEntity
  8
0
100
AcDbLine
 10
875.3923048454129
 20
206.4999999999999
 30
0.0
 11
875.3923048454129
 21
216.4
 31
0.0
  0
LINE
  5
F15
330
1D9
100
AcDbEntity
  8
0
100
AcDbLine
 10
885.7846096908264
 20
216.4
 30
0.0
 11
885.7846096908264
 21
206.4999999999999
 31
0.0
  0
ARC
  5
F16
330
1D9
100
AcDbEntity
  8
0
100
AcDbCircle
 10
849.4115427318801
 20
216.3029411764704
 30
0.0
 40
5.19705882352941
100
AcDbArc
 50
1.070102236513484
 51
178.9298977634865
  0
LINE
  5
F17
330
1D9
100
AcDbEntity
  8
0
100
AcDbLine
 10
854.6076951545867
 20
206.4999999999999
 30
0.0
 11
854.6076951545867
 21
216.4
 31
0.0
  0
LINE
  5
F18
330
1D9
100
AcDbEntity
  8
0
100
AcDbLine
 10
844.2153903091734
 20
206.4999999999999
 30
0.0
 11
844.2153903091734
 21
216.4
 31
0.0
  0
ARC
  5
F19
330
1D9
100
AcDbEntity
  8
0
100
AcDbCircle
 10
865.0
 20
208.3617647058821
 30
0.0
 40
13.13823529411763
100
AcDbArc
 50
37.721218445649
 51
142.278781554351
  0
LINE
  5
F1A
330
1D9
100
AcDbEntity
  8
0
100
AcDbLine
 10
849.4115427318801
 20
221.4999999999999
 30
0.0
 11
880.5884572681197
 21
221.4999999999999
 31
0.0
  0
LINE
  5
F1B
330
1D9
100
AcDbEntity
  8
0
100
AcDbLine
 10
939.2153903091736
 20
206.4999999999999
 30
0.0
 11
939.2153903091736
 21
216.4
 31
0.0
  0
LINE
  5
F1C
330
1D9
100
AcDbEntity
  8
0
100
AcDbLine
 10
949.6076951545873
 20
206.4999999999999
 30
0.0
 11
949.6076951545873
 21
216.4
 31
0.0
  0
ARC
  5
F1D
330
1D9
100
AcDbEntity
  8
0
100
AcDbCircle
 10
944.4115427318806
 20
216.3029411764704
 30
0.0
 40
5.19705882352941
100
AcDbArc
 50
1.070102236513484
 51
178.9298977634865
  0
ARC
  5
F1E
330
1D9
100
AcDbEntity
  8
0
100
AcDbCircle
 10
960.0000000000003
 20
292.5
 30
0.0
 40
160.0
100
AcDbArc
 50
340.6235966604496
 51
350.647964942442
  0
LINE
  5
F1F
330
1D9
100
AcDbEntity
  8
0
100
AcDbLine
 10
1070.588457268119
 20
221.4999999999999
 30
0.0
 11
1039.41154273188
 21
221.4999999999999
 31
0.0
  0
ARC
  5
F20
330
1D9
100
AcDbEntity
  8
0
100
AcDbCircle
 10
1055.000000000001
 20
208.3617647058821
 30
0.0
 40
13.13823529411763
100
AcDbArc
 50
37.721218445649
 51
142.278781554351
  0
LINE
  5
F21
330
1D9
100
AcDbEntity
  8
0
100
AcDbLine
 10
1034.215390309174
 20
216.4
 30
0.0
 11
1034.215390309174
 21
206.4999999999999
 31
0.0
  0
LINE
  5
F22
330
1D9
100
AcDbEntity
  8
0
100
AcDbLine
 10
1044.607695154587
 20
206.4999999999999
 30
0.0
 11
1044.607695154587
 21
216.4
 31
0.0
  0
ARC
  5
F23
330
1D9
100
AcDbEntity
  8
0
100
AcDbCircle
 10
1039.41154273188
 20
216.3029411764704
 30
0.0
 40
5.19705882352941
100
AcDbArc
 50
1.070102236513484
 51
178.9298977634865
  0
LINE
  5
F24
330
1D9
100
AcDbEntity
  8
0
100
AcDbLine
 10
980.7846096908267
 20
216.4
 30
0.0
 11
980.7846096908267
 21
206.4999999999999
 31
0.0
  0
LINE
  5
F25
330
1D9
100
AcDbEntity
  8
0
100
AcDbLine
 10
970.3923048454134
 20
206.4999999999999
 30
0.0
 11
970.3923048454134
 21
216.4
 31
0.0
  0
ARC
  5
F26
330
1D9
100
AcDbEntity
  8
0
100
AcDbCircle
 10
975.5884572681202
 20
216.3029411764704
 30
0.0
 40
5.19705882352941
100
AcDbArc
 50
1.070102236513484
 51
178.9298977634865
  0
ARC
  5
F27
330
1D9
100
AcDbEntity
  8
0
100
AcDbCircle
 10
1201.5
 20
207.5662022514006
 30
0.0
 40
96.0
100
AcDbArc
 50
160.6235966604496
 51
172.0521774694125
  0
LINE
  5
F28
330
1D9
100
AcDbEntity
  8
0
100
AcDbLine
 10
1103.760217028217
 20
216.4
 30
0.0
 11
1103.760217028217
 21
206.4999999999999
 31
0.0
  0
LINE
  5
F29
330
1D9
100
AcDbEntity
  8
0
100
AcDbLine
 10
1114.15252187363
 20
206.4999999999999
 30
0.0
 11
1114.15252187363
 21
216.4
 31
0.0
  0
ARC
  5
F2A
330
1D9
100
AcDbEntity
  8
0
100
AcDbCircle
 10
1108.956369450923
 20
216.3029411764704
 30
0.0
 40
5.19705882352941
100
AcDbArc
 50
1.070102236513484
 51
178.9298977634865
  0
LINE
  5
F2B
330
1D9
100
AcDbEntity
  8
0
100
AcDbLine
 10
1075.784609690827
 20
206.4999999999999
 30
0.0
 11
1075.784609690827
 21
216.4
 31
0.0
  0
LINE
  5
F2C
330
1D9
100
AcDbEntity
  8
0
100
AcDbLine
 10
1065.392304845413
 20
206.4999999999999
 30
0.0
 11
1065.392304845413
 21
216.4
 31
0.0
  0
ARC
  5
F2D
330
1D9
100
AcDbEntity
  8
0
100
AcDbCircle
 10
1070.588457268119
 20
216.3029411764704
 30
0.0
 40
5.19705882352941
100
AcDbArc
 50
1.070102236513484
 51
178.9298977634865
  0
ARC
  5
F2E
330
1D9
100
AcDbEntity
  8
0
100
AcDbCircle
 10
1118.034806292791
 20
317.5
 30
0.0
 40
1.0
100
AcDbArc
 50
278.8102497427161
 51
90.0
  0
ARC
  5
F2F
330
1D9
100
AcDbEntity
  8
0
100
AcDbCircle
 10
1118.034806292791
 20
267.5
 30
0.0
 40
1.0
100
AcDbArc
 50
270.0
 51
81.18975025728387
  0
ARC
  5
F30
330
1D9
100
AcDbEntity
  8
0
100
AcDbCircle
 10
960.0000000000003
 20
292.5
 30
0.0
 40
160.0
100
AcDbArc
 50
351.3687998596451
 51
8.631200140354803
  0
ARC
  5
F31
330
1D9
100
AcDbEntity
  8
0
100
AcDbCircle
 10
960.0000000000003
 20
376.6382352941176
 30
0.0
 40
13.13823529411763
100
AcDbArc
 50
217.721218445649
 51
322.2787815543508
  0
LINE
  5
F32
330
1D9
100
AcDbEntity
  8
0
100
AcDbLine
 10
944.4115427318806
 20
363.5
 30
0.0
 11
975.5884572681202
 21
363.5
 31
0.0
  0
LINE
  5
F33
330
1D9
100
AcDbEntity
  8
0
100
AcDbLine
 10
1079.0
 20
467.4999999999995
 30
0.0
 11
841.0000000000005
 21
467.5000000000004
 31
0.0
  0
LINE
  5
F34
330
1D9
100
AcDbEntity
  8
0
100
AcDbLine
 10
849.4115427318801
 20
363.5
 30
0.0
 11
880.5884572681197
 21
363.5
 31
0.0
  0
ARC
  5
F35
330
1D9
100
AcDbEntity
  8
0
100
AcDbCircle
 10
865.0
 20
376.6382352941176
 30
0.0
 40
13.13823529411763
100
AcDbArc
 50
217.721218445649
 51
322.2787815543508
  0
LINE
  5
F36
330
1D9
100
AcDbEntity
  8
0
100
AcDbLine
 10
844.2153903091734
 20
378.5
 30
0.0
 11
844.2153903091734
 21
368.5999999999998
 31
0.0
  0
LINE
  5
F37
330
1D9
100
AcDbEntity
  8
0
100
AcDbLine
 10
854.6076951545867
 20
378.5
 30
0.0
 11
854.6076951545867
 21
368.5999999999998
 31
0.0
  0
ARC
  5
F38
330
1D9
100
AcDbEntity
  8
0
100
AcDbCircle
 10
849.4115427318801
 20
368.6970588235293
 30
0.0
 40
5.19705882352941
100
AcDbArc
 50
181.0701022365135
 51
358.9298977634864
  0
LINE
  5
F39
330
1D9
100
AcDbEntity
  8
0
100
AcDbLine
 10
885.7846096908264
 20
368.5999999999998
 30
0.0
 11
885.7846096908264
 21
378.5
 31
0.0
  0
LINE
  5
F3A
330
1D9
100
AcDbEntity
  8
0
100
AcDbLine
 10
875.3923048454129
 20
378.5
 30
0.0
 11
875.3923048454129
 21
368.5999999999998
 31
0.0
  0
ARC
  5
F3B
330
1D9
100
AcDbEntity
  8
0
100
AcDbCircle
 10
880.5884572681197
 20
368.6970588235293
 30
0.0
 40
5.19705882352941
100
AcDbArc
 50
181.0701022365135
 51
358.9298977634864
  0
LINE
  5
F3C
330
1D9
100
AcDbEntity
  8
0
100
AcDbLine
 10
816.2397829717837
 20
368.5999999999998
 30
0.0
 11
816.2397829717837
 21
378.5
 31
0.0
  0
ARC
  5
F3D
330
1D9
100
AcDbEntity
  8
0
100
AcDbCircle
 10
944.4115427318806
 20
368.6970588235293
 30
0.0
 40
5.19705882352941
100
AcDbArc
 50
181.0701022365135
 51
358.9298977634864
  0
LINE
  5
F3E
330
1D9
100
AcDbEntity
  8
0
100
AcDbLine
 10
949.6076951545873
 20
378.5
 30
0.0
 11
949.6076951545873
 21
368.5999999999998
 31
0.0
  0
LINE
  5
F3F
330
1D9
100
AcDbEntity
  8
0
100
AcDbLine
 10
939.2153903091736
 20
378.5
 30
0.0
 11
939.2153903091736
 21
368.5999999999998
 31
0.0
  0
LINE
  5
F40
330
1D9
100
AcDbEntity
  8
0
100
AcDbLine
 10
854.6500100000002
 20
412.5000099999998
 30
0.0
 11
854.6500099999999
 21
417.4999999999998
 31
0.0
  0
LINE
  5
F41
330
1D9
100
AcDbEntity
  8
0
100
AcDbLine
 10
853.0
 20
417.4999999999998
 30
0.0
 11
853.0000000000002
 21
412.5000099999998
 31
0.0
  0
LINE
  5
F42
330
1D9
100
AcDbEntity
  8
0
100
AcDbLine
 10
877.0000000000003
 20
417.4999999999998
 30
0.0
 11
877.0000000000003
 21
412.5000099999998
 31
0.0
  0
LINE
  5
F43
330
1D9
100
AcDbEntity
  8
0
100
AcDbLine
 10
875.3499900000006
 20
412.5000099999998
 30
0.0
 11
875.3499900000006
 21
417.4999999999998
 31
0.0
  0
LINE
  5
F44
330
1D9
100
AcDbEntity
  8
0
100
AcDbLine
 10
841.0000000000005
 20
464.5000000000004
 30
0.0
 11
841.0000000000005
 21
467.5000000000004
 31
0.0
  0
LINE
  5
F45
330
1D9
100
AcDbEntity
  8
0
100
AcDbLine
 10
948.0000000000003
 20
417.4999999999998
 30
0.0
 11
948.0000000000007
 21
412.5000099999998
 31
0.0
  0
LINE
  5
F46
330
1D9
100
AcDbEntity
  8
0
100
AcDbLine
 10
949.6500100000007
 20
412.5000099999998
 30
0.0
 11
949.6500100000003
 21
417.4999999999998
 31
0.0
  0
ARC
  5
F47
330
1D9
100
AcDbEntity
  8
0
100
AcDbCircle
 10
1055.000000000001
 20
376.6382352941176
 30
0.0
 40
13.13823529411763
100
AcDbArc
 50
217.721218445649
 51
322.2787815543508
  0
LINE
  5
F48
330
1D9
100
AcDbEntity
  8
0
100
AcDbLine
 10
1070.588457268119
 20
363.5
 30
0.0
 11
1039.41154273188
 21
363.5
 31
0.0
  0
ARC
  5
F49
330
1D9
100
AcDbEntity
  8
0
100
AcDbCircle
 10
975.5884572681202
 20
368.6970588235293
 30
0.0
 40
5.19705882352941
100
AcDbArc
 50
181.0701022365135
 51
358.9298977634864
  0
LINE
  5
F4A
330
1D9
100
AcDbEntity
  8
0
100
AcDbLine
 10
970.3923048454134
 20
378.5
 30
0.0
 11
970.3923048454134
 21
368.5999999999998
 31
0.0
  0
LINE
  5
F4B
330
1D9
100
AcDbEntity
  8
0
100
AcDbLine
 10
980.7846096908267
 20
368.5999999999998
 30
0.0
 11
980.7846096908267
 21
378.5
 31
0.0
  0
ARC
  5
F4C
330
1D9
100
AcDbEntity
  8
0
100
AcDbCircle
 10
1039.41154273188
 20
368.6970588235293
 30
0.0
 40
5.19705882352941
100
AcDbArc
 50
181.0701022365135
 51
358.9298977634864
  0
LINE
  5
F4D
330
1D9
100
AcDbEntity
  8
0
100
AcDbLine
 10
1044.607695154587
 20
378.5
 30
0.0
 11
1044.607695154587
 21
368.5999999999998
 31
0.0
  0
LINE
  5
F4E
330
1D9
100
AcDbEntity
  8
0
100
AcDbLine
 10
1034.215390309174
 20
368.5999999999998
 30
0.0
 11
1034.215390309174
 21
378.5
 31
0.0
  0
ARC
  5
F4F
330
1D9
100
AcDbEntity
  8
0
100
AcDbCircle
 10
1070.588457268119
 20
368.6970588235293
 30
0.0
 40
5.19705882352941
100
AcDbArc
 50
181.0701022365135
 51
358.9298977634864
  0
LINE
  5
F50
330
1D9
100
AcDbEntity
  8
0
100
AcDbLine
 10
1065.392304845413
 20
378.5
 30
0.0
 11
1065.392304845413
 21
368.5999999999998
 31
0.0
  0
LINE
  5
F51
330
1D9
100
AcDbEntity
  8
0
100
AcDbLine
 10
1075.784609690827
 20
378.5
 30
0.0
 11
1075.784609690827
 21
368.5999999999998
 31
0.0
  0
ARC
  5
F52
330
1D9
100
AcDbEntity
  8
0
100
AcDbCircle
 10
1108.956369450923
 20
368.6970588235293
 30
0.0
 40
5.19705882352941
100
AcDbArc
 50
181.0701022365135
 51
358.9298977634864
  0
LINE
  5
F53
330
1D9
100
AcDbEntity
  8
0
100
AcDbLine
 10
1114.15252187363
 20
378.5
 30
0.0
 11
1114.15252187363
 21
368.5999999999998
 31
0.0
  0
LINE
  5
F54
330
1D9
100
AcDbEntity
  8
0
100
AcDbLine
 10
1103.760217028217
 20
368.5999999999998
 30
0.0
 11
1103.760217028217
 21
378.5
 31
0.0
  0
ARC
  5
F55
330
1D9
100
AcDbEntity
  8
0
100
AcDbCircle
 10
1201.5
 20
377.4337977485993
 30
0.0
 40
96.0
100
AcDbArc
 50
187.9478225305874
 51
199.3764033395503
  0
LINE
  5
F56
330
1D9
100
AcDbEntity
  8
0
100
AcDbLine
 10
970.3499900000011
 20
412.5000099999998
 30
0.0
 11
970.3499900000011
 21
417.4999999999998
 31
0.0
  0
LINE
  5
F57
330
1D9
100
AcDbEntity
  8
0
100
AcDbLine
 10
972.0000000000007
 20
417.4999999999998
 30
0.0
 11
972.0000000000007
 21
412.5000099999998
 31
0.0
  0
LINE
  5
F58
330
1D9
100
AcDbEntity
  8
0
100
AcDbLine
 10
1044.65001
 20
412.5000099999998
 30
0.0
 11
1044.65001
 21
417.4999999999998
 31
0.0
  0
LINE
  5
F59
330
1D9
100
AcDbEntity
  8
0
100
AcDbLine
 10
1043.0
 20
417.4999999999998
 30
0.0
 11
1043.0
 21
412.5000099999998
 31
0.0
  0
LINE
  5
F5A
330
1D9
100
AcDbEntity
  8
0
100
AcDbLine
 10
1111.5
 20
464.5
 30
0.0
 11
1112.5
 21
463.4999999999998
 31
0.0
  0
LINE
  5
F5B
330
1D9
100
AcDbEntity
  8
0
100
AcDbLine
 10
1112.5
 20
463.4999999999998
 30
0.0
 11
1112.5
 21
455.4999999999998
 31
0.0
  0
LINE
  5
F5C
330
1D9
100
AcDbEntity
  8
0
100
AcDbLine
 10
1112.544826719042
 20
417.4999999999998
 30
0.0
 11
1112.544826719042
 21
412.5000099999998
 31
0.0
  0
LINE
  5
F5D
330
1D9
100
AcDbEntity
  8
0
100
AcDbLine
 10
1114.194836719043
 20
412.5000099999998
 30
0.0
 11
1114.194836719043
 21
417.4999999999998
 31
0.0
  0
LINE
  5
F5E
330
1D9
100
AcDbEntity
  8
0
100
AcDbLine
 10
1067.0
 20
417.4999999999998
 30
0.0
 11
1067.0
 21
412.5000099999998
 31
0.0
  0
LINE
  5
F5F
330
1D9
100
AcDbEntity
  8
0
100
AcDbLine
 10
1065.34999
 20
412.5000099999998
 30
0.0
 11
1065.349990000001
 21
417.4999999999998
 31
0.0
  0
LINE
  5
F60
330
1D9
100
AcDbEntity
  8
0
100
AcDbLine
 10
1079.0
 20
464.5
 30
0.0
 11
1079.0
 21
467.4999999999995
 31
0.0
  0
TEXT
  5
F61
330
1D9
100
AcDbEntity
  8
0
100
AcDbText
 10
809.0000000000003
 20
562.2
 30
0.0
 40
15.0
  1
パイプサイレンサー：ＫＶＨ－８０Ｎ
 72
     4
 11
960.0000000000003
 21
570.0
 31
0.0
100
AcDbText
  0
LINE
  5
F62
330
1D9
100
AcDbEntity
  8
0
100
AcDbLine
 10
946.1250000000003
 20
729.9999999999968
 30
0.0
 11
973.8750000000003
 21
729.9999999999968
 31
0.0
  0
ARC
  5
F63
330
1D9
100
AcDbEntity
  8
0
100
AcDbCircle
 10
960.0000000000003
 20
718.0769886363605
 30
0.0
 40
11.92301136363636
100
AcDbArc
 50
39.12140706504361
 51
140.8785929349394
  0
LINE
  5
F64
330
1D9
100
AcDbEntity
  8
0
100
AcDbLine
 10
826.0000000000005
 20
684.9999999999966
 30
0.0
 11
1094.0
 21
684.9999999999966
 31
0.0
  0
LINE
  5
F65
330
1D9
100
AcDbEntity
  8
0
100
AcDbLine
 10
825.9999999999996
 20
689.9999999999961
 30
0.0
 11
1094.0
 21
689.9999999999961
 31
0.0
  0
LINE
  5
F66
330
1D9
100
AcDbEntity
  8
0
100
AcDbLine
 10
1094.0
 20
715.9999999999961
 30
0.0
 11
826.0000000000005
 21
715.9999999999961
 31
0.0
  0
LINE
  5
F67
330
1D9
100
AcDbEntity
  8
0
100
AcDbLine
 10
890.0000000000003
 20
639.9999999999972
 30
0.0
 11
1030.0
 21
639.9999999999972
 31
0.0
  0
LINE
  5
F68
330
1D9
100
AcDbEntity
  8
0
100
AcDbLine
 10
863.5000000000005
 20
642.9999999999966
 30
0.0
 11
1056.500000000001
 21
642.9999999999966
 31
0.0
  0
LINE
  5
F69
330
1D9
100
AcDbEntity
  8
0
100
AcDbLine
 10
1094.000000000001
 20
650.9999999999966
 30
0.0
 11
826.0000000000005
 21
650.9999999999966
 31
0.0
  0
LINE
  5
F6A
330
1D9
100
AcDbEntity
  8
0
100
AcDbLine
 10
825.0000000000005
 20
651.9999999999967
 30
0.0
 11
825.0000000000005
 21
683.9999999999966
 31
0.0
  0
LINE
  5
F6B
330
1D9
100
AcDbEntity
  8
0
100
AcDbLine
 10
862.5000000000005
 20
643.9999999999967
 30
0.0
 11
862.5000000000005
 21
650.9999999999966
 31
0.0
  0
LINE
  5
F6C
330
1D9
100
AcDbEntity
  8
0
100
AcDbLine
 10
863.5000000000005
 20
642.9999999999966
 30
0.0
 11
862.5000000000005
 21
643.9999999999967
 31
0.0
  0
LINE
  5
F6D
330
1D9
100
AcDbEntity
  8
0
100
AcDbLine
 10
880.0
 20
636.9999999999972
 30
0.0
 11
879.9999999999995
 21
656.9999999999967
 31
0.0
  0
LINE
  5
F6E
330
1D9
100
AcDbEntity
  8
0
100
AcDbLine
 10
826.0000000000005
 20
650.9999999999966
 30
0.0
 11
825.0000000000005
 21
651.9999999999967
 31
0.0
  0
LINE
  5
F6F
330
1D9
100
AcDbEntity
  8
0
100
AcDbLine
 10
890.0000000000003
 20
639.9999999999972
 30
0.0
 11
890.0000000000003
 21
642.9999999999973
 31
0.0
  0
LINE
  5
F70
330
1D9
100
AcDbEntity
  8
0
100
AcDbLine
 10
903.4314575050766
 20
636.9999999999972
 30
0.0
 11
903.4314575050766
 21
656.9999999999967
 31
0.0
  0
LINE
  5
F71
330
1D9
100
AcDbEntity
  8
0
100
AcDbLine
 10
866.5754871165137
 20
729.9999999999961
 30
0.0
 11
894.3254871165137
 21
729.9999999999961
 31
0.0
  0
ARC
  5
F72
330
1D9
100
AcDbEntity
  8
0
100
AcDbCircle
 10
894.3254871165137
 20
725.3692471590871
 30
0.0
 40
4.630752840909091
100
AcDbArc
 50
2.85626160780179
 51
177.1437383921982
  0
LINE
  5
F73
330
1D9
100
AcDbEntity
  8
0
100
AcDbLine
 10
873.4999999999999
 20
729.9999999999961
 30
0.0
 11
873.5000000000002
 21
742.8191075420268
 31
0.0
  0
ARC
  5
F74
330
1D9
100
AcDbEntity
  8
0
100
AcDbCircle
 10
861.3750000000003
 20
725.3692471590871
 30
0.0
 40
4.630752840909091
100
AcDbArc
 50
55.8392696819499
 51
177.1437383921982
  0
LINE
  5
F75
330
1D9
100
AcDbEntity
  8
0
100
AcDbLine
 10
861.9504871165135
 20
715.9999999999961
 30
0.0
 11
861.9504871165135
 21
725.5999999999962
 31
0.0
  0
LINE
  5
F76
330
1D9
100
AcDbEntity
  8
0
100
AcDbLine
 10
889.7004871165135
 20
715.9999999999961
 30
0.0
 11
889.7004871165135
 21
725.5999999999962
 31
0.0
  0
LINE
  5
F77
330
1D9
100
AcDbEntity
  8
0
100
AcDbLine
 10
871.2004871165136
 20
715.9999999999961
 30
0.0
 11
871.2004871165136
 21
725.5999999999962
 31
0.0
  0
ARC
  5
F78
330
1D9
100
AcDbEntity
  8
0
100
AcDbCircle
 10
866.5754871165137
 20
725.3692471590871
 30
0.0
 40
4.630752840909087
100
AcDbArc
 50
2.85626160780179
 51
177.1437383921982
  0
ARC
  5
F79
330
1D9
100
AcDbEntity
  8
0
100
AcDbCircle
 10
880.4504871165137
 20
718.07698863636
 30
0.0
 40
11.92301136363636
100
AcDbArc
 50
39.12140706504361
 51
140.8785929349394
  0
ARC
  5
F7A
330
1D9
100
AcDbEntity
  8
0
100
AcDbCircle
 10
847.5000000000003
 20
718.07698863636
 30
0.0
 40
11.92301136363636
100
AcDbArc
 50
39.12140706504361
 51
140.8785929349394
  0
ARC
  5
F7B
330
1D9
100
AcDbEntity
  8
0
100
AcDbCircle
 10
833.6250000000005
 20
725.3692471590871
 30
0.0
 40
4.630752840909087
100
AcDbArc
 50
2.85626160780179
 51
177.1437383921982
  0
LINE
  5
F7C
330
1D9
100
AcDbEntity
  8
0
100
AcDbLine
 10
838.2500000000003
 20
715.9999999999961
 30
0.0
 11
838.2500000000003
 21
725.5999999999962
 31
0.0
  0
LINE
  5
F7D
330
1D9
100
AcDbEntity
  8
0
100
AcDbLine
 10
856.7500000000004
 20
715.9999999999961
 30
0.0
 11
856.7500000000004
 21
725.5999999999962
 31
0.0
  0
LINE
  5
F7E
330
1D9
100
AcDbEntity
  8
0
100
AcDbLine
 10
833.6250000000005
 20
729.9999999999961
 30
0.0
 11
861.3750000000003
 21
729.9999999999961
 31
0.0
  0
LINE
  5
F7F
330
1D9
100
AcDbEntity
  8
0
100
AcDbLine
 10
829.0000000000002
 20
715.9999999999961
 30
0.0
 11
829.0000000000002
 21
725.5999999999962
 31
0.0
  0
LINE
  5
F80
330
1D9
100
AcDbEntity
  8
0
100
AcDbLine
 10
825.9999999999996
 20
715.9999999999961
 30
0.0
 11
824.9999999999996
 21
714.9999999999961
 31
0.0
  0
LINE
  5
F81
330
1D9
100
AcDbEntity
  8
0
100
AcDbLine
 10
825.0000000000005
 20
683.9999999999966
 30
0.0
 11
826.0000000000005
 21
684.9999999999966
 31
0.0
  0
LINE
  5
F82
330
1D9
100
AcDbEntity
  8
0
100
AcDbLine
 10
870.8004971165136
 20
689.9999899999961
 30
0.0
 11
870.8004971165136
 21
684.9999999999972
 31
0.0
  0
LINE
  5
F83
330
1D9
100
AcDbEntity
  8
0
100
AcDbLine
 10
869.450487116514
 20
684.9999999999966
 30
0.0
 11
869.4504871165136
 21
689.9999899999961
 31
0.0
  0
LINE
  5
F84
330
1D9
100
AcDbEntity
  8
0
100
AcDbLine
 10
836.5000000000009
 20
684.9999999999966
 30
0.0
 11
836.5000000000005
 21
689.9999899999961
 31
0.0
  0
LINE
  5
F85
330
1D9
100
AcDbEntity
  8
0
100
AcDbLine
 10
837.8500100000005
 20
689.9999899999961
 30
0.0
 11
837.8500100000005
 21
684.9999999999972
 31
0.0
  0
LINE
  5
F86
330
1D9
100
AcDbEntity
  8
0
100
AcDbLine
 10
857.1499900000004
 20
689.9999899999961
 30
0.0
 11
857.1499900000008
 21
684.9999999999972
 31
0.0
  0
LINE
  5
F87
330
1D9
100
AcDbEntity
  8
0
100
AcDbLine
 10
858.5
 20
684.9999999999966
 30
0.0
 11
858.5000000000004
 21
689.9999899999961
 31
0.0
  0
LINE
  5
F88
330
1D9
100
AcDbEntity
  8
0
100
AcDbLine
 10
824.9999999999996
 20
690.9999999999961
 30
0.0
 11
825.9999999999996
 21
689.9999999999961
 31
0.0
  0
LINE
  5
F89
330
1D9
100
AcDbEntity
  8
0
100
AcDbLine
 10
824.9999999999996
 20
690.9999999999961
 30
0.0
 11
824.9999999999996
 21
714.9999999999961
 31
0.0
  0
LINE
  5
F8A
330
1D9
100
AcDbEntity
  8
0
100
AcDbLine
 10
898.9504871165136
 20
725.5999999999962
 30
0.0
 11
898.9504871165136
 21
715.9999999999961
 31
0.0
  0
LINE
  5
F8B
330
1D9
100
AcDbEntity
  8
0
100
AcDbLine
 10
941.5000000000004
 20
715.9999999999968
 30
0.0
 11
941.5000000000004
 21
725.5999999999968
 31
0.0
  0
LINE
  5
F8C
330
1D9
100
AcDbEntity
  8
0
100
AcDbLine
 10
950.7500000000003
 20
715.9999999999968
 30
0.0
 11
950.7500000000003
 21
725.5999999999968
 31
0.0
  0
ARC
  5
F8D
330
1D9
100
AcDbEntity
  8
0
100
AcDbCircle
 10
946.1250000000003
 20
725.3692471590875
 30
0.0
 40
4.630752840909087
100
AcDbArc
 50
2.85626160780179
 51
177.1437383921982
  0
LINE
  5
F8E
330
1D9
100
AcDbEntity
  8
0
100
AcDbLine
 10
891.4504871165132
 20
684.9999999999966
 30
0.0
 11
891.4504871165135
 21
689.9999899999961
 31
0.0
  0
LINE
  5
F8F
330
1D9
100
AcDbEntity
  8
0
100
AcDbLine
 10
890.1004771165135
 20
689.9999899999961
 30
0.0
 11
890.1004771165139
 21
684.9999999999972
 31
0.0
  0
LINE
  5
F90
330
1D9
100
AcDbEntity
  8
0
100
AcDbLine
 10
950.3500100000003
 20
689.9999899999966
 30
0.0
 11
950.3500100000003
 21
684.9999999999978
 31
0.0
  0
LINE
  5
F91
330
1D9
100
AcDbEntity
  8
0
100
AcDbLine
 10
949.0000000000007
 20
684.9999999999972
 30
0.0
 11
949.0000000000003
 21
689.9999899999966
 31
0.0
  0
LINE
  5
F92
330
1D9
100
AcDbEntity
  8
0
100
AcDbLine
 10
1095.0
 20
651.9999999999967
 30
0.0
 11
1095.0
 21
683.9999999999966
 31
0.0
  0
LINE
  5
F93
330
1D9
100
AcDbEntity
  8
0
100
AcDbLine
 10
1030.0
 20
639.9999999999972
 30
0.0
 11
1030.0
 21
642.9999999999966
 31
0.0
  0
LINE
  5
F94
330
1D9
100
AcDbEntity
  8
0
100
AcDbLine
 10
1016.568542494924
 20
636.9999999999972
 30
0.0
 11
1016.568542494924
 21
656.9999999999967
 31
0.0
  0
LINE
  5
F95
330
1D9
100
AcDbEntity
  8
0
100
AcDbLine
 10
1040.0
 20
636.9999999999972
 30
0.0
 11
1040.000000000001
 21
656.9999999999967
 31
0.0
  0
LINE
  5
F96
330
1D9
100
AcDbEntity
  8
0
100
AcDbLine
 10
1094.0
 20
650.9999999999966
 30
0.0
 11
1095.0
 21
651.9999999999967
 31
0.0
  0
LINE
  5
F97
330
1D9
100
AcDbEntity
  8
0
100
AcDbLine
 10
1057.5
 20
643.9999999999967
 30
0.0
 11
1057.5
 21
650.9999999999966
 31
0.0
  0
LINE
  5
F98
330
1D9
100
AcDbEntity
  8
0
100
AcDbLine
 10
1056.499999999999
 20
642.9999999999966
 30
0.0
 11
1057.5
 21
643.9999999999967
 31
0.0
  0
ARC
  5
F99
330
1D9
100
AcDbEntity
  8
0
100
AcDbCircle
 10
1039.549512883486
 20
718.07698863636
 30
0.0
 40
11.92301136363636
100
AcDbArc
 50
39.1214070650605
 51
140.8785929349563
  0
LINE
  5
F9A
330
1D9
100
AcDbEntity
  8
0
100
AcDbLine
 10
1053.424512883486
 20
729.9999999999961
 30
0.0
 11
1025.674512883486
 21
729.9999999999961
 31
0.0
  0
ARC
  5
F9B
330
1D9
100
AcDbEntity
  8
0
100
AcDbCircle
 10
1025.674512883486
 20
725.3692471590871
 30
0.0
 40
4.630752840909091
100
AcDbArc
 50
2.85626160780179
 51
177.1437383921982
  0
LINE
  5
F9C
330
1D9
100
AcDbEntity
  8
0
100
AcDbLine
 10
1021.049512883487
 20
725.5999999999962
 30
0.0
 11
1021.049512883487
 21
715.9999999999961
 31
0.0
  0
LINE
  5
F9D
330
1D9
100
AcDbEntity
  8
0
100
AcDbLine
 10
1030.299512883486
 20
715.9999999999961
 30
0.0
 11
1030.299512883486
 21
725.5999999999962
 31
0.0
  0
LINE
  5
F9E
330
1D9
100
AcDbEntity
  8
0
100
AcDbLine
 10
978.5000000000003
 20
725.5999999999968
 30
0.0
 11
978.5000000000003
 21
715.9999999999968
 31
0.0
  0
LINE
  5
F9F
330
1D9
100
AcDbEntity
  8
0
100
AcDbLine
 10
969.2500000000004
 20
715.9999999999968
 30
0.0
 11
969.2500000000004
 21
725.5999999999968
 31
0.0
  0
ARC
  5
FA0
330
1D9
100
AcDbEntity
  8
0
100
AcDbCircle
 10
973.8750000000003
 20
725.3692471590875
 30
0.0
 40
4.630752840909091
100
AcDbArc
 50
2.85626160780179
 51
177.1437383921982
  0
LINE
  5
FA1
330
1D9
100
AcDbEntity
  8
0
100
AcDbLine
 10
1029.899522883486
 20
689.9999899999961
 30
0.0
 11
1029.899522883485
 21
684.9999999999972
 31
0.0
  0
LINE
  5
FA2
330
1D9
100
AcDbEntity
  8
0
100
AcDbLine
 10
1028.549512883486
 20
684.9999999999966
 30
0.0
 11
1028.549512883486
 21
689.9999899999961
 31
0.0
  0
LINE
  5
FA3
330
1D9
100
AcDbEntity
  8
0
100
AcDbLine
 10
971.0
 20
684.9999999999972
 30
0.0
 11
971.0000000000004
 21
689.9999899999966
 31
0.0
  0
LINE
  5
FA4
330
1D9
100
AcDbEntity
  8
0
100
AcDbLine
 10
969.6499900000004
 20
689.9999899999966
 30
0.0
 11
969.6499900000008
 21
684.9999999999978
 31
0.0
  0
LINE
  5
FA5
330
1D9
100
AcDbEntity
  8
0
100
AcDbLine
 10
1046.499999999998
 20
729.9999999999961
 30
0.0
 11
1046.499999999998
 21
742.8191075420268
 31
0.0
  0
LINE
  5
FA6
330
1D9
100
AcDbEntity
  8
0
100
AcDbLine
 10
1091.0
 20
715.9999999999961
 30
0.0
 11
1091.0
 21
725.5999999999962
 31
0.0
  0
LINE
  5
FA7
330
1D9
100
AcDbEntity
  8
0
100
AcDbLine
 10
1048.799512883486
 20
715.9999999999961
 30
0.0
 11
1048.799512883486
 21
725.5999999999962
 31
0.0
  0
LINE
  5
FA8
330
1D9
100
AcDbEntity
  8
0
100
AcDbLine
 10
1086.375
 20
729.9999999999961
 30
0.0
 11
1058.624999999999
 21
729.9999999999961
 31
0.0
  0
LINE
  5
FA9
330
1D9
100
AcDbEntity
  8
0
100
AcDbLine
 10
1063.25
 20
715.9999999999961
 30
0.0
 11
1063.25
 21
725.5999999999962
 31
0.0
  0
LINE
  5
FAA
330
1D9
100
AcDbEntity
  8
0
100
AcDbLine
 10
1081.75
 20
715.9999999999961
 30
0.0
 11
1081.75
 21
725.5999999999962
 31
0.0
  0
ARC
  5
FAB
330
1D9
100
AcDbEntity
  8
0
100
AcDbCircle
 10
1086.375
 20
725.3692471590871
 30
0.0
 40
4.630752840909087
100
AcDbArc
 50
2.85626160780179
 51
177.1437383921982
  0
ARC
  5
FAC
330
1D9
100
AcDbEntity
  8
0
100
AcDbCircle
 10
1072.5
 20
718.07698863636
 30
0.0
 40
11.92301136363636
100
AcDbArc
 50
39.1214070650605
 51
140.8785929349563
  0
ARC
  5
FAD
330
1D9
100
AcDbEntity
  8
0
100
AcDbCircle
 10
1053.424512883486
 20
725.3692471590871
 30
0.0
 40
4.630752840909087
100
AcDbArc
 50
2.85626160780179
 51
177.1437383921982
  0
LINE
  5
FAE
330
1D9
100
AcDbEntity
  8
0
100
AcDbLine
 10
1058.049512883487
 20
715.9999999999961
 30
0.0
 11
1058.049512883487
 21
725.5999999999962
 31
0.0
  0
ARC
  5
FAF
330
1D9
100
AcDbEntity
  8
0
100
AcDbCircle
 10
1058.624999999999
 20
725.3692471590871
 30
0.0
 40
4.630752840909091
100
AcDbArc
 50
2.85626160780179
 51
124.1607303180501
  0
LINE
  5
FB0
330
1D9
100
AcDbEntity
  8
0
100
AcDbLine
 10
1094.0
 20
715.9999999999961
 30
0.0
 11
1095.0
 21
714.9999999999961
 31
0.0
  0
LINE
  5
FB1
330
1D9
100
AcDbEntity
  8
0
100
AcDbLine
 10
1095.0
 20
683.9999999999966
 30
0.0
 11
1094.0
 21
684.9999999999966
 31
0.0
  0
LINE
  5
FB2
330
1D9
100
AcDbEntity
  8
0
100
AcDbLine
 10
1061.5
 20
684.9999999999966
 30
0.0
 11
1061.5
 21
689.9999899999961
 31
0.0
  0
LINE
  5
FB3
330
1D9
100
AcDbEntity
  8
0
100
AcDbLine
 10
1062.850009999999
 20
689.9999899999961
 30
0.0
 11
1062.850009999999
 21
684.9999999999972
 31
0.0
  0
LINE
  5
FB4
330
1D9
100
AcDbEntity
  8
0
100
AcDbLine
 10
1082.14999
 20
689.9999899999961
 30
0.0
 11
1082.14999
 21
684.9999999999972
 31
0.0
  0
LINE
  5
FB5
330
1D9
100
AcDbEntity
  8
0
100
AcDbLine
 10
1083.5
 20
684.9999999999966
 30
0.0
 11
1083.5
 21
689.9999899999961
 31
0.0
  0
LINE
  5
FB6
330
1D9
100
AcDbEntity
  8
0
100
AcDbLine
 10
1050.549512883485
 20
684.9999999999966
 30
0.0
 11
1050.549512883486
 21
689.9999899999961
 31
0.0
  0
LINE
  5
FB7
330
1D9
100
AcDbEntity
  8
0
100
AcDbLine
 10
1049.199502883487
 20
689.9999899999961
 30
0.0
 11
1049.199502883487
 21
684.9999999999972
 31
0.0
  0
LINE
  5
FB8
330
1D9
100
AcDbEntity
  8
0
100
AcDbLine
 10
1095.0
 20
690.9999999999961
 30
0.0
 11
1094.0
 21
689.9999999999961
 31
0.0
  0
LINE
  5
FBA
330
1D9
100
AcDbEntity
  8
0
100
AcDbLine
 10
1095.0
 20
690.9999999999961
 30
0.0
 11
1095.0
 21
714.9999999999961
 31
0.0
  0
LINE
  5
FBB
330
1D9
100
AcDbEntity
  8
0
100
AcDbLine
 10
1718.749999999999
 20
470.5000000000004
 30
0.0
 11
1718.749999999999
 21
451.4999999999995
 31
0.0
  0
LINE
  5
FBC
330
1D9
100
AcDbEntity
  8
0
100
AcDbLine
 10
1566.250000000001
 20
470.5000000000004
 30
0.0
 11
1566.250000000001
 21
451.4999999999995
 31
0.0
  0
LINE
  5
FBD
330
1D9
100
AcDbEntity
  8
0
100
AcDbLine
 10
1510.431125922874
 20
470.5000000000008
 30
0.0
 11
1510.431125922874
 21
451.4999999999998
 31
0.0
  0
LINE
  5
FBE
330
1D9
100
AcDbEntity
  8
0
100
AcDbLine
 10
1490.000000000001
 20
470.5000000000004
 30
0.0
 11
1490.000000000001
 21
451.5000000000005
 31
0.0
  0
LINE
  5
FBF
330
1D9
100
AcDbEntity
  8
0
100
AcDbLine
 10
1411.911542731881
 20
361.5
 30
0.0
 11
1443.088457268119
 21
361.5
 31
0.0
  0
ARC
  5
FC0
330
1D9
100
AcDbEntity
  8
0
100
AcDbCircle
 10
1443.865900510073
 20
374.6382352941176
 30
0.0
 40
13.13823529411763
100
AcDbArc
 50
217.721218445649
 51
322.2787815543508
  0
LINE
  5
FC1
330
1D9
100
AcDbEntity
  8
0
100
AcDbLine
 10
1428.277443241954
 20
361.5
 30
0.0
 11
1459.454357778193
 21
361.5
 31
0.0
  0
LINE
  5
FC2
330
1D9
100
AcDbEntity
  8
0
100
AcDbLine
 10
1428.277443241954
 20
223.4999999999998
 30
0.0
 11
1459.454357778193
 21
223.4999999999998
 31
0.0
  0
ARC
  5
FC3
330
1D9
100
AcDbEntity
  8
0
100
AcDbCircle
 10
1443.865900510073
 20
210.3617647058821
 30
0.0
 40
13.13823529411763
100
AcDbArc
 50
37.721218445649
 51
142.278781554351
  0
LINE
  5
FC4
330
1D9
100
AcDbEntity
  8
0
100
AcDbLine
 10
1411.911542731881
 20
223.4999999999998
 30
0.0
 11
1443.088457268119
 21
223.4999999999998
 31
0.0
  0
LINE
  5
FC5
330
1D9
100
AcDbEntity
  8
0
100
AcDbLine
 10
1165.58845726812
 20
221.4999999999999
 30
0.0
 11
1134.411542731881
 21
221.4999999999999
 31
0.0
  0
LINE
  5
FC6
330
1D9
100
AcDbEntity
  8
0
100
AcDbLine
 10
1170.784609690826
 20
206.4999999999999
 30
0.0
 11
1170.784609690826
 21
216.4
 31
0.0
  0
LINE
  5
FC7
330
1D9
100
AcDbEntity
  8
0
100
AcDbLine
 10
1160.392304845414
 20
206.4999999999999
 30
0.0
 11
1160.392304845414
 21
216.4
 31
0.0
  0
ARC
  5
FC8
330
1D9
100
AcDbEntity
  8
0
100
AcDbCircle
 10
1165.58845726812
 20
216.3029411764704
 30
0.0
 40
5.19705882352941
100
AcDbArc
 50
1.070102236513484
 51
178.9298977634865
  0
ARC
  5
FC9
330
1D9
100
AcDbEntity
  8
0
100
AcDbCircle
 10
1140.133283987162
 20
216.3029411764704
 30
0.0
 40
5.19705882352941
100
AcDbArc
 50
1.070102236513484
 51
178.9298977634865
  0
LINE
  5
FCA
330
1D9
100
AcDbEntity
  8
0
100
AcDbLine
 10
1134.937131564455
 20
206.4999999999999
 30
0.0
 11
1134.937131564455
 21
216.4
 31
0.0
  0
LINE
  5
FCB
330
1D9
100
AcDbEntity
  8
0
100
AcDbLine
 10
1145.32943640987
 20
206.4999999999999
 30
0.0
 11
1145.32943640987
 21
216.4
 31
0.0
  0
ARC
  5
FCC
330
1D9
100
AcDbEntity
  8
0
100
AcDbCircle
 10
1150.000000000001
 20
208.3617647058821
 30
0.0
 40
13.13823529411763
100
AcDbArc
 50
37.721218445649
 51
118.026526376217
  0
LINE
  5
FCD
330
1D9
100
AcDbEntity
  8
0
100
AcDbLine
 10
1175.0
 20
205.5
 30
0.0
 11
1174.0
 21
206.4999999999999
 31
0.0
  0
ARC
  5
FCE
330
1D9
100
AcDbEntity
  8
0
100
AcDbCircle
 10
1427.500000000001
 20
210.3617647058821
 30
0.0
 40
13.13823529411763
100
AcDbArc
 50
80.89912161066783
 51
142.278781554351
  0
LINE
  5
FCF
330
1D9
100
AcDbEntity
  8
0
100
AcDbLine
 10
1423.081290819247
 20
208.4999999999999
 30
0.0
 11
1423.081290819247
 21
218.4
 31
0.0
  0
LINE
  5
FD0
330
1D9
100
AcDbEntity
  8
0
100
AcDbLine
 10
1433.47359566466
 20
208.4999999999999
 30
0.0
 11
1433.47359566466
 21
218.4
 31
0.0
  0
ARC
  5
FD1
330
1D9
100
AcDbEntity
  8
0
100
AcDbCircle
 10
1428.277443241954
 20
218.3029411764704
 30
0.0
 40
5.19705882352941
100
AcDbArc
 50
1.070102236513484
 51
178.9298977634865
  0
ARC
  5
FD2
330
1D9
100
AcDbEntity
  8
0
100
AcDbCircle
 10
1411.911542731881
 20
218.3029411764704
 30
0.0
 40
5.19705882352941
100
AcDbArc
 50
1.070102236513484
 51
178.9298977634865
  0
LINE
  5
FD3
330
1D9
100
AcDbEntity
  8
0
100
AcDbLine
 10
1417.107695154587
 20
208.4999999999999
 30
0.0
 11
1417.107695154587
 21
218.4
 31
0.0
  0
LINE
  5
FD4
330
1D9
100
AcDbEntity
  8
0
100
AcDbLine
 10
1406.715390309174
 20
208.4999999999999
 30
0.0
 11
1406.715390309174
 21
218.4
 31
0.0
  0
LINE
  5
FD5
330
1D9
100
AcDbEntity
  8
0
100
AcDbLine
 10
1402.5
 20
207.5
 30
0.0
 11
1403.5
 21
208.4999999999999
 31
0.0
  0
LINE
  5
FD6
330
1D9
100
AcDbEntity
  8
0
100
AcDbLine
 10
1175.0
 20
411.5
 30
0.0
 11
1175.0
 21
379.4999999999998
 31
0.0
  0
LINE
  5
FD7
330
1D9
100
AcDbEntity
  8
0
100
AcDbLine
 10
1175.0
 20
379.4999999999998
 30
0.0
 11
1174.0
 21
378.5
 31
0.0
  0
ARC
  5
FD8
330
1D9
100
AcDbEntity
  8
0
100
AcDbCircle
 10
1150.000000000001
 20
376.6382352941176
 30
0.0
 40
13.13823529411763
100
AcDbArc
 50
241.9734736237828
 51
322.2787815543508
  0
LINE
  5
FD9
330
1D9
100
AcDbEntity
  8
0
100
AcDbLine
 10
1145.32943640987
 20
378.5
 30
0.0
 11
1145.32943640987
 21
368.5999999999998
 31
0.0
  0
LINE
  5
FDA
330
1D9
100
AcDbEntity
  8
0
100
AcDbLine
 10
1134.937131564455
 20
378.5
 30
0.0
 11
1134.937131564455
 21
368.5999999999998
 31
0.0
  0
ARC
  5
FDB
330
1D9
100
AcDbEntity
  8
0
100
AcDbCircle
 10
1140.133283987162
 20
368.6970588235293
 30
0.0
 40
5.19705882352941
100
AcDbArc
 50
181.0701022365135
 51
358.9298977634864
  0
ARC
  5
FDC
330
1D9
100
AcDbEntity
  8
0
100
AcDbCircle
 10
1165.58845726812
 20
368.6970588235293
 30
0.0
 40
5.19705882352941
100
AcDbArc
 50
181.0701022365135
 51
358.9298977634864
  0
LINE
  5
FDD
330
1D9
100
AcDbEntity
  8
0
100
AcDbLine
 10
1160.392304845414
 20
378.5
 30
0.0
 11
1160.392304845414
 21
368.5999999999998
 31
0.0
  0
LINE
  5
FDE
330
1D9
100
AcDbEntity
  8
0
100
AcDbLine
 10
1170.784609690826
 20
378.5
 30
0.0
 11
1170.784609690826
 21
368.5999999999998
 31
0.0
  0
LINE
  5
FDF
330
1D9
100
AcDbEntity
  8
0
100
AcDbLine
 10
1165.58845726812
 20
363.5
 30
0.0
 11
1134.411542731881
 21
363.5
 31
0.0
  0
LINE
  5
FE0
330
1D9
100
AcDbEntity
  8
0
100
AcDbLine
 10
1175.0
 20
454.4999999999998
 30
0.0
 11
1175.0
 21
418.5
 31
0.0
  0
LINE
  5
FE1
330
1D9
100
AcDbEntity
  8
0
100
AcDbLine
 10
1175.0
 20
418.5
 30
0.0
 11
1174.0
 21
417.4999999999998
 31
0.0
  0
LINE
  5
FE2
330
1D9
100
AcDbEntity
  8
0
100
AcDbLine
 10
1174.0
 20
455.4999999999998
 30
0.0
 11
1175.0
 21
454.4999999999998
 31
0.0
  0
LINE
  5
FE3
330
1D9
100
AcDbEntity
  8
0
100
AcDbLine
 10
1134.894816719042
 20
412.5000099999998
 30
0.0
 11
1134.894816719042
 21
417.4999999999998
 31
0.0
  0
LINE
  5
FE4
330
1D9
100
AcDbEntity
  8
0
100
AcDbLine
 10
1136.544826719042
 20
417.4999999999998
 30
0.0
 11
1136.544826719042
 21
412.5000099999998
 31
0.0
  0
LINE
  5
FE5
330
1D9
100
AcDbEntity
  8
0
100
AcDbLine
 10
1162.000000000001
 20
417.4999999999998
 30
0.0
 11
1162.0
 21
412.5000099999998
 31
0.0
  0
LINE
  5
FE6
330
1D9
100
AcDbEntity
  8
0
100
AcDbLine
 10
1160.34999
 20
412.5000099999998
 30
0.0
 11
1160.349990000001
 21
417.4999999999998
 31
0.0
  0
LINE
  5
FE7
330
1D9
100
AcDbEntity
  8
0
100
AcDbLine
 10
1139.65001
 20
412.5000099999998
 30
0.0
 11
1139.65001
 21
417.4999999999998
 31
0.0
  0
LINE
  5
FE8
330
1D9
100
AcDbEntity
  8
0
100
AcDbLine
 10
1138.0
 20
417.4999999999998
 30
0.0
 11
1138.0
 21
412.5000099999998
 31
0.0
  0
LINE
  5
FE9
330
1D9
100
AcDbEntity
  8
0
100
AcDbLine
 10
1174.0
 20
412.5
 30
0.0
 11
1175.0
 21
411.5
 31
0.0
  0
LINE
  5
FEA
330
1D9
100
AcDbEntity
  8
0
100
AcDbLine
 10
1402.5
 20
411.5
 30
0.0
 11
1402.5
 21
377.4999999999998
 31
0.0
  0
LINE
  5
FEB
330
1D9
100
AcDbEntity
  8
0
100
AcDbLine
 10
1402.5
 20
377.4999999999998
 30
0.0
 11
1403.5
 21
376.5
 31
0.0
  0
LINE
  5
FEC
330
1D9
100
AcDbEntity
  8
0
100
AcDbLine
 10
1406.715390309174
 20
376.5
 30
0.0
 11
1406.715390309174
 21
366.5999999999998
 31
0.0
  0
LINE
  5
FED
330
1D9
100
AcDbEntity
  8
0
100
AcDbLine
 10
1417.107695154587
 20
376.5
 30
0.0
 11
1417.107695154587
 21
366.5999999999998
 31
0.0
  0
ARC
  5
FEE
330
1D9
100
AcDbEntity
  8
0
100
AcDbCircle
 10
1411.911542731881
 20
366.6970588235293
 30
0.0
 40
5.19705882352941
100
AcDbArc
 50
181.0701022365135
 51
358.9298977634864
  0
ARC
  5
FEF
330
1D9
100
AcDbEntity
  8
0
100
AcDbCircle
 10
1428.277443241954
 20
366.6970588235293
 30
0.0
 40
5.19705882352941
100
AcDbArc
 50
181.0701022365135
 51
358.9298977634864
  0
LINE
  5
FF0
330
1D9
100
AcDbEntity
  8
0
100
AcDbLine
 10
1433.47359566466
 20
376.5
 30
0.0
 11
1433.47359566466
 21
366.5999999999998
 31
0.0
  0
LINE
  5
FF1
330
1D9
100
AcDbEntity
  8
0
100
AcDbLine
 10
1423.081290819247
 20
376.5
 30
0.0
 11
1423.081290819247
 21
366.5999999999998
 31
0.0
  0
ARC
  5
FF2
330
1D9
100
AcDbEntity
  8
0
100
AcDbCircle
 10
1427.500000000001
 20
374.6382352941176
 30
0.0
 40
13.13823529411763
100
AcDbArc
 50
217.721218445649
 51
279.1008783893321
  0
LINE
  5
FF3
330
1D9
100
AcDbEntity
  8
0
100
AcDbLine
 10
1402.5
 20
456.5000000000008
 30
0.0
 11
1402.5
 21
418.5000000000008
 31
0.0
  0
LINE
  5
FF4
330
1D9
100
AcDbEntity
  8
0
100
AcDbLine
 10
1402.5
 20
418.5000000000008
 30
0.0
 11
1403.5
 21
417.5000000000008
 31
0.0
  0
LINE
  5
FF5
330
1D9
100
AcDbEntity
  8
0
100
AcDbLine
 10
1403.5
 20
457.5000000000009
 30
0.0
 11
1402.5
 21
456.5000000000008
 31
0.0
  0
LINE
  5
FF6
330
1D9
100
AcDbEntity
  8
0
100
AcDbLine
 10
1417.15001
 20
412.5000099999998
 30
0.0
 11
1417.15001
 21
417.5000000000008
 31
0.0
  0
LINE
  5
FF7
330
1D9
100
AcDbEntity
  8
0
100
AcDbLine
 10
1415.5
 20
417.5000000000004
 30
0.0
 11
1415.5
 21
412.5000099999998
 31
0.0
  0
LINE
  5
FF8
330
1D9
100
AcDbEntity
  8
0
100
AcDbLine
 10
1431.865900510072
 20
417.5000000000004
 30
0.0
 11
1431.865900510072
 21
412.5000099999998
 31
0.0
  0
LINE
  5
FF9
330
1D9
100
AcDbEntity
  8
0
100
AcDbLine
 10
1433.515910510072
 20
412.5000099999998
 30
0.0
 11
1433.515910510072
 21
417.5000000000008
 31
0.0
  0
LINE
  5
FFA
330
1D9
100
AcDbEntity
  8
0
100
AcDbLine
 10
1402.5
 20
411.5
 30
0.0
 11
1403.5
 21
412.5
 31
0.0
  0
ARC
  5
FFB
330
1D9
100
AcDbEntity
  8
0
100
AcDbCircle
 10
1642.5
 20
292.5
 30
0.0
 40
180.0
100
AcDbArc
 50
163.754011601525
 51
171.6948904719385
  0
ARC
  5
FFC
330
1D9
100
AcDbEntity
  8
0
100
AcDbCircle
 10
1642.5
 20
292.5
 30
0.0
 40
180.0
100
AcDbArc
 50
188.3051095280613
 51
196.2459883984742
  0
ARC
  5
FFD
330
1D9
100
AcDbEntity
  8
0
100
AcDbCircle
 10
1366.0
 20
211.9286030901784
 30
0.0
 40
108.0
100
AcDbArc
 50
6.035459366652202
 51
16.24598839847415
  0
LINE
  5
FFE
330
1D9
100
AcDbEntity
  8
0
100
AcDbLine
 10
1464.6505102009
 20
218.4
 30
0.0
 11
1464.6505102009
 21
208.4999999999999
 31
0.0
  0
LINE
  5
FFF
330
1D9
100
AcDbEntity
  8
0
100
AcDbLine
 10
1454.258205355487
 20
208.4999999999999
 30
0.0
 11
1454.258205355487
 21
218.4
 31
0.0
  0
ARC
  5
1000
330
1D9
100
AcDbEntity
  8
0
100
AcDbCircle
 10
1459.454357778193
 20
218.3029411764704
 30
0.0
 40
5.19705882352941
100
AcDbArc
 50
1.070102236513484
 51
178.9298977634865
  0
LINE
  5
1001
330
1D9
100
AcDbEntity
  8
0
100
AcDbLine
 10
1511.256651735719
 20
218.4
 30
0.0
 11
1511.256651735719
 21
208.4999999999999
 31
0.0
  0
LINE
  5
1002
330
1D9
100
AcDbEntity
  8
0
100
AcDbLine
 10
1500.864346890304
 20
208.4999999999999
 30
0.0
 11
1500.864346890304
 21
218.4
 31
0.0
  0
ARC
  5
1003
330
1D9
100
AcDbEntity
  8
0
100
AcDbCircle
 10
1506.060499313012
 20
218.3029411764704
 30
0.0
 40
5.19705882352941
100
AcDbArc
 50
1.070102236513484
 51
178.9298977634865
  0
LINE
  5
1004
330
1D9
100
AcDbEntity
  8
0
100
AcDbLine
 10
1469.687432354065
 20
208.4999999999999
 30
0.0
 11
1469.687432354065
 21
218.4
 31
0.0
  0
LINE
  5
1005
330
1D9
100
AcDbEntity
  8
0
100
AcDbLine
 10
1480.07973719948
 20
208.4999999999999
 30
0.0
 11
1480.07973719948
 21
218.4
 31
0.0
  0
ARC
  5
1006
330
1D9
100
AcDbEntity
  8
0
100
AcDbCircle
 10
1474.883584776772
 20
218.3029411764704
 30
0.0
 40
5.19705882352941
100
AcDbArc
 50
1.070102236513484
 51
178.9298977634865
  0
LINE
  5
1007
330
1D9
100
AcDbEntity
  8
0
100
AcDbLine
 10
1474.883584776772
 20
223.4999999999998
 30
0.0
 11
1506.060499313012
 21
223.4999999999998
 31
0.0
  0
ARC
  5
1008
330
1D9
100
AcDbEntity
  8
0
100
AcDbCircle
 10
1490.472042044893
 20
210.3617647058821
 30
0.0
 40
13.13823529411763
100
AcDbArc
 50
37.721218445649
 51
142.278781554351
  0
ARC
  5
1009
330
1D9
100
AcDbEntity
  8
0
100
AcDbCircle
 10
1560.223062041506
 20
210.3617647058821
 30
0.0
 40
13.13823529411763
100
AcDbArc
 50
37.721218445649
 51
142.278781554351
  0
LINE
  5
100A
330
1D9
100
AcDbEntity
  8
0
100
AcDbLine
 10
1544.634604773386
 20
223.4999999999998
 30
0.0
 11
1575.811519309626
 21
223.4999999999998
 31
0.0
  0
ARC
  5
100B
330
1D9
100
AcDbEntity
  8
0
100
AcDbCircle
 10
1544.634604773386
 20
218.3029411764704
 30
0.0
 40
5.19705882352941
100
AcDbArc
 50
1.070102236513484
 51
178.9298977634865
  0
LINE
  5
100C
330
1D9
100
AcDbEntity
  8
0
100
AcDbLine
 10
1549.830757196093
 20
208.4999999999999
 30
0.0
 11
1549.830757196093
 21
218.4
 31
0.0
  0
LINE
  5
100D
330
1D9
100
AcDbEntity
  8
0
100
AcDbLine
 10
1539.438452350679
 20
208.4999999999999
 30
0.0
 11
1539.438452350679
 21
218.4
 31
0.0
  0
ARC
  5
100E
330
1D9
100
AcDbEntity
  8
0
100
AcDbCircle
 10
1575.811519309626
 20
218.3029411764704
 30
0.0
 40
5.19705882352941
100
AcDbArc
 50
1.070102236513484
 51
178.9298977634865
  0
LINE
  5
100F
330
1D9
100
AcDbEntity
  8
0
100
AcDbLine
 10
1570.615366886919
 20
208.4999999999999
 30
0.0
 11
1570.615366886919
 21
218.4
 31
0.0
  0
LINE
  5
1010
330
1D9
100
AcDbEntity
  8
0
100
AcDbLine
 10
1581.007671732331
 20
218.4
 30
0.0
 11
1581.007671732331
 21
208.4999999999999
 31
0.0
  0
ARC
  5
1011
330
1D9
100
AcDbEntity
  8
0
100
AcDbCircle
 10
1464.24456530024
 20
317.5
 30
0.0
 40
1.0
100
AcDbArc
 50
90.0
 51
262.1755990022434
  0
ARC
  5
1012
330
1D9
100
AcDbEntity
  8
0
100
AcDbCircle
 10
1464.24456530024
 20
267.5
 30
0.0
 40
1.0
100
AcDbArc
 50
97.8244009977566
 51
270.0
  0
ARC
  5
1013
330
1D9
100
AcDbEntity
  8
0
100
AcDbCircle
 10
1642.5
 20
292.5
 30
0.0
 40
180.0
100
AcDbArc
 50
172.3347541499653
 51
187.6652458500346
  0
ARC
  5
1014
330
1D9
100
AcDbEntity
  8
0
100
AcDbCircle
 10
1642.5
 20
210.3617647058821
 30
0.0
 40
13.13823529411763
100
AcDbArc
 50
37.721218445649
 51
142.278781554351
  0
LINE
  5
1015
330
1D9
100
AcDbEntity
  8
0
100
AcDbLine
 10
1658.08845726812
 20
223.4999999999998
 30
0.0
 11
1626.91154273188
 21
223.4999999999998
 31
0.0
  0
ARC
  5
1016
330
1D9
100
AcDbEntity
  8
0
100
AcDbCircle
 10
1658.08845726812
 20
218.3029411764704
 30
0.0
 40
5.19705882352941
100
AcDbArc
 50
1.070102236513484
 51
178.9298977634865
  0
LINE
  5
1017
330
1D9
100
AcDbEntity
  8
0
100
AcDbLine
 10
1652.892304845412
 20
208.4999999999999
 30
0.0
 11
1652.892304845412
 21
218.4
 31
0.0
  0
LINE
  5
1018
330
1D9
100
AcDbEntity
  8
0
100
AcDbLine
 10
1663.284609690825
 20
208.4999999999999
 30
0.0
 11
1663.284609690825
 21
218.4
 31
0.0
  0
ARC
  5
1019
330
1D9
100
AcDbEntity
  8
0
100
AcDbCircle
 10
1626.91154273188
 20
218.3029411764704
 30
0.0
 40
5.19705882352941
100
AcDbArc
 50
1.070102236513484
 51
178.9298977634865
  0
LINE
  5
101A
330
1D9
100
AcDbEntity
  8
0
100
AcDbLine
 10
1632.107695154585
 20
208.4999999999999
 30
0.0
 11
1632.107695154585
 21
218.4
 31
0.0
  0
LINE
  5
101B
330
1D9
100
AcDbEntity
  8
0
100
AcDbLine
 10
1621.715390309173
 20
218.4
 30
0.0
 11
1621.715390309173
 21
208.4999999999999
 31
0.0
  0
LINE
  5
101C
330
1D9
100
AcDbEntity
  8
0
100
AcDbLine
 10
1663.284609690825
 20
218.4
 30
0.0
 11
1663.284609690825
 21
208.4999999999999
 31
0.0
  0
LINE
  5
101D
330
1D9
100
AcDbEntity
  8
0
100
AcDbLine
 10
1652.892304845412
 20
208.4999999999999
 30
0.0
 11
1652.892304845412
 21
218.4
 31
0.0
  0
ARC
  5
101E
330
1D9
100
AcDbEntity
  8
0
100
AcDbCircle
 10
1658.08845726812
 20
218.3029411764704
 30
0.0
 40
5.19705882352941
100
AcDbArc
 50
1.070102236513484
 51
178.9298977634865
  0
LINE
  5
101F
330
1D9
100
AcDbEntity
  8
0
100
AcDbLine
 10
1621.715390309173
 20
208.4999999999999
 30
0.0
 11
1621.715390309173
 21
218.4
 31
0.0
  0
LINE
  5
1020
330
1D9
100
AcDbEntity
  8
0
100
AcDbLine
 10
1632.107695154585
 20
208.4999999999999
 30
0.0
 11
1632.107695154585
 21
218.4
 31
0.0
  0
ARC
  5
1021
330
1D9
100
AcDbEntity
  8
0
100
AcDbCircle
 10
1626.91154273188
 20
218.3029411764704
 30
0.0
 40
5.19705882352941
100
AcDbArc
 50
1.070102236513484
 51
178.9298977634865
  0
LINE
  5
1022
330
1D9
100
AcDbEntity
  8
0
100
AcDbLine
 10
1626.91154273188
 20
223.4999999999998
 30
0.0
 11
1658.08845726812
 21
223.4999999999998
 31
0.0
  0
ARC
  5
1023
330
1D9
100
AcDbEntity
  8
0
100
AcDbCircle
 10
1642.5
 20
210.3617647058821
 30
0.0
 40
13.13823529411763
100
AcDbArc
 50
37.721218445649
 51
142.278781554351
  0
LINE
  5
1024
330
1D9
100
AcDbEntity
  8
0
100
AcDbLine
 10
1703.992328267666
 20
218.4
 30
0.0
 11
1703.992328267666
 21
208.4999999999999
 31
0.0
  0
LINE
  5
1025
330
1D9
100
AcDbEntity
  8
0
100
AcDbLine
 10
1714.38463311308
 20
208.4999999999999
 30
0.0
 11
1714.38463311308
 21
218.4
 31
0.0
  0
ARC
  5
1026
330
1D9
100
AcDbEntity
  8
0
100
AcDbCircle
 10
1709.188480690374
 20
218.3029411764704
 30
0.0
 40
5.19705882352941
100
AcDbArc
 50
1.070102236513484
 51
178.9298977634865
  0
LINE
  5
1027
330
1D9
100
AcDbEntity
  8
0
100
AcDbLine
 10
1745.56154764932
 20
208.4999999999999
 30
0.0
 11
1745.56154764932
 21
218.4
 31
0.0
  0
LINE
  5
1028
330
1D9
100
AcDbEntity
  8
0
100
AcDbLine
 10
1735.169242803905
 20
208.4999999999999
 30
0.0
 11
1735.169242803905
 21
218.4
 31
0.0
  0
ARC
  5
1029
330
1D9
100
AcDbEntity
  8
0
100
AcDbCircle
 10
1740.365395226612
 20
218.3029411764704
 30
0.0
 40
5.19705882352941
100
AcDbArc
 50
1.070102236513484
 51
178.9298977634865
  0
LINE
  5
102A
330
1D9
100
AcDbEntity
  8
0
100
AcDbLine
 10
1740.365395226612
 20
223.4999999999998
 30
0.0
 11
1709.188480690374
 21
223.4999999999998
 31
0.0
  0
ARC
  5
102B
330
1D9
100
AcDbEntity
  8
0
100
AcDbCircle
 10
1724.776937958493
 20
210.3617647058821
 30
0.0
 40
13.13823529411763
100
AcDbArc
 50
37.721218445649
 51
142.278781554351
  0
ARC
  5
102C
330
1D9
100
AcDbEntity
  8
0
100
AcDbCircle
 10
1490.472042044893
 20
374.6382352941176
 30
0.0
 40
13.13823529411763
100
AcDbArc
 50
217.721218445649
 51
322.2787815543508
  0
LINE
  5
102D
330
1D9
100
AcDbEntity
  8
0
100
AcDbLine
 10
1474.883584776772
 20
361.5
 30
0.0
 11
1506.060499313012
 21
361.5
 31
0.0
  0
ARC
  5
102E
330
1D9
100
AcDbEntity
  8
0
100
AcDbCircle
 10
1474.883584776772
 20
366.6970588235293
 30
0.0
 40
5.19705882352941
100
AcDbArc
 50
181.0701022365135
 51
358.9298977634864
  0
LINE
  5
102F
330
1D9
100
AcDbEntity
  8
0
100
AcDbLine
 10
1480.07973719948
 20
376.5
 30
0.0
 11
1480.07973719948
 21
366.5999999999998
 31
0.0
  0
LINE
  5
1030
330
1D9
100
AcDbEntity
  8
0
100
AcDbLine
 10
1469.687432354065
 20
376.5
 30
0.0
 11
1469.687432354065
 21
366.5999999999998
 31
0.0
  0
ARC
  5
1031
330
1D9
100
AcDbEntity
  8
0
100
AcDbCircle
 10
1506.060499313012
 20
366.6970588235293
 30
0.0
 40
5.19705882352941
100
AcDbArc
 50
181.0701022365135
 51
358.9298977634864
  0
LINE
  5
1032
330
1D9
100
AcDbEntity
  8
0
100
AcDbLine
 10
1500.864346890304
 20
376.5
 30
0.0
 11
1500.864346890304
 21
366.5999999999998
 31
0.0
  0
LINE
  5
1033
330
1D9
100
AcDbEntity
  8
0
100
AcDbLine
 10
1511.256651735719
 20
366.5999999999998
 30
0.0
 11
1511.256651735719
 21
376.5
 31
0.0
  0
ARC
  5
1034
330
1D9
100
AcDbEntity
  8
0
100
AcDbCircle
 10
1459.454357778193
 20
366.6970588235293
 30
0.0
 40
5.19705882352941
100
AcDbArc
 50
181.0701022365135
 51
358.9298977634864
  0
LINE
  5
1035
330
1D9
100
AcDbEntity
  8
0
100
AcDbLine
 10
1454.258205355487
 20
376.5
 30
0.0
 11
1454.258205355487
 21
366.5999999999998
 31
0.0
  0
LINE
  5
1036
330
1D9
100
AcDbEntity
  8
0
100
AcDbLine
 10
1464.6505102009
 20
366.5999999999998
 30
0.0
 11
1464.6505102009
 21
376.5
 31
0.0
  0
ARC
  5
1037
330
1D9
100
AcDbEntity
  8
0
100
AcDbCircle
 10
1366.0
 20
373.0713969098213
 30
0.0
 40
108.0
100
AcDbArc
 50
343.7540116015249
 51
353.9645406333477
  0
LINE
  5
1038
330
1D9
100
AcDbEntity
  8
0
100
AcDbLine
 10
1581.007671732331
 20
366.5999999999998
 30
0.0
 11
1581.007671732331
 21
376.5
 31
0.0
  0
LINE
  5
1039
330
1D9
100
AcDbEntity
  8
0
100
AcDbLine
 10
1570.615366886919
 20
376.5
 30
0.0
 11
1570.615366886919
 21
366.5999999999998
 31
0.0
  0
ARC
  5
103A
330
1D9
100
AcDbEntity
  8
0
100
AcDbCircle
 10
1575.811519309626
 20
366.6970588235293
 30
0.0
 40
5.19705882352941
100
AcDbArc
 50
181.0701022365135
 51
358.9298977634864
  0
LINE
  5
103B
330
1D9
100
AcDbEntity
  8
0
100
AcDbLine
 10
1539.438452350679
 20
376.5
 30
0.0
 11
1539.438452350679
 21
366.5999999999998
 31
0.0
  0
LINE
  5
103C
330
1D9
100
AcDbEntity
  8
0
100
AcDbLine
 10
1549.830757196093
 20
376.5
 30
0.0
 11
1549.830757196093
 21
366.5999999999998
 31
0.0
  0
ARC
  5
103D
330
1D9
100
AcDbEntity
  8
0
100
AcDbCircle
 10
1544.634604773386
 20
366.6970588235293
 30
0.0
 40
5.19705882352941
100
AcDbArc
 50
181.0701022365135
 51
358.9298977634864
  0
LINE
  5
103E
330
1D9
100
AcDbEntity
  8
0
100
AcDbLine
 10
1544.634604773386
 20
361.5
 30
0.0
 11
1575.811519309626
 21
361.5
 31
0.0
  0
ARC
  5
103F
330
1D9
100
AcDbEntity
  8
0
100
AcDbCircle
 10
1560.223062041506
 20
374.6382352941176
 30
0.0
 40
13.13823529411763
100
AcDbArc
 50
217.721218445649
 51
322.2787815543508
  0
LINE
  5
1040
330
1D9
100
AcDbEntity
  8
0
100
AcDbLine
 10
1467.5
 20
463.5000000000004
 30
0.0
 11
1467.5
 21
457.5000000000003
 31
0.0
  0
LINE
  5
1041
330
1D9
100
AcDbEntity
  8
0
100
AcDbLine
 10
1468.5
 20
464.5000000000004
 30
0.0
 11
1467.5
 21
463.5000000000004
 31
0.0
  0
LINE
  5
1042
330
1D9
100
AcDbEntity
  8
0
100
AcDbLine
 10
1439.499999999999
 20
417.5000000000004
 30
0.0
 11
1439.499999999999
 21
412.5000099999998
 31
0.0
  0
LINE
  5
1043
330
1D9
100
AcDbEntity
  8
0
100
AcDbLine
 10
1437.84999
 20
412.5000099999998
 30
0.0
 11
1437.84999
 21
417.5000000000008
 31
0.0
  0
LINE
  5
1044
330
1D9
100
AcDbEntity
  8
0
100
AcDbLine
 10
1478.472042044892
 20
417.5000000000004
 30
0.0
 11
1478.472042044892
 21
412.5000099999998
 31
0.0
  0
LINE
  5
1045
330
1D9
100
AcDbEntity
  8
0
100
AcDbLine
 10
1480.122052044892
 20
412.5000099999998
 30
0.0
 11
1480.122052044892
 21
417.5000000000008
 31
0.0
  0
LINE
  5
1046
330
1D9
100
AcDbEntity
  8
0
100
AcDbLine
 10
1500.822032044892
 20
412.5000099999998
 30
0.0
 11
1500.822032044892
 21
417.5000000000008
 31
0.0
  0
LINE
  5
1047
330
1D9
100
AcDbEntity
  8
0
100
AcDbLine
 10
1502.472042044892
 20
417.5000000000004
 30
0.0
 11
1502.472042044892
 21
412.5000099999998
 31
0.0
  0
LINE
  5
1048
330
1D9
100
AcDbEntity
  8
0
100
AcDbLine
 10
1454.215890510073
 20
412.5000099999998
 30
0.0
 11
1454.215890510073
 21
417.5000000000008
 31
0.0
  0
LINE
  5
1049
330
1D9
100
AcDbEntity
  8
0
100
AcDbLine
 10
1455.865900510072
 20
417.5000000000004
 30
0.0
 11
1455.865900510072
 21
412.5000099999998
 31
0.0
  0
LINE
  5
104A
330
1D9
100
AcDbEntity
  8
0
100
AcDbLine
 10
1500.999999999999
 20
467.5000000000004
 30
0.0
 11
1500.999999999999
 21
464.5000000000004
 31
0.0
  0
LINE
  5
104B
330
1D9
100
AcDbEntity
  8
0
100
AcDbLine
 10
1572.223062041505
 20
417.5000000000004
 30
0.0
 11
1572.223062041505
 21
412.5000099999998
 31
0.0
  0
LINE
  5
104C
330
1D9
100
AcDbEntity
  8
0
100
AcDbLine
 10
1570.573052041505
 20
412.5000099999998
 30
0.0
 11
1570.573052041505
 21
417.5000000000008
 31
0.0
  0
LINE
  5
104D
330
1D9
100
AcDbEntity
  8
0
100
AcDbLine
 10
1549.873072041505
 20
412.5000099999998
 30
0.0
 11
1549.873072041505
 21
417.5000000000008
 31
0.0
  0
LINE
  5
104E
330
1D9
100
AcDbEntity
  8
0
100
AcDbLine
 10
1548.223062041505
 20
417.5000000000004
 30
0.0
 11
1548.223062041505
 21
412.5000099999998
 31
0.0
  0
ARC
  5
104F
330
1D9
100
AcDbEntity
  8
0
100
AcDbCircle
 10
1642.5
 20
374.6382352941176
 30
0.0
 40
13.13823529411763
100
AcDbArc
 50
217.721218445649
 51
322.2787815543508
  0
LINE
  5
1050
330
1D9
100
AcDbEntity
  8
0
100
AcDbLine
 10
1626.91154273188
 20
361.5
 30
0.0
 11
1658.08845726812
 21
361.5
 31
0.0
  0
ARC
  5
1051
330
1D9
100
AcDbEntity
  8
0
100
AcDbCircle
 10
1626.91154273188
 20
366.6970588235293
 30
0.0
 40
5.19705882352941
100
AcDbArc
 50
181.0701022365135
 51
358.9298977634864
  0
LINE
  5
1052
330
1D9
100
AcDbEntity
  8
0
100
AcDbLine
 10
1632.107695154585
 20
376.5
 30
0.0
 11
1632.107695154585
 21
366.5999999999998
 31
0.0
  0
LINE
  5
1053
330
1D9
100
AcDbEntity
  8
0
100
AcDbLine
 10
1621.715390309173
 20
376.5
 30
0.0
 11
1621.715390309173
 21
366.5999999999998
 31
0.0
  0
ARC
  5
1054
330
1D9
100
AcDbEntity
  8
0
100
AcDbCircle
 10
1658.08845726812
 20
366.6970588235293
 30
0.0
 40
5.19705882352941
100
AcDbArc
 50
181.0701022365135
 51
358.9298977634864
  0
LINE
  5
1055
330
1D9
100
AcDbEntity
  8
0
100
AcDbLine
 10
1652.892304845412
 20
376.5
 30
0.0
 11
1652.892304845412
 21
366.5999999999998
 31
0.0
  0
LINE
  5
1056
330
1D9
100
AcDbEntity
  8
0
100
AcDbLine
 10
1663.284609690825
 20
366.5999999999998
 30
0.0
 11
1663.284609690825
 21
376.5
 31
0.0
  0
LINE
  5
1057
330
1D9
100
AcDbEntity
  8
0
100
AcDbLine
 10
1621.715390309173
 20
366.5999999999998
 30
0.0
 11
1621.715390309173
 21
376.5
 31
0.0
  0
LINE
  5
1058
330
1D9
100
AcDbEntity
  8
0
100
AcDbLine
 10
1632.107695154585
 20
376.5
 30
0.0
 11
1632.107695154585
 21
366.5999999999998
 31
0.0
  0
ARC
  5
1059
330
1D9
100
AcDbEntity
  8
0
100
AcDbCircle
 10
1626.91154273188
 20
366.6970588235293
 30
0.0
 40
5.19705882352941
100
AcDbArc
 50
181.0701022365135
 51
358.9298977634864
  0
LINE
  5
105A
330
1D9
100
AcDbEntity
  8
0
100
AcDbLine
 10
1663.284609690825
 20
376.5
 30
0.0
 11
1663.284609690825
 21
366.5999999999998
 31
0.0
  0
LINE
  5
105B
330
1D9
100
AcDbEntity
  8
0
100
AcDbLine
 10
1652.892304845412
 20
376.5
 30
0.0
 11
1652.892304845412
 21
366.5999999999998
 31
0.0
  0
ARC
  5
105C
330
1D9
100
AcDbEntity
  8
0
100
AcDbCircle
 10
1658.08845726812
 20
366.6970588235293
 30
0.0
 40
5.19705882352941
100
AcDbArc
 50
181.0701022365135
 51
358.9298977634864
  0
LINE
  5
105D
330
1D9
100
AcDbEntity
  8
0
100
AcDbLine
 10
1658.08845726812
 20
361.5
 30
0.0
 11
1626.91154273188
 21
361.5
 31
0.0
  0
ARC
  5
105E
330
1D9
100
AcDbEntity
  8
0
100
AcDbCircle
 10
1642.5
 20
374.6382352941176
 30
0.0
 40
13.13823529411763
100
AcDbArc
 50
217.721218445649
 51
322.2787815543508
  0
ARC
  5
105F
330
1D9
100
AcDbEntity
  8
0
100
AcDbCircle
 10
1724.776937958493
 20
374.6382352941176
 30
0.0
 40
13.13823529411763
100
AcDbArc
 50
217.721218445649
 51
322.2787815543508
  0
LINE
  5
1060
330
1D9
100
AcDbEntity
  8
0
100
AcDbLine
 10
1740.365395226612
 20
361.5
 30
0.0
 11
1709.188480690374
 21
361.5
 31
0.0
  0
ARC
  5
1061
330
1D9
100
AcDbEntity
  8
0
100
AcDbCircle
 10
1740.365395226612
 20
366.6970588235293
 30
0.0
 40
5.19705882352941
100
AcDbArc
 50
181.0701022365135
 51
358.9298977634864
  0
LINE
  5
1062
330
1D9
100
AcDbEntity
  8
0
100
AcDbLine
 10
1735.169242803905
 20
376.5
 30
0.0
 11
1735.169242803905
 21
366.5999999999998
 31
0.0
  0
LINE
  5
1063
330
1D9
100
AcDbEntity
  8
0
100
AcDbLine
 10
1745.56154764932
 20
376.5
 30
0.0
 11
1745.56154764932
 21
366.5999999999998
 31
0.0
  0
ARC
  5
1064
330
1D9
100
AcDbEntity
  8
0
100
AcDbCircle
 10
1709.188480690374
 20
366.6970588235293
 30
0.0
 40
5.19705882352941
100
AcDbArc
 50
181.0701022365135
 51
358.9298977634864
  0
LINE
  5
1065
330
1D9
100
AcDbEntity
  8
0
100
AcDbLine
 10
1714.38463311308
 20
376.5
 30
0.0
 11
1714.38463311308
 21
366.5999999999998
 31
0.0
  0
LINE
  5
1066
330
1D9
100
AcDbEntity
  8
0
100
AcDbLine
 10
1703.992328267666
 20
366.5999999999998
 30
0.0
 11
1703.992328267666
 21
376.5
 31
0.0
  0
LINE
  5
1067
330
1D9
100
AcDbEntity
  8
0
100
AcDbLine
 10
1630.499999999999
 20
417.5000000000004
 30
0.0
 11
1630.499999999999
 21
412.5000099999998
 31
0.0
  0
LINE
  5
1068
330
1D9
100
AcDbEntity
  8
0
100
AcDbLine
 10
1632.150009999999
 20
412.5000099999998
 30
0.0
 11
1632.150009999999
 21
417.5000000000008
 31
0.0
  0
LINE
  5
1069
330
1D9
100
AcDbEntity
  8
0
100
AcDbLine
 10
1652.849989999999
 20
412.5000099999998
 30
0.0
 11
1652.849989999999
 21
417.5000000000008
 31
0.0
  0
LINE
  5
106A
330
1D9
100
AcDbEntity
  8
0
100
AcDbLine
 10
1654.499999999999
 20
417.5000000000004
 30
0.0
 11
1654.499999999999
 21
412.5000099999998
 31
0.0
  0
LINE
  5
106B
330
1D9
100
AcDbEntity
  8
0
100
AcDbLine
 10
1630.500000000001
 20
417.5000000000004
 30
0.0
 11
1630.500000000001
 21
412.5000099999998
 31
0.0
  0
LINE
  5
106C
330
1D9
100
AcDbEntity
  8
0
100
AcDbLine
 10
1632.150010000001
 20
412.5000099999998
 30
0.0
 11
1632.150010000001
 21
417.5000000000008
 31
0.0
  0
LINE
  5
106D
330
1D9
100
AcDbEntity
  8
0
100
AcDbLine
 10
1652.84999
 20
412.5000099999998
 30
0.0
 11
1652.84999
 21
417.5000000000008
 31
0.0
  0
LINE
  5
106E
330
1D9
100
AcDbEntity
  8
0
100
AcDbLine
 10
1654.5
 20
417.5000000000004
 30
0.0
 11
1654.5
 21
412.5000099999998
 31
0.0
  0
LINE
  5
106F
330
1D9
100
AcDbEntity
  8
0
100
AcDbLine
 10
1736.776937958494
 20
417.5000000000004
 30
0.0
 11
1736.776937958494
 21
412.5000099999998
 31
0.0
  0
LINE
  5
1070
330
1D9
100
AcDbEntity
  8
0
100
AcDbLine
 10
1735.126927958495
 20
412.5000099999998
 30
0.0
 11
1735.126927958495
 21
417.5000000000008
 31
0.0
  0
LINE
  5
1071
330
1D9
100
AcDbEntity
  8
0
100
AcDbLine
 10
1714.426947958493
 20
412.5000099999998
 30
0.0
 11
1714.426947958493
 21
417.5000000000008
 31
0.0
  0
LINE
  5
1072
330
1D9
100
AcDbEntity
  8
0
100
AcDbLine
 10
1712.776937958494
 20
417.5000000000004
 30
0.0
 11
1712.776937958494
 21
412.5000099999998
 31
0.0
  0
LINE
  5
1073
330
1D9
100
AcDbEntity
  8
0
100
AcDbLine
 10
1563.624999999999
 20
731.9999999999968
 30
0.0
 11
1591.374999999999
 21
731.9999999999968
 31
0.0
  0
ARC
  5
1074
330
1D9
100
AcDbEntity
  8
0
100
AcDbCircle
 10
1591.374999999999
 20
727.3692471590875
 30
0.0
 40
4.630752840909091
100
AcDbArc
 50
2.85626160780179
 51
177.1437383921982
  0
LINE
  5
1075
330
1D9
100
AcDbEntity
  8
0
100
AcDbLine
 10
1560.0
 20
639.9999999999959
 30
0.0
 11
1725.0
 21
639.9999999999967
 31
0.0
  0
LINE
  5
1076
330
1D9
100
AcDbEntity
  8
0
100
AcDbLine
 10
1490.0
 20
651.9999999999964
 30
0.0
 11
1490.0
 21
683.9999999999962
 31
0.0
  0
LINE
  5
1077
330
1D9
100
AcDbEntity
  8
0
100
AcDbLine
 10
1491.0
 20
650.9999999999962
 30
0.0
 11
1490.0
 21
651.9999999999964
 31
0.0
  0
LINE
  5
1078
330
1D9
100
AcDbEntity
  8
0
100
AcDbLine
 10
1560.0
 20
639.9999999999959
 30
0.0
 11
1560.0
 21
642.9999999999964
 31
0.0
  0
LINE
  5
1079
330
1D9
100
AcDbEntity
  8
0
100
AcDbLine
 10
1530.0
 20
643.9999999999962
 30
0.0
 11
1530.0
 21
650.9999999999962
 31
0.0
  0
LINE
  5
107A
330
1D9
100
AcDbEntity
  8
0
100
AcDbLine
 10
1531.0
 20
642.9999999999964
 30
0.0
 11
1530.0
 21
643.9999999999962
 31
0.0
  0
LINE
  5
107B
330
1D9
100
AcDbEntity
  8
0
100
AcDbLine
 10
1550.0
 20
636.9999999999967
 30
0.0
 11
1549.999999999999
 21
656.9999999999962
 31
0.0
  0
LINE
  5
107C
330
1D9
100
AcDbEntity
  8
0
100
AcDbLine
 10
1577.092622740244
 20
636.9999999999962
 30
0.0
 11
1577.092622740242
 21
656.9999999999962
 31
0.0
  0
LINE
  5
107D
330
1D9
100
AcDbEntity
  8
0
100
AcDbLine
 10
1498.625
 20
731.9999999999961
 30
0.0
 11
1516.041697508023
 21
731.9999999999961
 31
0.0
  0
ARC
  5
107E
330
1D9
100
AcDbEntity
  8
0
100
AcDbCircle
 10
1512.5
 20
720.07698863636
 30
0.0
 40
11.92301136363636
100
AcDbArc
 50
79.42767444289112
 51
140.8785929349394
  0
ARC
  5
107F
330
1D9
100
AcDbEntity
  8
0
100
AcDbCircle
 10
1516.041697508023
 20
727.3692471590875
 30
0.0
 40
4.630752840909087
100
AcDbArc
 50
2.85626160780179
 51
177.1437383921982
  0
LINE
  5
1080
330
1D9
100
AcDbEntity
  8
0
100
AcDbLine
 10
1511.416697508021
 20
717.9999999999968
 30
0.0
 11
1511.416697508021
 21
727.5999999999968
 31
0.0
  0
ARC
  5
1081
330
1D9
100
AcDbEntity
  8
0
100
AcDbCircle
 10
1498.625
 20
727.369247159087
 30
0.0
 40
4.630752840909087
100
AcDbArc
 50
2.85626160780179
 51
177.1437383921982
  0
LINE
  5
1082
330
1D9
100
AcDbEntity
  8
0
100
AcDbLine
 10
1503.25
 20
717.9999999999964
 30
0.0
 11
1503.25
 21
727.5999999999961
 31
0.0
  0
LINE
  5
1083
330
1D9
100
AcDbEntity
  8
0
100
AcDbLine
 10
1494.0
 20
717.9999999999964
 30
0.0
 11
1494.0
 21
727.5999999999961
 31
0.0
  0
LINE
  5
1084
330
1D9
100
AcDbEntity
  8
0
100
AcDbLine
 10
1489.999999999999
 20
716.9999999999961
 30
0.0
 11
1490.999999999999
 21
717.9999999999964
 31
0.0
  0
LINE
  5
1085
330
1D9
100
AcDbEntity
  8
0
100
AcDbLine
 10
1490.0
 20
683.9999999999962
 30
0.0
 11
1491.0
 21
684.9999999999964
 31
0.0
  0
LINE
  5
1086
330
1D9
100
AcDbEntity
  8
0
100
AcDbLine
 10
1501.5
 20
684.9999999999964
 30
0.0
 11
1501.5
 21
689.9999899999961
 31
0.0
  0
LINE
  5
1087
330
1D9
100
AcDbEntity
  8
0
100
AcDbLine
 10
1502.850009999999
 20
689.9999899999961
 30
0.0
 11
1502.850009999999
 21
684.9999999999964
 31
0.0
  0
LINE
  5
1088
330
1D9
100
AcDbEntity
  8
0
100
AcDbLine
 10
1490.999999999999
 20
689.9999999999961
 30
0.0
 11
1489.999999999999
 21
690.9999999999961
 31
0.0
  0
LINE
  5
1089
330
1D9
100
AcDbEntity
  8
0
100
AcDbLine
 10
1489.999999999999
 20
690.9999999999961
 30
0.0
 11
1489.999999999999
 21
716.9999999999961
 31
0.0
  0
ARC
  5
108A
330
1D9
100
AcDbEntity
  8
0
100
AcDbCircle
 10
1542.5
 20
724.9999999999961
 30
0.0
 40
7.0
100
AcDbArc
 50
327.6979271829563
 51
0.0
  0
LINE
  5
108B
330
1D9
100
AcDbEntity
  8
0
100
AcDbLine
 10
1548.416697508023
 20
727.5999999999968
 30
0.0
 11
1548.416697508023
 21
717.9999999999968
 31
0.0
  0
LINE
  5
108C
330
1D9
100
AcDbEntity
  8
0
100
AcDbLine
 10
1539.166697508021
 20
717.9999999999968
 30
0.0
 11
1539.166697508021
 21
727.5999999999968
 31
0.0
  0
LINE
  5
108D
330
1D9
100
AcDbEntity
  8
0
100
AcDbLine
 10
1520.666697508023
 20
717.9999999999968
 30
0.0
 11
1520.666697508023
 21
727.5999999999968
 31
0.0
  0
ARC
  5
108E
330
1D9
100
AcDbEntity
  8
0
100
AcDbCircle
 10
1529.916697508022
 20
720.0769886363603
 30
0.0
 40
11.92301136363636
100
AcDbArc
 50
39.1214070650605
 51
140.8785929349394
  0
ARC
  5
108F
330
1D9
100
AcDbEntity
  8
0
100
AcDbCircle
 10
1543.791697508023
 20
727.3692471590875
 30
0.0
 40
4.630752840909091
100
AcDbArc
 50
2.85626160780179
 51
177.1437383921982
  0
LINE
  5
1090
330
1D9
100
AcDbEntity
  8
0
100
AcDbLine
 10
1516.041697508023
 20
731.9999999999968
 30
0.0
 11
1543.791697508023
 21
731.9999999999968
 31
0.0
  0
ARC
  5
1091
330
1D9
100
AcDbEntity
  8
0
100
AcDbCircle
 10
1577.499999999999
 20
720.0769886363603
 30
0.0
 40
11.92301136363636
100
AcDbArc
 50
39.1214070650605
 51
140.8785929349394
  0
ARC
  5
1092
330
1D9
100
AcDbEntity
  8
0
100
AcDbCircle
 10
1563.624999999999
 20
727.3692471590875
 30
0.0
 40
4.630752840909087
100
AcDbArc
 50
2.85626160780179
 51
177.1437383921982
  0
LINE
  5
1093
330
1D9
100
AcDbEntity
  8
0
100
AcDbLine
 10
1568.249999999999
 20
717.9999999999968
 30
0.0
 11
1568.249999999999
 21
727.5999999999968
 31
0.0
  0
LINE
  5
1094
330
1D9
100
AcDbEntity
  8
0
100
AcDbLine
 10
1558.999999999999
 20
717.9999999999968
 30
0.0
 11
1558.999999999999
 21
727.5999999999968
 31
0.0
  0
LINE
  5
1095
330
1D9
100
AcDbEntity
  8
0
100
AcDbLine
 10
1586.749999999999
 20
717.9999999999968
 30
0.0
 11
1586.749999999999
 21
727.5999999999968
 31
0.0
  0
LINE
  5
1096
330
1D9
100
AcDbEntity
  8
0
100
AcDbLine
 10
1549.5
 20
728.2739210990503
 30
0.0
 11
1549.5
 21
724.9999999999961
 31
0.0
  0
LINE
  5
1097
330
1D9
100
AcDbEntity
  8
0
100
AcDbLine
 10
1540.916697508023
 20
684.9999999999966
 30
0.0
 11
1540.916697508023
 21
689.9999899999966
 31
0.0
  0
LINE
  5
1098
330
1D9
100
AcDbEntity
  8
0
100
AcDbLine
 10
1539.566687508022
 20
689.9999899999966
 30
0.0
 11
1539.566687508022
 21
684.9999999999966
 31
0.0
  0
LINE
  5
1099
330
1D9
100
AcDbEntity
  8
0
100
AcDbLine
 10
1520.266707508023
 20
689.9999899999966
 30
0.0
 11
1520.266707508023
 21
684.9999999999966
 31
0.0
  0
LINE
  5
109A
330
1D9
100
AcDbEntity
  8
0
100
AcDbLine
 10
1518.916697508023
 20
684.9999999999966
 30
0.0
 11
1518.916697508023
 21
689.9999899999966
 31
0.0
  0
LINE
  5
109B
330
1D9
100
AcDbEntity
  8
0
100
AcDbLine
 10
1566.499999999999
 20
684.9999999999966
 30
0.0
 11
1566.499999999999
 21
689.9999899999966
 31
0.0
  0
LINE
  5
109C
330
1D9
100
AcDbEntity
  8
0
100
AcDbLine
 10
1567.850009999999
 20
689.9999899999966
 30
0.0
 11
1567.850009999999
 21
684.9999999999966
 31
0.0
  0
LINE
  5
109D
330
1D9
100
AcDbEntity
  8
0
100
AcDbLine
 10
1587.149989999999
 20
689.9999899999966
 30
0.0
 11
1587.149989999999
 21
684.9999999999966
 31
0.0
  0
LINE
  5
109E
330
1D9
100
AcDbEntity
  8
0
100
AcDbLine
 10
1588.499999999999
 20
684.9999999999966
 30
0.0
 11
1588.499999999999
 21
689.9999899999966
 31
0.0
  0
LINE
  5
109F
330
1D9
100
AcDbEntity
  8
0
100
AcDbLine
 10
1725.0
 20
639.9999999999967
 30
0.0
 11
1725.0
 21
642.9999999999964
 31
0.0
  0
LINE
  5
10A0
330
1D9
100
AcDbEntity
  8
0
100
AcDbLine
 10
1707.907377259755
 20
636.9999999999962
 30
0.0
 11
1707.907377259755
 21
656.9999999999962
 31
0.0
  0
LINE
  5
10A1
330
1D9
100
AcDbEntity
  8
0
100
AcDbLine
 10
1735.0
 20
636.9999999999967
 30
0.0
 11
1735.0
 21
656.9999999999962
 31
0.0
  0
LINE
  5
10A2
330
1D9
100
AcDbEntity
  8
0
100
AcDbLine
 10
1595.999999999999
 20
727.5999999999968
 30
0.0
 11
1595.999999999999
 21
717.9999999999968
 31
0.0
  0
LINE
  5
10A3
330
1D9
100
AcDbEntity
  8
0
100
AcDbLine
 10
1661.0
 20
727.5999999999961
 30
0.0
 11
1661.0
 21
717.9999999999964
 31
0.0
  0
LINE
  5
10A4
330
1D9
100
AcDbEntity
  8
0
100
AcDbLine
 10
1651.75
 20
717.9999999999964
 30
0.0
 11
1651.75
 21
727.5999999999961
 31
0.0
  0
LINE
  5
10A5
330
1D9
100
AcDbEntity
  8
0
100
AcDbLine
 10
1624.0
 20
717.9999999999964
 30
0.0
 11
1624.0
 21
727.5999999999961
 31
0.0
  0
LINE
  5
10A6
330
1D9
100
AcDbEntity
  8
0
100
AcDbLine
 10
1633.25
 20
717.9999999999964
 30
0.0
 11
1633.25
 21
727.5999999999961
 31
0.0
  0
ARC
  5
10A7
330
1D9
100
AcDbEntity
  8
0
100
AcDbCircle
 10
1656.374999999999
 20
727.369247159087
 30
0.0
 40
4.630752840909091
100
AcDbArc
 50
2.85626160780179
 51
177.1437383921982
  0
ARC
  5
10A8
330
1D9
100
AcDbEntity
  8
0
100
AcDbCircle
 10
1628.624999999999
 20
727.369247159087
 30
0.0
 40
4.630752840909087
100
AcDbArc
 50
2.85626160780179
 51
177.1437383921982
  0
LINE
  5
10A9
330
1D9
100
AcDbEntity
  8
0
100
AcDbLine
 10
1628.624999999999
 20
731.9999999999961
 30
0.0
 11
1656.374999999999
 21
731.9999999999961
 31
0.0
  0
ARC
  5
10AA
330
1D9
100
AcDbEntity
  8
0
100
AcDbCircle
 10
1642.5
 20
720.07698863636
 30
0.0
 40
11.92301136363636
100
AcDbArc
 50
39.1214070650605
 51
140.8785929349394
  0
LINE
  5
10AB
330
1D9
100
AcDbEntity
  8
0
100
AcDbLine
 10
1653.5
 20
684.9999999999964
 30
0.0
 11
1653.5
 21
689.9999899999961
 31
0.0
  0
LINE
  5
10AC
330
1D9
100
AcDbEntity
  8
0
100
AcDbLine
 10
1652.149989999999
 20
689.9999899999961
 30
0.0
 11
1652.149989999999
 21
684.9999999999964
 31
0.0
  0
LINE
  5
10AD
330
1D9
100
AcDbEntity
  8
0
100
AcDbLine
 10
1632.85001
 20
689.9999899999961
 30
0.0
 11
1632.85001
 21
684.9999999999964
 31
0.0
  0
LINE
  5
10AE
330
1D9
100
AcDbEntity
  8
0
100
AcDbLine
 10
1631.5
 20
684.9999999999964
 30
0.0
 11
1631.5
 21
689.9999899999961
 31
0.0
  0
ARC
  5
10AF
330
1D9
100
AcDbEntity
  8
0
100
AcDbCircle
 10
1742.5
 20
724.9999999999961
 30
0.0
 40
7.0
100
AcDbArc
 50
180.0
 51
212.3020728170437
  0
LINE
  5
10B0
330
1D9
100
AcDbEntity
  8
0
100
AcDbLine
 10
1689.0
 20
727.5999999999968
 30
0.0
 11
1689.0
 21
717.9999999999968
 31
0.0
  0
LINE
  5
10B1
330
1D9
100
AcDbEntity
  8
0
100
AcDbLine
 10
1698.25
 20
717.9999999999968
 30
0.0
 11
1698.25
 21
727.5999999999968
 31
0.0
  0
LINE
  5
10B2
330
1D9
100
AcDbEntity
  8
0
100
AcDbLine
 10
1726.0
 20
717.9999999999968
 30
0.0
 11
1726.0
 21
727.5999999999968
 31
0.0
  0
LINE
  5
10B3
330
1D9
100
AcDbEntity
  8
0
100
AcDbLine
 10
1716.75
 20
717.9999999999968
 30
0.0
 11
1716.75
 21
727.5999999999968
 31
0.0
  0
ARC
  5
10B4
330
1D9
100
AcDbEntity
  8
0
100
AcDbCircle
 10
1721.375
 20
727.3692471590875
 30
0.0
 40
4.630752840909087
100
AcDbArc
 50
2.85626160780179
 51
177.1437383921982
  0
ARC
  5
10B5
330
1D9
100
AcDbEntity
  8
0
100
AcDbCircle
 10
1707.5
 20
720.0769886363603
 30
0.0
 40
11.92301136363636
100
AcDbArc
 50
39.1214070650605
 51
140.8785929349394
  0
ARC
  5
10B6
330
1D9
100
AcDbEntity
  8
0
100
AcDbCircle
 10
1693.625
 20
727.3692471590875
 30
0.0
 40
4.630752840909091
100
AcDbArc
 50
2.85626160780179
 51
177.1437383921982
  0
LINE
  5
10B7
330
1D9
100
AcDbEntity
  8
0
100
AcDbLine
 10
1721.375
 20
731.9999999999968
 30
0.0
 11
1693.625
 21
731.9999999999968
 31
0.0
  0
LINE
  5
10B8
330
1D9
100
AcDbEntity
  8
0
100
AcDbLine
 10
1736.583302491975
 20
727.5999999999968
 30
0.0
 11
1736.583302491975
 21
717.9999999999968
 31
0.0
  0
ARC
  5
10B9
330
1D9
100
AcDbEntity
  8
0
100
AcDbCircle
 10
1741.208302491977
 20
727.3692471590875
 30
0.0
 40
4.630752840909091
100
AcDbArc
 50
2.85626160780179
 51
177.1437383921982
  0
LINE
  5
10BA
330
1D9
100
AcDbEntity
  8
0
100
AcDbLine
 10
1745.833302491976
 20
717.9999999999968
 30
0.0
 11
1745.833302491976
 21
727.5999999999968
 31
0.0
  0
LINE
  5
10BB
330
1D9
100
AcDbEntity
  8
0
100
AcDbLine
 10
1735.5
 20
728.2739210990503
 30
0.0
 11
1735.5
 21
724.9999999999961
 31
0.0
  0
LINE
  5
10BC
330
1D9
100
AcDbEntity
  8
0
100
AcDbLine
 10
1696.5
 20
684.9999999999966
 30
0.0
 11
1696.5
 21
689.9999899999966
 31
0.0
  0
LINE
  5
10BD
330
1D9
100
AcDbEntity
  8
0
100
AcDbLine
 10
1697.85001
 20
689.9999899999966
 30
0.0
 11
1697.85001
 21
684.9999999999966
 31
0.0
  0
LINE
  5
10BE
330
1D9
100
AcDbEntity
  8
0
100
AcDbLine
 10
1717.14999
 20
689.9999899999966
 30
0.0
 11
1717.14999
 21
684.9999999999966
 31
0.0
  0
LINE
  5
10BF
330
1D9
100
AcDbEntity
  8
0
100
AcDbLine
 10
1718.499999999999
 20
684.9999999999966
 30
0.0
 11
1718.499999999999
 21
689.9999899999966
 31
0.0
  0
LINE
  5
10C0
330
1D9
100
AcDbEntity
  8
0
100
AcDbLine
 10
1745.433312491977
 20
689.9999899999966
 30
0.0
 11
1745.433312491977
 21
684.9999999999966
 31
0.0
  0
LINE
  5
10C1
330
1D9
100
AcDbEntity
  8
0
100
AcDbLine
 10
1744.083302491977
 20
684.9999999999966
 30
0.0
 11
1744.083302491977
 21
689.9999899999966
 31
0.0
  0
TEXT
  5
10C2
330
1D9
100
AcDbEntity
  8
0
100
AcDbText
 10
809.0000000000003
 20
1017.200000000001
 30
0.0
 40
15.0
  1
パイプサイレンサー：ＫＶＨ－４０Ｎ
 72
     4
 11
960.0000000000003
 21
1025.000000000001
 31
0.0
100
AcDbText
  0
LINE
  5
10C3
330
1D9
100
AcDbEntity
  8
0
100
AcDbLine
 10
1095.0
 20
903.9999999999963
 30
0.0
 11
1095.0
 21
879.9999999999961
 31
0.0
  0
LINE
  5
10C4
330
1D9
100
AcDbEntity
  8
0
100
AcDbLine
 10
824.9999999999996
 20
903.9999999999963
 30
0.0
 11
824.9999999999996
 21
879.9999999999961
 31
0.0
  0
LINE
  5
10C6
330
1D9
100
AcDbEntity
  8
0
100
AcDbLine
 10
865.9876751782244
 20
819.2699972807702
 30
0.0
 11
1054.012324821775
 21
819.2699972807702
 31
0.0
  0
LINE
  5
10C7
330
1D9
100
AcDbEntity
  8
0
100
AcDbLine
 10
866.1597101453754
 20
820.7499999999964
 30
0.0
 11
1053.840289854624
 21
820.7499999999964
 31
0.0
  0
LINE
  5
10C8
330
1D9
100
AcDbEntity
  8
0
100
AcDbLine
 10
1094.0
 20
878.9999999999961
 30
0.0
 11
826.0000000000005
 21
878.9999999999961
 31
0.0
  0
ARC
  5
10C9
330
1D9
100
AcDbEntity
  8
0
100
AcDbCircle
 10
960.0000000000003
 20
876.9230113636321
 30
0.0
 40
11.92301136363636
100
AcDbArc
 50
219.1214070650605
 51
320.8785929349563
  0
LINE
  5
10CA
330
1D9
100
AcDbEntity
  8
0
100
AcDbLine
 10
946.1250000000003
 20
864.9999999999959
 30
0.0
 11
973.8750000000003
 21
864.9999999999959
 31
0.0
  0
LINE
  5
10CB
330
1D9
100
AcDbEntity
  8
0
100
AcDbLine
 10
866.1597101453754
 20
774.2499999999964
 30
0.0
 11
1053.840289854624
 21
774.2499999999964
 31
0.0
  0
LINE
  5
10CC
330
1D9
100
AcDbEntity
  8
0
100
AcDbLine
 10
865.9876751782244
 20
775.7300027192223
 30
0.0
 11
1054.012324821775
 21
775.7300027192223
 31
0.0
  0
ARC
  5
10CD
330
1D9
100
AcDbEntity
  8
0
100
AcDbCircle
 10
960.0000000000003
 20
797.4999999999964
 30
0.0
 40
96.5
100
AcDbArc
 50
159.2726317059801
 51
166.0584077970373
  0
ARC
  5
10CE
330
1D9
100
AcDbEntity
  8
0
100
AcDbCircle
 10
960.0000000000003
 20
797.4999999999964
 30
0.0
 40
96.5
100
AcDbArc
 50
166.9620826176308
 51
193.037917382369
  0
ARC
  5
10CF
330
1D9
100
AcDbEntity
  8
0
100
AcDbCircle
 10
866.1597101453754
 20
819.9999999999961
 30
0.0
 40
0.75
100
AcDbArc
 50
90.0
 51
256.7394300643289
  0
ARC
  5
10D0
330
1D9
100
AcDbEntity
  8
0
100
AcDbCircle
 10
866.1597101453754
 20
774.9999999999961
 30
0.0
 40
0.75
100
AcDbArc
 50
103.260569935671
 51
270.0
  0
ARC
  5
10D1
330
1D9
100
AcDbEntity
  8
0
100
AcDbCircle
 10
960.0000000000003
 20
797.4999999999964
 30
0.0
 40
96.5
100
AcDbArc
 50
193.9415922029626
 51
200.7273682940198
  0
ARC
  5
10D2
330
1D9
100
AcDbEntity
  8
0
100
AcDbCircle
 10
894.3254871165137
 20
869.6307528409056
 30
0.0
 40
4.630752840909091
100
AcDbArc
 50
182.8562616078017
 51
357.1437383921982
  0
LINE
  5
10D3
330
1D9
100
AcDbEntity
  8
0
100
AcDbLine
 10
866.5754871165137
 20
864.9999999999961
 30
0.0
 11
894.3254871165137
 21
864.9999999999961
 31
0.0
  0
LINE
  5
10D4
330
1D9
100
AcDbEntity
  8
0
100
AcDbLine
 10
825.9999999999996
 20
878.9999999999961
 30
0.0
 11
824.9999999999996
 21
879.9999999999961
 31
0.0
  0
LINE
  5
10D5
330
1D9
100
AcDbEntity
  8
0
100
AcDbLine
 10
829.0000000000002
 20
878.9999999999961
 30
0.0
 11
829.0000000000002
 21
869.3999999999965
 31
0.0
  0
LINE
  5
10D6
330
1D9
100
AcDbEntity
  8
0
100
AcDbLine
 10
833.6250000000005
 20
864.9999999999961
 30
0.0
 11
861.3750000000003
 21
864.9999999999961
 31
0.0
  0
LINE
  5
10D7
330
1D9
100
AcDbEntity
  8
0
100
AcDbLine
 10
856.7500000000004
 20
878.9999999999961
 30
0.0
 11
856.7500000000004
 21
869.3999999999965
 31
0.0
  0
LINE
  5
10D8
330
1D9
100
AcDbEntity
  8
0
100
AcDbLine
 10
838.2500000000003
 20
878.9999999999961
 30
0.0
 11
838.2500000000003
 21
869.3999999999965
 31
0.0
  0
ARC
  5
10D9
330
1D9
100
AcDbEntity
  8
0
100
AcDbCircle
 10
833.6250000000005
 20
869.6307528409056
 30
0.0
 40
4.630752840909087
100
AcDbArc
 50
182.8562616078017
 51
357.1437383921982
  0
ARC
  5
10DA
330
1D9
100
AcDbEntity
  8
0
100
AcDbCircle
 10
847.5000000000003
 20
876.9230113636327
 30
0.0
 40
11.92301136363636
100
AcDbArc
 50
219.1214070650605
 51
320.8785929349563
  0
ARC
  5
10DB
330
1D9
100
AcDbEntity
  8
0
100
AcDbCircle
 10
880.4504871165137
 20
876.9230113636327
 30
0.0
 40
11.92301136363636
100
AcDbArc
 50
219.1214070650605
 51
320.8785929349563
  0
ARC
  5
10DC
330
1D9
100
AcDbEntity
  8
0
100
AcDbCircle
 10
866.5754871165137
 20
869.6307528409056
 30
0.0
 40
4.630752840909087
100
AcDbArc
 50
182.8562616078017
 51
357.1437383921982
  0
LINE
  5
10DD
330
1D9
100
AcDbEntity
  8
0
100
AcDbLine
 10
871.2004871165136
 20
878.9999999999961
 30
0.0
 11
871.2004871165136
 21
869.3999999999965
 31
0.0
  0
LINE
  5
10DE
330
1D9
100
AcDbEntity
  8
0
100
AcDbLine
 10
889.7004871165135
 20
878.9999999999961
 30
0.0
 11
889.7004871165135
 21
869.3999999999965
 31
0.0
  0
LINE
  5
10DF
330
1D9
100
AcDbEntity
  8
0
100
AcDbLine
 10
861.9504871165135
 20
878.9999999999961
 30
0.0
 11
861.9504871165135
 21
869.3999999999965
 31
0.0
  0
ARC
  5
10E0
330
1D9
100
AcDbEntity
  8
0
100
AcDbCircle
 10
861.3750000000003
 20
869.6307528409056
 30
0.0
 40
4.630752840909091
100
AcDbArc
 50
182.8562616078017
 51
304.16073031805
  0
LINE
  5
10E1
330
1D9
100
AcDbEntity
  8
0
100
AcDbLine
 10
873.4999999999999
 20
864.9999999999961
 30
0.0
 11
873.5000000000002
 21
852.1808924579657
 31
0.0
  0
ARC
  5
10E2
330
1D9
100
AcDbEntity
  8
0
100
AcDbCircle
 10
815.5000000000002
 20
852.1808924579657
 30
0.0
 40
58.0
100
AcDbArc
 50
339.2726317059801
 51
0.0
  0
ARC
  5
10E3
330
1D9
100
AcDbEntity
  8
0
100
AcDbCircle
 10
946.1250000000003
 20
869.6307528409052
 30
0.0
 40
4.630752840909087
100
AcDbArc
 50
182.8562616078017
 51
357.1437383921982
  0
LINE
  5
10E4
330
1D9
100
AcDbEntity
  8
0
100
AcDbLine
 10
950.7500000000003
 20
878.999999999996
 30
0.0
 11
950.7500000000003
 21
869.3999999999958
 31
0.0
  0
LINE
  5
10E5
330
1D9
100
AcDbEntity
  8
0
100
AcDbLine
 10
941.5000000000004
 20
878.999999999996
 30
0.0
 11
941.5000000000004
 21
869.3999999999958
 31
0.0
  0
LINE
  5
10E6
330
1D9
100
AcDbEntity
  8
0
100
AcDbLine
 10
898.9504871165136
 20
869.3999999999965
 30
0.0
 11
898.9504871165136
 21
878.9999999999961
 31
0.0
  0
ARC
  5
10E7
330
1D9
100
AcDbEntity
  8
0
100
AcDbCircle
 10
960.0000000000003
 20
797.4999999999964
 30
0.0
 40
96.5
100
AcDbArc
 50
13.94159220296266
 51
20.72736829401985
  0
ARC
  5
10E8
330
1D9
100
AcDbEntity
  8
0
100
AcDbCircle
 10
960.0000000000003
 20
797.4999999999964
 30
0.0
 40
96.5
100
AcDbArc
 50
346.9620826176308
 51
13.03791738236915
  0
ARC
  5
10E9
330
1D9
100
AcDbEntity
  8
0
100
AcDbCircle
 10
1053.840289854624
 20
819.9999999999961
 30
0.0
 40
0.75
100
AcDbArc
 50
283.260569935671
 51
90.0
  0
ARC
  5
10EA
330
1D9
100
AcDbEntity
  8
0
100
AcDbCircle
 10
1053.840289854624
 20
774.9999999999961
 30
0.0
 40
0.75
100
AcDbArc
 50
270.0
 51
76.73943006432891
  0
ARC
  5
10EB
330
1D9
100
AcDbEntity
  8
0
100
AcDbCircle
 10
960.0000000000003
 20
797.4999999999964
 30
0.0
 40
96.5
100
AcDbArc
 50
339.2726317059801
 51
346.0584077970372
  0
LINE
  5
10EC
330
1D9
100
AcDbEntity
  8
0
100
AcDbLine
 10
1053.424512883486
 20
864.9999999999961
 30
0.0
 11
1025.674512883486
 21
864.9999999999961
 31
0.0
  0
ARC
  5
10ED
330
1D9
100
AcDbEntity
  8
0
100
AcDbCircle
 10
1039.549512883486
 20
876.9230113636327
 30
0.0
 40
11.92301136363636
100
AcDbArc
 50
219.1214070650436
 51
320.8785929349393
  0
ARC
  5
10EE
330
1D9
100
AcDbEntity
  8
0
100
AcDbCircle
 10
973.8750000000003
 20
869.6307528409052
 30
0.0
 40
4.630752840909091
100
AcDbArc
 50
182.8562616078017
 51
357.1437383921982
  0
LINE
  5
10EF
330
1D9
100
AcDbEntity
  8
0
100
AcDbLine
 10
969.2500000000004
 20
878.999999999996
 30
0.0
 11
969.2500000000004
 21
869.3999999999958
 31
0.0
  0
LINE
  5
10F0
330
1D9
100
AcDbEntity
  8
0
100
AcDbLine
 10
978.5000000000003
 20
869.3999999999958
 30
0.0
 11
978.5000000000003
 21
878.999999999996
 31
0.0
  0
LINE
  5
10F1
330
1D9
100
AcDbEntity
  8
0
100
AcDbLine
 10
1030.299512883486
 20
878.9999999999961
 30
0.0
 11
1030.299512883486
 21
869.3999999999965
 31
0.0
  0
LINE
  5
10F2
330
1D9
100
AcDbEntity
  8
0
100
AcDbLine
 10
1021.049512883487
 20
869.3999999999965
 30
0.0
 11
1021.049512883487
 21
878.9999999999961
 31
0.0
  0
ARC
  5
10F3
330
1D9
100
AcDbEntity
  8
0
100
AcDbCircle
 10
1025.674512883486
 20
869.6307528409056
 30
0.0
 40
4.630752840909091
100
AcDbArc
 50
182.8562616078017
 51
357.1437383921982
  0
LINE
  5
10F4
330
1D9
100
AcDbEntity
  8
0
100
AcDbLine
 10
1094.0
 20
878.9999999999961
 30
0.0
 11
1095.0
 21
879.9999999999961
 31
0.0
  0
ARC
  5
10F5
330
1D9
100
AcDbEntity
  8
0
100
AcDbCircle
 10
1058.624999999999
 20
869.6307528409056
 30
0.0
 40
4.630752840909091
100
AcDbArc
 50
235.8392696819499
 51
357.1437383921982
  0
LINE
  5
10F6
330
1D9
100
AcDbEntity
  8
0
100
AcDbLine
 10
1058.049512883487
 20
878.9999999999961
 30
0.0
 11
1058.049512883487
 21
869.3999999999965
 31
0.0
  0
ARC
  5
10F7
330
1D9
100
AcDbEntity
  8
0
100
AcDbCircle
 10
1053.424512883486
 20
869.6307528409056
 30
0.0
 40
4.630752840909087
100
AcDbArc
 50
182.8562616078017
 51
357.1437383921982
  0
ARC
  5
10F8
330
1D9
100
AcDbEntity
  8
0
100
AcDbCircle
 10
1072.5
 20
876.9230113636327
 30
0.0
 40
11.92301136363636
100
AcDbArc
 50
219.1214070650436
 51
320.8785929349393
  0
ARC
  5
10F9
330
1D9
100
AcDbEntity
  8
0
100
AcDbCircle
 10
1086.375
 20
869.6307528409056
 30
0.0
 40
4.630752840909087
100
AcDbArc
 50
182.8562616078017
 51
357.1437383921982
  0
LINE
  5
10FA
330
1D9
100
AcDbEntity
  8
0
100
AcDbLine
 10
1081.75
 20
878.9999999999961
 30
0.0
 11
1081.75
 21
869.3999999999965
 31
0.0
  0
LINE
  5
10FB
330
1D9
100
AcDbEntity
  8
0
100
AcDbLine
 10
1063.25
 20
878.9999999999961
 30
0.0
 11
1063.25
 21
869.3999999999965
 31
0.0
  0
LINE
  5
10FC
330
1D9
100
AcDbEntity
  8
0
100
AcDbLine
 10
1086.375
 20
864.9999999999961
 30
0.0
 11
1058.624999999999
 21
864.9999999999961
 31
0.0
  0
LINE
  5
10FD
330
1D9
100
AcDbEntity
  8
0
100
AcDbLine
 10
1048.799512883486
 20
878.9999999999961
 30
0.0
 11
1048.799512883486
 21
869.3999999999965
 31
0.0
  0
LINE
  5
10FE
330
1D9
100
AcDbEntity
  8
0
100
AcDbLine
 10
1091.0
 20
878.9999999999961
 30
0.0
 11
1091.0
 21
869.3999999999965
 31
0.0
  0
LINE
  5
10FF
330
1D9
100
AcDbEntity
  8
0
100
AcDbLine
 10
1046.499999999998
 20
864.9999999999961
 30
0.0
 11
1046.499999999998
 21
852.1808924579657
 31
0.0
  0
ARC
  5
1100
330
1D9
100
AcDbEntity
  8
0
100
AcDbCircle
 10
1104.5
 20
852.1808924579657
 30
0.0
 40
58.0
100
AcDbArc
 50
180.0
 51
200.7273682940198
  0
LINE
  5
1101
330
1D9
100
AcDbEntity
  8
0
100
AcDbLine
 10
1094.000000000001
 20
943.9999999999956
 30
0.0
 11
826.0000000000005
 21
943.9999999999956
 31
0.0
  0
LINE
  5
1102
330
1D9
100
AcDbEntity
  8
0
100
AcDbLine
 10
863.5000000000005
 20
951.9999999999956
 30
0.0
 11
1056.500000000001
 21
951.9999999999956
 31
0.0
  0
LINE
  5
1103
330
1D9
100
AcDbEntity
  8
0
100
AcDbLine
 10
890.0000000000003
 20
954.9999999999954
 30
0.0
 11
1030.0
 21
954.9999999999954
 31
0.0
  0
LINE
  5
1104
330
1D9
100
AcDbEntity
  8
0
100
AcDbLine
 10
825.9999999999996
 20
904.9999999999963
 30
0.0
 11
1094.0
 21
904.9999999999963
 31
0.0
  0
LINE
  5
1105
330
1D9
100
AcDbEntity
  8
0
100
AcDbLine
 10
826.0000000000005
 20
909.9999999999957
 30
0.0
 11
1094.0
 21
909.9999999999957
 31
0.0
  0
LINE
  5
1106
330
1D9
100
AcDbEntity
  8
0
100
AcDbLine
 10
825.0000000000005
 20
942.9999999999957
 30
0.0
 11
825.0000000000005
 21
910.9999999999956
 31
0.0
  0
LINE
  5
1107
330
1D9
100
AcDbEntity
  8
0
100
AcDbLine
 10
826.0000000000005
 20
943.9999999999956
 30
0.0
 11
825.0000000000005
 21
942.9999999999957
 31
0.0
  0
LINE
  5
1108
330
1D9
100
AcDbEntity
  8
0
100
AcDbLine
 10
880.0
 20
957.9999999999952
 30
0.0
 11
879.9999999999995
 21
937.9999999999959
 31
0.0
  0
LINE
  5
1109
330
1D9
100
AcDbEntity
  8
0
100
AcDbLine
 10
863.5000000000005
 20
951.9999999999956
 30
0.0
 11
862.5000000000005
 21
950.9999999999957
 31
0.0
  0
LINE
  5
110A
330
1D9
100
AcDbEntity
  8
0
100
AcDbLine
 10
862.5000000000005
 20
950.9999999999957
 30
0.0
 11
862.5000000000005
 21
943.9999999999956
 31
0.0
  0
LINE
  5
110B
330
1D9
100
AcDbEntity
  8
0
100
AcDbLine
 10
824.9999999999996
 20
903.9999999999963
 30
0.0
 11
825.9999999999996
 21
904.9999999999963
 31
0.0
  0
LINE
  5
110C
330
1D9
100
AcDbEntity
  8
0
100
AcDbLine
 10
858.5
 20
909.9999999999957
 30
0.0
 11
858.5000000000004
 21
905.0000099999966
 31
0.0
  0
LINE
  5
110D
330
1D9
100
AcDbEntity
  8
0
100
AcDbLine
 10
857.1499900000004
 20
905.0000099999966
 30
0.0
 11
857.1499900000008
 21
909.9999999999955
 31
0.0
  0
LINE
  5
110E
330
1D9
100
AcDbEntity
  8
0
100
AcDbLine
 10
837.8500100000005
 20
905.0000099999966
 30
0.0
 11
837.8500100000005
 21
909.9999999999955
 31
0.0
  0
LINE
  5
110F
330
1D9
100
AcDbEntity
  8
0
100
AcDbLine
 10
836.5000000000009
 20
909.9999999999957
 30
0.0
 11
836.5000000000005
 21
905.0000099999966
 31
0.0
  0
LINE
  5
1110
330
1D9
100
AcDbEntity
  8
0
100
AcDbLine
 10
869.450487116514
 20
909.9999999999957
 30
0.0
 11
869.4504871165136
 21
905.0000099999966
 31
0.0
  0
LINE
  5
1111
330
1D9
100
AcDbEntity
  8
0
100
AcDbLine
 10
870.8004971165136
 20
905.0000099999966
 30
0.0
 11
870.8004971165136
 21
909.9999999999955
 31
0.0
  0
LINE
  5
1112
330
1D9
100
AcDbEntity
  8
0
100
AcDbLine
 10
825.0000000000005
 20
910.9999999999956
 30
0.0
 11
826.0000000000005
 21
909.9999999999957
 31
0.0
  0
LINE
  5
1113
330
1D9
100
AcDbEntity
  8
0
100
AcDbLine
 10
903.4314575050766
 20
957.9999999999952
 30
0.0
 11
903.4314575050766
 21
937.9999999999959
 31
0.0
  0
LINE
  5
1114
330
1D9
100
AcDbEntity
  8
0
100
AcDbLine
 10
890.0000000000003
 20
954.9999999999954
 30
0.0
 11
890.0000000000003
 21
951.9999999999955
 31
0.0
  0
LINE
  5
1115
330
1D9
100
AcDbEntity
  8
0
100
AcDbLine
 10
949.0000000000007
 20
909.9999999999955
 30
0.0
 11
949.0000000000003
 21
905.0000099999961
 31
0.0
  0
LINE
  5
1116
330
1D9
100
AcDbEntity
  8
0
100
AcDbLine
 10
950.3500100000003
 20
905.0000099999961
 30
0.0
 11
950.3500100000003
 21
909.9999999999948
 31
0.0
  0
LINE
  5
1117
330
1D9
100
AcDbEntity
  8
0
100
AcDbLine
 10
890.1004771165135
 20
905.0000099999966
 30
0.0
 11
890.1004771165139
 21
909.9999999999955
 31
0.0
  0
LINE
  5
1118
330
1D9
100
AcDbEntity
  8
0
100
AcDbLine
 10
891.4504871165132
 20
909.9999999999957
 30
0.0
 11
891.4504871165135
 21
905.0000099999966
 31
0.0
  0
LINE
  5
1119
330
1D9
100
AcDbEntity
  8
0
100
AcDbLine
 10
1040.0
 20
957.9999999999952
 30
0.0
 11
1040.000000000001
 21
937.9999999999959
 31
0.0
  0
LINE
  5
111A
330
1D9
100
AcDbEntity
  8
0
100
AcDbLine
 10
1016.568542494924
 20
957.9999999999952
 30
0.0
 11
1016.568542494924
 21
937.9999999999959
 31
0.0
  0
LINE
  5
111B
330
1D9
100
AcDbEntity
  8
0
100
AcDbLine
 10
1030.0
 20
954.9999999999954
 30
0.0
 11
1030.0
 21
951.9999999999956
 31
0.0
  0
LINE
  5
111C
330
1D9
100
AcDbEntity
  8
0
100
AcDbLine
 10
969.6499900000004
 20
905.0000099999961
 30
0.0
 11
969.6499900000008
 21
909.9999999999948
 31
0.0
  0
LINE
  5
111D
330
1D9
100
AcDbEntity
  8
0
100
AcDbLine
 10
971.0
 20
909.9999999999955
 30
0.0
 11
971.0000000000004
 21
905.0000099999961
 31
0.0
  0
LINE
  5
111E
330
1D9
100
AcDbEntity
  8
0
100
AcDbLine
 10
1028.549512883486
 20
909.9999999999957
 30
0.0
 11
1028.549512883486
 21
905.0000099999966
 31
0.0
  0
LINE
  5
111F
330
1D9
100
AcDbEntity
  8
0
100
AcDbLine
 10
1029.899522883486
 20
905.0000099999966
 30
0.0
 11
1029.899522883485
 21
909.9999999999955
 31
0.0
  0
LINE
  5
1120
330
1D9
100
AcDbEntity
  8
0
100
AcDbLine
 10
1095.0
 20
942.9999999999957
 30
0.0
 11
1095.0
 21
910.9999999999956
 31
0.0
  0
LINE
  5
1121
330
1D9
100
AcDbEntity
  8
0
100
AcDbLine
 10
1056.499999999999
 20
951.9999999999956
 30
0.0
 11
1057.5
 21
950.9999999999957
 31
0.0
  0
LINE
  5
1122
330
1D9
100
AcDbEntity
  8
0
100
AcDbLine
 10
1057.5
 20
950.9999999999957
 30
0.0
 11
1057.5
 21
943.9999999999956
 31
0.0
  0
LINE
  5
1123
330
1D9
100
AcDbEntity
  8
0
100
AcDbLine
 10
1094.0
 20
943.9999999999956
 30
0.0
 11
1095.0
 21
942.9999999999957
 31
0.0
  0
LINE
  5
1124
330
1D9
100
AcDbEntity
  8
0
100
AcDbLine
 10
1095.0
 20
903.9999999999963
 30
0.0
 11
1094.0
 21
904.9999999999963
 31
0.0
  0
LINE
  5
1125
330
1D9
100
AcDbEntity
  8
0
100
AcDbLine
 10
1049.199502883487
 20
905.0000099999966
 30
0.0
 11
1049.199502883487
 21
909.9999999999955
 31
0.0
  0
LINE
  5
1126
330
1D9
100
AcDbEntity
  8
0
100
AcDbLine
 10
1050.549512883485
 20
909.9999999999957
 30
0.0
 11
1050.549512883486
 21
905.0000099999966
 31
0.0
  0
LINE
  5
1127
330
1D9
100
AcDbEntity
  8
0
100
AcDbLine
 10
1083.5
 20
909.9999999999957
 30
0.0
 11
1083.5
 21
905.0000099999966
 31
0.0
  0
LINE
  5
1128
330
1D9
100
AcDbEntity
  8
0
100
AcDbLine
 10
1082.14999
 20
905.0000099999966
 30
0.0
 11
1082.14999
 21
909.9999999999955
 31
0.0
  0
LINE
  5
1129
330
1D9
100
AcDbEntity
  8
0
100
AcDbLine
 10
1062.850009999999
 20
905.0000099999966
 30
0.0
 11
1062.850009999999
 21
909.9999999999955
 31
0.0
  0
LINE
  5
112A
330
1D9
100
AcDbEntity
  8
0
100
AcDbLine
 10
1061.5
 20
909.9999999999957
 30
0.0
 11
1061.5
 21
905.0000099999966
 31
0.0
  0
LINE
  5
112B
330
1D9
100
AcDbEntity
  8
0
100
AcDbLine
 10
1095.0
 20
910.9999999999956
 30
0.0
 11
1094.0
 21
909.9999999999957
 31
0.0
  0
ARC
  5
112C
330
1D9
100
AcDbEntity
  8
0
100
AcDbCircle
 10
1052.990381056766
 20
1176.669318181813
 30
0.0
 40
4.330681818181814
100
AcDbArc
 50
359.0828675395623
 51
180.9171324604374
  0
ARC
  5
112D
330
1D9
100
AcDbEntity
  8
0
100
AcDbCircle
 10
1003.578161438157
 20
1176.669318181813
 30
0.0
 40
4.330681818181816
100
AcDbArc
 50
359.0828675395623
 51
180.9171324604374
  0
ARC
  5
112E
330
1D9
100
AcDbEntity
  8
0
100
AcDbCircle
 10
1016.568542494924
 20
1170.277272727269
 30
0.0
 40
10.72272727272727
100
AcDbArc
 50
36.13264570574848
 51
143.8673542942515
  0
ARC
  5
112F
330
1D9
100
AcDbEntity
  8
0
100
AcDbCircle
 10
1029.558923551689
 20
1176.669318181813
 30
0.0
 40
4.330681818181814
100
AcDbArc
 50
359.0828675395623
 51
180.9171324604374
  0
ARC
  5
1130
330
1D9
100
AcDbEntity
  8
0
100
AcDbCircle
 10
972.9903810567673
 20
1176.669318181813
 30
0.0
 40
4.330681818181816
100
AcDbArc
 50
359.0828675395623
 51
180.9171324604374
  0
ARC
  5
1131
330
1D9
100
AcDbEntity
  8
0
100
AcDbCircle
 10
1040.0
 20
1170.277272727269
 30
0.0
 40
10.72272727272727
100
AcDbArc
 50
36.13264570574848
 51
128.1377732517384
  0
ARC
  5
1132
330
1D9
100
AcDbEntity
  8
0
100
AcDbCircle
 10
903.4314575050766
 20
1170.277272727269
 30
0.0
 40
10.72272727272727
100
AcDbArc
 50
36.13264570574848
 51
143.8673542942515
  0
ARC
  5
1133
330
1D9
100
AcDbEntity
  8
0
100
AcDbCircle
 10
916.4218385618433
 20
1176.669318181813
 30
0.0
 40
4.330681818181816
100
AcDbArc
 50
359.0828675395623
 51
180.9171324604374
  0
ARC
  5
1134
330
1D9
100
AcDbEntity
  8
0
100
AcDbCircle
 10
947.0096189432338
 20
1176.669318181813
 30
0.0
 40
4.330681818181814
100
AcDbArc
 50
359.0828675395623
 51
180.9171324604374
  0
ARC
  5
1135
330
1D9
100
AcDbEntity
  8
0
100
AcDbCircle
 10
880.0
 20
1170.277272727269
 30
0.0
 40
10.72272727272727
100
AcDbArc
 50
51.86222674826149
 51
143.8673542942515
  0
ARC
  5
1136
330
1D9
100
AcDbEntity
  8
0
100
AcDbCircle
 10
867.0096189432332
 20
1176.669318181813
 30
0.0
 40
4.330681818181814
100
AcDbArc
 50
359.0828675395623
 51
180.9171324604374
  0
ARC
  5
1137
330
1D9
100
AcDbEntity
  8
0
100
AcDbCircle
 10
890.4410764483101
 20
1176.669318181813
 30
0.0
 40
4.330681818181814
100
AcDbArc
 50
359.0828675395623
 51
180.9171324604374
  0
ARC
  5
1138
330
1D9
100
AcDbEntity
  8
0
100
AcDbCircle
 10
960.0000000000003
 20
1170.277272727269
 30
0.0
 40
10.72272727272727
100
AcDbArc
 50
36.13264570574848
 51
143.8673542942515
  0
LINE
  5
1139
330
1D9
100
AcDbEntity
  8
0
100
AcDbLine
 10
861.0000000000002
 20
1142.499999999996
 30
0.0
 11
1059.0
 21
1142.499999999996
 31
0.0
  0
LINE
  5
113A
330
1D9
100
AcDbEntity
  8
0
100
AcDbLine
 10
861.0
 20
1146.499999999996
 30
0.0
 11
1059.0
 21
1146.499999999996
 31
0.0
  0
LINE
  5
113B
330
1D9
100
AcDbEntity
  8
0
100
AcDbLine
 10
861.0
 20
1168.499999999996
 30
0.0
 11
1059.0
 21
1168.499999999996
 31
0.0
  0
LINE
  5
113C
330
1D9
100
AcDbEntity
  8
0
100
AcDbLine
 10
915.5000000000002
 20
1102.499999999996
 30
0.0
 11
1004.500000000001
 21
1102.499999999996
 31
0.0
  0
LINE
  5
113D
330
1D9
100
AcDbEntity
  8
0
100
AcDbLine
 10
896.0000000000004
 20
1105.499999999996
 30
0.0
 11
1024.0
 21
1105.499999999996
 31
0.0
  0
LINE
  5
113E
330
1D9
100
AcDbEntity
  8
0
100
AcDbLine
 10
1059.0
 20
1113.499999999996
 30
0.0
 11
861.000000000001
 21
1113.499999999996
 31
0.0
  0
LINE
  5
113F
330
1D9
100
AcDbEntity
  8
0
100
AcDbLine
 10
907.5000000000002
 20
1099.499999999996
 30
0.0
 11
907.5000000000002
 21
1119.499999999996
 31
0.0
  0
LINE
  5
1140
330
1D9
100
AcDbEntity
  8
0
100
AcDbLine
 10
895.0000000000002
 20
1106.499999999996
 30
0.0
 11
895.0000000000002
 21
1113.499999999996
 31
0.0
  0
LINE
  5
1141
330
1D9
100
AcDbEntity
  8
0
100
AcDbLine
 10
915.5000000000002
 20
1102.499999999996
 30
0.0
 11
915.4999999999999
 21
1105.499999999996
 31
0.0
  0
LINE
  5
1142
330
1D9
100
AcDbEntity
  8
0
100
AcDbLine
 10
896.0000000000004
 20
1105.499999999996
 30
0.0
 11
895.0000000000002
 21
1106.499999999996
 31
0.0
  0
LINE
  5
1143
330
1D9
100
AcDbEntity
  8
0
100
AcDbLine
 10
886.1109494293877
 20
1168.499999999996
 30
0.0
 11
886.1109494293877
 21
1176.599999999996
 31
0.0
  0
LINE
  5
1144
330
1D9
100
AcDbEntity
  8
0
100
AcDbLine
 10
888.6500099999999
 20
1146.499989999995
 30
0.0
 11
888.6500099999999
 21
1142.499999999996
 31
0.0
  0
LINE
  5
1145
330
1D9
100
AcDbEntity
  8
0
100
AcDbLine
 10
869.9999999999995
 20
1142.499999999996
 30
0.0
 11
870.0
 21
1146.499989999995
 31
0.0
  0
LINE
  5
1146
330
1D9
100
AcDbEntity
  8
0
100
AcDbLine
 10
871.35001
 20
1146.499989999995
 30
0.0
 11
871.35001
 21
1142.499999999996
 31
0.0
  0
LINE
  5
1147
330
1D9
100
AcDbEntity
  8
0
100
AcDbLine
 10
871.3397459621555
 20
1168.499999999996
 30
0.0
 11
871.3397459621555
 21
1176.599999999996
 31
0.0
  0
LINE
  5
1148
330
1D9
100
AcDbEntity
  8
0
100
AcDbLine
 10
862.6794919243112
 20
1168.499999999996
 30
0.0
 11
862.6794919243112
 21
1176.599999999996
 31
0.0
  0
LINE
  5
1149
330
1D9
100
AcDbEntity
  8
0
100
AcDbLine
 10
860.0000000000003
 20
1141.499999999996
 30
0.0
 11
861.0000000000002
 21
1142.499999999996
 31
0.0
  0
LINE
  5
114A
330
1D9
100
AcDbEntity
  8
0
100
AcDbLine
 10
861.0
 20
1146.499999999996
 30
0.0
 11
860.0
 21
1147.499999999996
 31
0.0
  0
LINE
  5
114B
330
1D9
100
AcDbEntity
  8
0
100
AcDbLine
 10
860.0
 20
1167.499999999996
 30
0.0
 11
861.0
 21
1168.499999999996
 31
0.0
  0
LINE
  5
114C
330
1D9
100
AcDbEntity
  8
0
100
AcDbLine
 10
860.0
 20
1147.499999999996
 30
0.0
 11
860.0
 21
1167.499999999996
 31
0.0
  0
LINE
  5
114D
330
1D9
100
AcDbEntity
  8
0
100
AcDbLine
 10
861.000000000001
 20
1113.499999999996
 30
0.0
 11
860.0000000000008
 21
1114.499999999996
 31
0.0
  0
LINE
  5
114E
330
1D9
100
AcDbEntity
  8
0
100
AcDbLine
 10
860.0000000000003
 20
1141.499999999996
 30
0.0
 11
860.0000000000008
 21
1114.499999999996
 31
0.0
  0
LINE
  5
114F
330
1D9
100
AcDbEntity
  8
0
100
AcDbLine
 10
894.7814675050768
 20
1146.499989999995
 30
0.0
 11
894.7814675050768
 21
1142.499999999996
 31
0.0
  0
LINE
  5
1150
330
1D9
100
AcDbEntity
  8
0
100
AcDbLine
 10
893.4314575050761
 20
1142.499999999996
 30
0.0
 11
893.4314575050766
 21
1146.499989999995
 31
0.0
  0
LINE
  5
1151
330
1D9
100
AcDbEntity
  8
0
100
AcDbLine
 10
912.0814675050764
 20
1146.499989999995
 30
0.0
 11
912.0814675050764
 21
1142.499999999996
 31
0.0
  0
LINE
  5
1152
330
1D9
100
AcDbEntity
  8
0
100
AcDbLine
 10
913.4314775050761
 20
1142.499999999996
 30
0.0
 11
913.4314775050766
 21
1146.499989999995
 31
0.0
  0
LINE
  5
1153
330
1D9
100
AcDbEntity
  8
0
100
AcDbLine
 10
920.7519655807654
 20
1176.599999999996
 30
0.0
 11
920.7519655807654
 21
1168.499999999996
 31
0.0
  0
LINE
  5
1154
330
1D9
100
AcDbEntity
  8
0
100
AcDbLine
 10
912.0917115429213
 20
1168.499999999996
 30
0.0
 11
912.0917115429213
 21
1176.599999999996
 31
0.0
  0
LINE
  5
1155
330
1D9
100
AcDbEntity
  8
0
100
AcDbLine
 10
894.7712034672322
 20
1168.499999999996
 30
0.0
 11
894.7712034672322
 21
1176.599999999996
 31
0.0
  0
LINE
  5
1156
330
1D9
100
AcDbEntity
  8
0
100
AcDbLine
 10
951.3500100000003
 20
1146.499989999995
 30
0.0
 11
951.3500100000003
 21
1142.499999999996
 31
0.0
  0
LINE
  5
1157
330
1D9
100
AcDbEntity
  8
0
100
AcDbLine
 10
950.0
 20
1142.499999999996
 30
0.0
 11
950.0000000000003
 21
1146.499989999995
 31
0.0
  0
LINE
  5
1158
330
1D9
100
AcDbEntity
  8
0
100
AcDbLine
 10
942.6794919243118
 20
1168.499999999996
 30
0.0
 11
942.6794919243118
 21
1176.599999999996
 31
0.0
  0
LINE
  5
1159
330
1D9
100
AcDbEntity
  8
0
100
AcDbLine
 10
951.3397459621559
 20
1168.499999999996
 30
0.0
 11
951.3397459621559
 21
1176.599999999996
 31
0.0
  0
LINE
  5
115A
330
1D9
100
AcDbEntity
  8
0
100
AcDbLine
 10
890.0000199999995
 20
1142.499999999996
 30
0.0
 11
890.0000199999999
 21
1146.499989999995
 31
0.0
  0
LINE
  5
115B
330
1D9
100
AcDbEntity
  8
0
100
AcDbLine
 10
1012.499999999999
 20
1099.499999999996
 30
0.0
 11
1012.499999999999
 21
1119.499999999996
 31
0.0
  0
LINE
  5
115C
330
1D9
100
AcDbEntity
  8
0
100
AcDbLine
 10
1025.0
 20
1106.499999999996
 30
0.0
 11
1025.0
 21
1113.499999999996
 31
0.0
  0
LINE
  5
115D
330
1D9
100
AcDbEntity
  8
0
100
AcDbLine
 10
1004.500000000001
 20
1102.499999999996
 30
0.0
 11
1004.499999999999
 21
1105.499999999996
 31
0.0
  0
LINE
  5
115E
330
1D9
100
AcDbEntity
  8
0
100
AcDbLine
 10
1024.0
 20
1105.499999999996
 30
0.0
 11
1025.0
 21
1106.499999999996
 31
0.0
  0
LINE
  5
115F
330
1D9
100
AcDbEntity
  8
0
100
AcDbLine
 10
1029.999980000001
 20
1142.499999999996
 30
0.0
 11
1029.999980000001
 21
1146.499989999995
 31
0.0
  0
LINE
  5
1160
330
1D9
100
AcDbEntity
  8
0
100
AcDbLine
 10
1006.568522494924
 20
1142.499999999996
 30
0.0
 11
1006.568522494924
 21
1146.499989999995
 31
0.0
  0
LINE
  5
1161
330
1D9
100
AcDbEntity
  8
0
100
AcDbLine
 10
1007.918532494924
 20
1146.499989999995
 30
0.0
 11
1007.918532494924
 21
1142.499999999996
 31
0.0
  0
LINE
  5
1162
330
1D9
100
AcDbEntity
  8
0
100
AcDbLine
 10
1026.568542494924
 20
1142.499999999996
 30
0.0
 11
1026.568542494924
 21
1146.499989999995
 31
0.0
  0
LINE
  5
1163
330
1D9
100
AcDbEntity
  8
0
100
AcDbLine
 10
1025.218532494924
 20
1146.499989999995
 30
0.0
 11
1025.218532494924
 21
1142.499999999996
 31
0.0
  0
LINE
  5
1164
330
1D9
100
AcDbEntity
  8
0
100
AcDbLine
 10
1031.349990000001
 20
1146.499989999995
 30
0.0
 11
1031.349990000001
 21
1142.499999999996
 31
0.0
  0
LINE
  5
1165
330
1D9
100
AcDbEntity
  8
0
100
AcDbLine
 10
1025.228796532767
 20
1168.499999999996
 30
0.0
 11
1025.228796532767
 21
1176.599999999996
 31
0.0
  0
LINE
  5
1166
330
1D9
100
AcDbEntity
  8
0
100
AcDbLine
 10
1007.908288457079
 20
1168.499999999996
 30
0.0
 11
1007.908288457079
 21
1176.599999999996
 31
0.0
  0
LINE
  5
1167
330
1D9
100
AcDbEntity
  8
0
100
AcDbLine
 10
999.2480344192356
 20
1176.599999999996
 30
0.0
 11
999.2480344192356
 21
1168.499999999996
 31
0.0
  0
LINE
  5
1168
330
1D9
100
AcDbEntity
  8
0
100
AcDbLine
 10
1033.889050570612
 20
1168.499999999996
 30
0.0
 11
1033.889050570612
 21
1176.599999999996
 31
0.0
  0
LINE
  5
1169
330
1D9
100
AcDbEntity
  8
0
100
AcDbLine
 10
970.0000199999999
 20
1142.499999999996
 30
0.0
 11
970.0000200000003
 21
1146.499989999995
 31
0.0
  0
LINE
  5
116A
330
1D9
100
AcDbEntity
  8
0
100
AcDbLine
 10
968.6500100000003
 20
1146.499989999995
 30
0.0
 11
968.6500100000003
 21
1142.499999999996
 31
0.0
  0
LINE
  5
116B
330
1D9
100
AcDbEntity
  8
0
100
AcDbLine
 10
977.3205080756891
 20
1176.599999999996
 30
0.0
 11
977.3205080756891
 21
1168.499999999996
 31
0.0
  0
LINE
  5
116C
330
1D9
100
AcDbEntity
  8
0
100
AcDbLine
 10
968.6602540378446
 20
1168.499999999996
 30
0.0
 11
968.6602540378446
 21
1176.599999999996
 31
0.0
  0
LINE
  5
116D
330
1D9
100
AcDbEntity
  8
0
100
AcDbLine
 10
1048.649990000001
 20
1146.499989999995
 30
0.0
 11
1048.649990000001
 21
1142.499999999996
 31
0.0
  0
LINE
  5
116E
330
1D9
100
AcDbEntity
  8
0
100
AcDbLine
 10
1050.000000000001
 20
1142.499999999996
 30
0.0
 11
1050.0
 21
1146.499989999995
 31
0.0
  0
LINE
  5
116F
330
1D9
100
AcDbEntity
  8
0
100
AcDbLine
 10
1057.320508075688
 20
1168.499999999996
 30
0.0
 11
1057.320508075688
 21
1176.599999999996
 31
0.0
  0
LINE
  5
1170
330
1D9
100
AcDbEntity
  8
0
100
AcDbLine
 10
1048.660254037845
 20
1168.499999999996
 30
0.0
 11
1048.660254037845
 21
1176.599999999996
 31
0.0
  0
LINE
  5
1171
330
1D9
100
AcDbEntity
  8
0
100
AcDbLine
 10
1060.0
 20
1141.499999999996
 30
0.0
 11
1059.0
 21
1142.499999999996
 31
0.0
  0
LINE
  5
1172
330
1D9
100
AcDbEntity
  8
0
100
AcDbLine
 10
1059.0
 20
1146.499999999996
 30
0.0
 11
1060.0
 21
1147.499999999996
 31
0.0
  0
LINE
  5
1173
330
1D9
100
AcDbEntity
  8
0
100
AcDbLine
 10
1060.0
 20
1167.499999999996
 30
0.0
 11
1059.0
 21
1168.499999999996
 31
0.0
  0
LINE
  5
1174
330
1D9
100
AcDbEntity
  8
0
100
AcDbLine
 10
1060.0
 20
1147.499999999996
 30
0.0
 11
1060.0
 21
1167.499999999996
 31
0.0
  0
LINE
  5
1175
330
1D9
100
AcDbEntity
  8
0
100
AcDbLine
 10
1059.0
 20
1113.499999999996
 30
0.0
 11
1060.0
 21
1114.499999999996
 31
0.0
  0
LINE
  5
1176
330
1D9
100
AcDbEntity
  8
0
100
AcDbLine
 10
1060.0
 20
1141.499999999996
 30
0.0
 11
1060.0
 21
1114.499999999996
 31
0.0
  0
LINE
  5
1177
330
1D9
100
AcDbEntity
  8
0
100
AcDbLine
 10
861.0
 20
1291.499999999996
 30
0.0
 11
1059.0
 21
1291.499999999996
 31
0.0
  0
LINE
  5
1178
330
1D9
100
AcDbEntity
  8
0
100
AcDbLine
 10
897.4000798722554
 20
1247.999999999995
 30
0.0
 11
1022.599920127744
 21
1247.999999999995
 31
0.0
  0
LINE
  5
1179
330
1D9
100
AcDbEntity
  8
0
100
AcDbLine
 10
897.2673175519624
 20
1247.017947963063
 30
0.0
 11
1022.732682448038
 21
1247.017947963063
 31
0.0
  0
LINE
  5
117A
330
1D9
100
AcDbEntity
  8
0
100
AcDbLine
 10
861.0
 20
1313.499999999996
 30
0.0
 11
1059.0
 21
1313.499999999996
 31
0.0
  0
LINE
  5
117B
330
1D9
100
AcDbEntity
  8
0
100
AcDbLine
 10
861.0000000000002
 20
1317.499999999996
 30
0.0
 11
1059.0
 21
1317.499999999996
 31
0.0
  0
LINE
  5
117C
330
1D9
100
AcDbEntity
  8
0
100
AcDbLine
 10
947.0096189432338
 20
1278.999999999996
 30
0.0
 11
972.9903810567673
 21
1278.999999999996
 31
0.0
  0
ARC
  5
117D
330
1D9
100
AcDbEntity
  8
0
100
AcDbCircle
 10
960.0000000000003
 20
1289.722727272723
 30
0.0
 40
10.72272727272727
100
AcDbArc
 50
216.1326457057484
 51
323.8673542942515
  0
LINE
  5
117E
330
1D9
100
AcDbEntity
  8
0
100
AcDbLine
 10
897.2673175519624
 20
1212.982052036928
 30
0.0
 11
1022.732682448038
 21
1212.982052036928
 31
0.0
  0
LINE
  5
117F
330
1D9
100
AcDbEntity
  8
0
100
AcDbLine
 10
897.4000798722554
 20
1211.999999999997
 30
0.0
 11
1022.599920127744
 21
1211.999999999997
 31
0.0
  0
LINE
  5
1180
330
1D9
100
AcDbEntity
  8
0
100
AcDbLine
 10
947.0096189432338
 20
1180.999999999996
 30
0.0
 11
972.9903810567673
 21
1180.999999999996
 31
0.0
  0
ARC
  5
1181
330
1D9
100
AcDbEntity
  8
0
100
AcDbCircle
 10
960.0000000000003
 20
1229.999999999996
 30
0.0
 40
65.0
100
AcDbArc
 50
157.3801350519663
 51
163.9233501683915
  0
LINE
  5
1182
330
1D9
100
AcDbEntity
  8
0
100
AcDbLine
 10
867.0096189432332
 20
1180.999999999996
 30
0.0
 11
892.9903810567665
 21
1180.999999999996
 31
0.0
  0
ARC
  5
1183
330
1D9
100
AcDbEntity
  8
0
100
AcDbCircle
 10
960.0000000000003
 20
1229.999999999996
 30
0.0
 40
65.0
100
AcDbArc
 50
164.8222395764848
 51
195.177760423515
  0
ARC
  5
1184
330
1D9
100
AcDbEntity
  8
0
100
AcDbCircle
 10
897.4000798722554
 20
1247.499999999995
 30
0.0
 40
0.5
100
AcDbArc
 50
90.0
 51
254.6018706504114
  0
ARC
  5
1185
330
1D9
100
AcDbEntity
  8
0
100
AcDbCircle
 10
960.0000000000003
 20
1229.999999999996
 30
0.0
 40
65.0
100
AcDbArc
 50
196.0766498316083
 51
202.6198649480336
  0
ARC
  5
1186
330
1D9
100
AcDbEntity
  8
0
100
AcDbCircle
 10
897.4000798722554
 20
1212.499999999997
 30
0.0
 40
0.5
100
AcDbArc
 50
105.3981293495885
 51
270.0
  0
LINE
  5
1187
330
1D9
100
AcDbEntity
  8
0
100
AcDbLine
 10
903.0000000000002
 20
1189.999999999997
 30
0.0
 11
903.0000000000002
 21
1180.999999999996
 31
0.0
  0
LINE
  5
1188
330
1D9
100
AcDbEntity
  8
0
100
AcDbLine
 10
890.4410764483101
 20
1180.999999999996
 30
0.0
 11
916.4218385618433
 21
1180.999999999996
 31
0.0
  0
ARC
  5
1189
330
1D9
100
AcDbEntity
  8
0
100
AcDbCircle
 10
864.0000000000004
 20
1189.999999999996
 30
0.0
 40
39.0
100
AcDbArc
 50
0.0
 51
22.61986494803366
  0
LINE
  5
118A
330
1D9
100
AcDbEntity
  8
0
100
AcDbLine
 10
867.0096189432332
 20
1278.999999999996
 30
0.0
 11
892.9903810567665
 21
1278.999999999996
 31
0.0
  0
ARC
  5
118B
330
1D9
100
AcDbEntity
  8
0
100
AcDbCircle
 10
890.4410764483101
 20
1283.330681818178
 30
0.0
 40
4.330681818181814
100
AcDbArc
 50
179.0828675395624
 51
0.9171324604375683
  0
LINE
  5
118C
330
1D9
100
AcDbEntity
  8
0
100
AcDbLine
 10
860.0
 20
1312.499999999996
 30
0.0
 11
860.0
 21
1292.499999999996
 31
0.0
  0
LINE
  5
118D
330
1D9
100
AcDbEntity
  8
0
100
AcDbLine
 10
860.0
 20
1292.499999999996
 30
0.0
 11
861.0
 21
1291.499999999996
 31
0.0
  0
LINE
  5
118E
330
1D9
100
AcDbEntity
  8
0
100
AcDbLine
 10
861.0
 20
1313.499999999996
 30
0.0
 11
860.0
 21
1312.499999999996
 31
0.0
  0
LINE
  5
118F
330
1D9
100
AcDbEntity
  8
0
100
AcDbLine
 10
860.0000000000003
 20
1318.499999999996
 30
0.0
 11
861.0000000000002
 21
1317.499999999996
 31
0.0
  0
LINE
  5
1190
330
1D9
100
AcDbEntity
  8
0
100
AcDbLine
 10
862.6794919243112
 20
1291.499999999996
 30
0.0
 11
862.6794919243112
 21
1283.399999999996
 31
0.0
  0
LINE
  5
1191
330
1D9
100
AcDbEntity
  8
0
100
AcDbLine
 10
871.3397459621555
 20
1291.499999999996
 30
0.0
 11
871.3397459621555
 21
1283.399999999996
 31
0.0
  0
ARC
  5
1192
330
1D9
100
AcDbEntity
  8
0
100
AcDbCircle
 10
867.0096189432332
 20
1283.330681818178
 30
0.0
 40
4.330681818181814
100
AcDbArc
 50
179.0828675395624
 51
0.9171324604375683
  0
LINE
  5
1193
330
1D9
100
AcDbEntity
  8
0
100
AcDbLine
 10
871.35001
 20
1313.500009999996
 30
0.0
 11
871.35001
 21
1317.499999999996
 31
0.0
  0
LINE
  5
1194
330
1D9
100
AcDbEntity
  8
0
100
AcDbLine
 10
869.9999999999995
 20
1317.499999999996
 30
0.0
 11
870.0
 21
1313.500009999996
 31
0.0
  0
LINE
  5
1195
330
1D9
100
AcDbEntity
  8
0
100
AcDbLine
 10
888.6500099999999
 20
1313.500009999996
 30
0.0
 11
888.6500099999999
 21
1317.499999999996
 31
0.0
  0
LINE
  5
1196
330
1D9
100
AcDbEntity
  8
0
100
AcDbLine
 10
886.1109494293877
 20
1291.499999999996
 30
0.0
 11
886.1109494293877
 21
1283.399999999996
 31
0.0
  0
ARC
  5
1197
330
1D9
100
AcDbEntity
  8
0
100
AcDbCircle
 10
880.0
 20
1289.722727272723
 30
0.0
 40
10.72272727272727
100
AcDbArc
 50
216.1326457057484
 51
308.1377732517385
  0
LINE
  5
1198
330
1D9
100
AcDbEntity
  8
0
100
AcDbLine
 10
890.0000199999995
 20
1317.499999999996
 30
0.0
 11
890.0000199999999
 21
1313.500009999996
 31
0.0
  0
ARC
  5
1199
330
1D9
100
AcDbEntity
  8
0
100
AcDbCircle
 10
947.0096189432338
 20
1283.330681818178
 30
0.0
 40
4.330681818181814
100
AcDbArc
 50
179.0828675395624
 51
0.9171324604375683
  0
LINE
  5
119A
330
1D9
100
AcDbEntity
  8
0
100
AcDbLine
 10
951.3397459621559
 20
1291.499999999996
 30
0.0
 11
951.3397459621559
 21
1283.399999999996
 31
0.0
  0
LINE
  5
119B
330
1D9
100
AcDbEntity
  8
0
100
AcDbLine
 10
942.6794919243118
 20
1291.499999999996
 30
0.0
 11
942.6794919243118
 21
1283.399999999996
 31
0.0
  0
LINE
  5
119C
330
1D9
100
AcDbEntity
  8
0
100
AcDbLine
 10
950.0
 20
1317.499999999996
 30
0.0
 11
950.0000000000003
 21
1313.500009999996
 31
0.0
  0
LINE
  5
119D
330
1D9
100
AcDbEntity
  8
0
100
AcDbLine
 10
951.3500100000003
 20
1313.500009999996
 30
0.0
 11
951.3500100000003
 21
1317.499999999996
 31
0.0
  0
ARC
  5
119E
330
1D9
100
AcDbEntity
  8
0
100
AcDbCircle
 10
916.4218385618433
 20
1283.330681818178
 30
0.0
 40
4.330681818181816
100
AcDbArc
 50
179.0828675395624
 51
0.9171324604375683
  0
LINE
  5
119F
330
1D9
100
AcDbEntity
  8
0
100
AcDbLine
 10
890.4410764483101
 20
1278.999999999996
 30
0.0
 11
916.4218385618433
 21
1278.999999999996
 31
0.0
  0
ARC
  5
11A0
330
1D9
100
AcDbEntity
  8
0
100
AcDbCircle
 10
903.4314575050766
 20
1289.722727272723
 30
0.0
 40
10.72272727272727
100
AcDbArc
 50
216.1326457057484
 51
323.8673542942515
  0
LINE
  5
11A1
330
1D9
100
AcDbEntity
  8
0
100
AcDbLine
 10
894.7712034672322
 20
1291.499999999996
 30
0.0
 11
894.7712034672322
 21
1283.399999999996
 31
0.0
  0
LINE
  5
11A2
330
1D9
100
AcDbEntity
  8
0
100
AcDbLine
 10
912.0917115429213
 20
1291.499999999996
 30
0.0
 11
912.0917115429213
 21
1283.399999999996
 31
0.0
  0
LINE
  5
11A3
330
1D9
100
AcDbEntity
  8
0
100
AcDbLine
 10
920.7519655807654
 20
1283.399999999996
 30
0.0
 11
920.7519655807654
 21
1291.499999999996
 31
0.0
  0
LINE
  5
11A4
330
1D9
100
AcDbEntity
  8
0
100
AcDbLine
 10
913.4314775050761
 20
1317.499999999996
 30
0.0
 11
913.4314775050766
 21
1313.500009999996
 31
0.0
  0
LINE
  5
11A5
330
1D9
100
AcDbEntity
  8
0
100
AcDbLine
 10
912.0814675050764
 20
1313.500009999996
 30
0.0
 11
912.0814675050764
 21
1317.499999999996
 31
0.0
  0
LINE
  5
11A6
330
1D9
100
AcDbEntity
  8
0
100
AcDbLine
 10
893.4314575050761
 20
1317.499999999996
 30
0.0
 11
893.4314575050766
 21
1313.500009999996
 31
0.0
  0
LINE
  5
11A7
330
1D9
100
AcDbEntity
  8
0
100
AcDbLine
 10
894.7814675050768
 20
1313.500009999996
 30
0.0
 11
894.7814675050768
 21
1317.499999999996
 31
0.0
  0
LINE
  5
11A8
330
1D9
100
AcDbEntity
  8
0
100
AcDbLine
 10
903.0000000000002
 20
1269.999999999995
 30
0.0
 11
903.0000000000002
 21
1278.999999999996
 31
0.0
  0
ARC
  5
11A9
330
1D9
100
AcDbEntity
  8
0
100
AcDbCircle
 10
864.0000000000004
 20
1269.999999999996
 30
0.0
 40
39.0
100
AcDbArc
 50
337.3801350519663
 51
0.0
  0
ARC
  5
11AA
330
1D9
100
AcDbEntity
  8
0
100
AcDbCircle
 10
960.0000000000003
 20
1229.999999999996
 30
0.0
 40
65.0
100
AcDbArc
 50
16.07664983160836
 51
22.61986494803366
  0
LINE
  5
11AB
330
1D9
100
AcDbEntity
  8
0
100
AcDbLine
 10
1052.990381056766
 20
1180.999999999996
 30
0.0
 11
1027.009618943234
 21
1180.999999999996
 31
0.0
  0
ARC
  5
11AC
330
1D9
100
AcDbEntity
  8
0
100
AcDbCircle
 10
960.0000000000003
 20
1229.999999999996
 30
0.0
 40
65.0
100
AcDbArc
 50
344.8222395764848
 51
15.17776042351511
  0
ARC
  5
11AD
330
1D9
100
AcDbEntity
  8
0
100
AcDbCircle
 10
1022.599920127744
 20
1247.499999999995
 30
0.0
 40
0.5
100
AcDbArc
 50
285.3981293495884
 51
90.0
  0
ARC
  5
11AE
330
1D9
100
AcDbEntity
  8
0
100
AcDbCircle
 10
960.0000000000003
 20
1229.999999999996
 30
0.0
 40
65.0
100
AcDbArc
 50
337.3801350519663
 51
343.9233501683916
  0
ARC
  5
11AF
330
1D9
100
AcDbEntity
  8
0
100
AcDbCircle
 10
1022.599920127744
 20
1212.499999999997
 30
0.0
 40
0.5
100
AcDbArc
 50
270.0
 51
74.6018706504115
  0
LINE
  5
11B0
330
1D9
100
AcDbEntity
  8
0
100
AcDbLine
 10
1017.0
 20
1189.999999999997
 30
0.0
 11
1017.0
 21
1180.999999999996
 31
0.0
  0
LINE
  5
11B1
330
1D9
100
AcDbEntity
  8
0
100
AcDbLine
 10
1029.558923551689
 20
1180.999999999996
 30
0.0
 11
1003.578161438157
 21
1180.999999999996
 31
0.0
  0
ARC
  5
11B2
330
1D9
100
AcDbEntity
  8
0
100
AcDbCircle
 10
1056.0
 20
1189.999999999996
 30
0.0
 40
39.0
100
AcDbArc
 50
157.3801350519663
 51
180.0
  0
ARC
  5
11B3
330
1D9
100
AcDbEntity
  8
0
100
AcDbCircle
 10
1040.0
 20
1289.722727272723
 30
0.0
 40
10.72272727272727
100
AcDbArc
 50
231.8622267482615
 51
323.8673542942515
  0
LINE
  5
11B4
330
1D9
100
AcDbEntity
  8
0
100
AcDbLine
 10
1052.990381056766
 20
1278.999999999996
 30
0.0
 11
1027.009618943234
 21
1278.999999999996
 31
0.0
  0
ARC
  5
11B5
330
1D9
100
AcDbEntity
  8
0
100
AcDbCircle
 10
972.9903810567673
 20
1283.330681818178
 30
0.0
 40
4.330681818181816
100
AcDbArc
 50
179.0828675395624
 51
0.9171324604375683
  0
LINE
  5
11B6
330
1D9
100
AcDbEntity
  8
0
100
AcDbLine
 10
968.6602540378446
 20
1291.499999999996
 30
0.0
 11
968.6602540378446
 21
1283.399999999996
 31
0.0
  0
LINE
  5
11B7
330
1D9
100
AcDbEntity
  8
0
100
AcDbLine
 10
977.3205080756891
 20
1283.399999999996
 30
0.0
 11
977.3205080756891
 21
1291.499999999996
 31
0.0
  0
LINE
  5
11B8
330
1D9
100
AcDbEntity
  8
0
100
AcDbLine
 10
968.6500100000003
 20
1313.500009999996
 30
0.0
 11
968.6500100000003
 21
1317.499999999996
 31
0.0
  0
LINE
  5
11B9
330
1D9
100
AcDbEntity
  8
0
100
AcDbLine
 10
970.0000199999999
 20
1317.499999999996
 30
0.0
 11
970.0000200000003
 21
1313.500009999996
 31
0.0
  0
ARC
  5
11BA
330
1D9
100
AcDbEntity
  8
0
100
AcDbCircle
 10
1029.558923551689
 20
1283.330681818178
 30
0.0
 40
4.330681818181814
100
AcDbArc
 50
179.0828675395624
 51
0.9171324604375683
  0
LINE
  5
11BB
330
1D9
100
AcDbEntity
  8
0
100
AcDbLine
 10
1033.889050570612
 20
1291.499999999996
 30
0.0
 11
1033.889050570612
 21
1283.399999999996
 31
0.0
  0
LINE
  5
11BC
330
1D9
100
AcDbEntity
  8
0
100
AcDbLine
 10
999.2480344192356
 20
1283.399999999996
 30
0.0
 11
999.2480344192356
 21
1291.499999999996
 31
0.0
  0
LINE
  5
11BD
330
1D9
100
AcDbEntity
  8
0
100
AcDbLine
 10
1007.908288457079
 20
1291.499999999996
 30
0.0
 11
1007.908288457079
 21
1283.399999999996
 31
0.0
  0
LINE
  5
11BE
330
1D9
100
AcDbEntity
  8
0
100
AcDbLine
 10
1025.228796532767
 20
1291.499999999996
 30
0.0
 11
1025.228796532767
 21
1283.399999999996
 31
0.0
  0
ARC
  5
11BF
330
1D9
100
AcDbEntity
  8
0
100
AcDbCircle
 10
1016.568542494924
 20
1289.722727272723
 30
0.0
 40
10.72272727272727
100
AcDbArc
 50
216.1326457057484
 51
323.8673542942515
  0
ARC
  5
11C0
330
1D9
100
AcDbEntity
  8
0
100
AcDbCircle
 10
1003.578161438157
 20
1283.330681818178
 30
0.0
 40
4.330681818181816
100
AcDbArc
 50
179.0828675395624
 51
0.9171324604375683
  0
LINE
  5
11C1
330
1D9
100
AcDbEntity
  8
0
100
AcDbLine
 10
1029.558923551689
 20
1278.999999999996
 30
0.0
 11
1003.578161438157
 21
1278.999999999996
 31
0.0
  0
LINE
  5
11C2
330
1D9
100
AcDbEntity
  8
0
100
AcDbLine
 10
1031.349990000001
 20
1313.500009999996
 30
0.0
 11
1031.349990000001
 21
1317.499999999996
 31
0.0
  0
LINE
  5
11C3
330
1D9
100
AcDbEntity
  8
0
100
AcDbLine
 10
1025.218532494924
 20
1313.500009999996
 30
0.0
 11
1025.218532494924
 21
1317.499999999996
 31
0.0
  0
LINE
  5
11C4
330
1D9
100
AcDbEntity
  8
0
100
AcDbLine
 10
1026.568542494924
 20
1317.499999999996
 30
0.0
 11
1026.568542494924
 21
1313.500009999996
 31
0.0
  0
LINE
  5
11C5
330
1D9
100
AcDbEntity
  8
0
100
AcDbLine
 10
1007.918532494924
 20
1313.500009999996
 30
0.0
 11
1007.918532494924
 21
1317.499999999996
 31
0.0
  0
LINE
  5
11C6
330
1D9
100
AcDbEntity
  8
0
100
AcDbLine
 10
1006.568522494924
 20
1317.499999999996
 30
0.0
 11
1006.568522494924
 21
1313.500009999996
 31
0.0
  0
LINE
  5
11C7
330
1D9
100
AcDbEntity
  8
0
100
AcDbLine
 10
1029.999980000001
 20
1317.499999999996
 30
0.0
 11
1029.999980000001
 21
1313.500009999996
 31
0.0
  0
LINE
  5
11C8
330
1D9
100
AcDbEntity
  8
0
100
AcDbLine
 10
1017.0
 20
1269.999999999995
 30
0.0
 11
1017.0
 21
1278.999999999996
 31
0.0
  0
ARC
  5
11C9
330
1D9
100
AcDbEntity
  8
0
100
AcDbCircle
 10
1056.0
 20
1269.999999999996
 30
0.0
 40
39.0
100
AcDbArc
 50
180.0
 51
202.6198649480336
  0
LINE
  5
11CA
330
1D9
100
AcDbEntity
  8
0
100
AcDbLine
 10
1060.0
 20
1312.499999999996
 30
0.0
 11
1060.0
 21
1292.499999999996
 31
0.0
  0
LINE
  5
11CB
330
1D9
100
AcDbEntity
  8
0
100
AcDbLine
 10
1060.0
 20
1292.499999999996
 30
0.0
 11
1059.0
 21
1291.499999999996
 31
0.0
  0
LINE
  5
11CC
330
1D9
100
AcDbEntity
  8
0
100
AcDbLine
 10
1059.0
 20
1313.499999999996
 30
0.0
 11
1060.0
 21
1312.499999999996
 31
0.0
  0
LINE
  5
11CD
330
1D9
100
AcDbEntity
  8
0
100
AcDbLine
 10
1060.0
 20
1318.499999999996
 30
0.0
 11
1059.0
 21
1317.499999999996
 31
0.0
  0
ARC
  5
11CE
330
1D9
100
AcDbEntity
  8
0
100
AcDbCircle
 10
1052.990381056766
 20
1283.330681818178
 30
0.0
 40
4.330681818181814
100
AcDbArc
 50
179.0828675395624
 51
0.9171324604375683
  0
LINE
  5
11CF
330
1D9
100
AcDbEntity
  8
0
100
AcDbLine
 10
1048.660254037845
 20
1291.499999999996
 30
0.0
 11
1048.660254037845
 21
1283.399999999996
 31
0.0
  0
LINE
  5
11D0
330
1D9
100
AcDbEntity
  8
0
100
AcDbLine
 10
1057.320508075688
 20
1291.499999999996
 30
0.0
 11
1057.320508075688
 21
1283.399999999996
 31
0.0
  0
LINE
  5
11D1
330
1D9
100
AcDbEntity
  8
0
100
AcDbLine
 10
1050.000000000001
 20
1317.499999999996
 30
0.0
 11
1050.0
 21
1313.500009999996
 31
0.0
  0
LINE
  5
11D2
330
1D9
100
AcDbEntity
  8
0
100
AcDbLine
 10
1048.649990000001
 20
1313.500009999996
 30
0.0
 11
1048.649990000001
 21
1317.499999999996
 31
0.0
  0
LINE
  5
11D3
330
1D9
100
AcDbEntity
  8
0
100
AcDbLine
 10
1489.999999999999
 20
903.9999999999963
 30
0.0
 11
1489.999999999999
 21
877.9999999999962
 31
0.0
  0
ARC
  5
11D4
330
1D9
100
AcDbEntity
  8
0
100
AcDbCircle
 10
1591.374999999999
 20
867.6307528409052
 30
0.0
 40
4.630752840909091
100
AcDbArc
 50
182.8562616078017
 51
357.1437383921982
  0
LINE
  5
11D5
330
1D9
100
AcDbEntity
  8
0
100
AcDbLine
 10
1563.624999999999
 20
862.9999999999959
 30
0.0
 11
1591.374999999999
 21
862.9999999999959
 31
0.0
  0
ARC
  5
11D6
330
1D9
100
AcDbEntity
  8
0
100
AcDbCircle
 10
1642.5
 20
797.4999999999964
 30
0.0
 40
107.4999999999999
100
AcDbArc
 50
156.3398638418935
 51
167.3729093388328
  0
ARC
  5
11D7
330
1D9
100
AcDbEntity
  8
0
100
AcDbCircle
 10
1642.5
 20
797.4999999999964
 30
0.0
 40
107.4999999999999
100
AcDbArc
 50
168.4515160324728
 51
191.548483967527
  0
ARC
  5
11D8
330
1D9
100
AcDbEntity
  8
0
100
AcDbCircle
 10
1537.381019791856
 20
819.9999999999969
 30
0.0
 40
1.0
100
AcDbArc
 50
90.0
 51
258.1850230739099
  0
ARC
  5
11D9
330
1D9
100
AcDbEntity
  8
0
100
AcDbCircle
 10
1537.381019791856
 20
774.9999999999959
 30
0.0
 40
1.0
100
AcDbArc
 50
101.81497692609
 51
270.0
  0
ARC
  5
11DA
330
1D9
100
AcDbEntity
  8
0
100
AcDbCircle
 10
1642.5
 20
797.4999999999964
 30
0.0
 40
107.4999999999999
100
AcDbArc
 50
192.627090661167
 51
203.6601361581064
  0
ARC
  5
11DB
330
1D9
100
AcDbEntity
  8
0
100
AcDbCircle
 10
1516.041697508023
 20
867.6307528409052
 30
0.0
 40
4.630752840909087
100
AcDbArc
 50
182.8562616078017
 51
357.1437383921982
  0
ARC
  5
11DC
330
1D9
100
AcDbEntity
  8
0
100
AcDbCircle
 10
1512.5
 20
874.9230113636327
 30
0.0
 40
11.92301136363636
100
AcDbArc
 50
219.1214070650605
 51
280.5723255571087
  0
LINE
  5
11DD
330
1D9
100
AcDbEntity
  8
0
100
AcDbLine
 10
1498.625
 20
862.9999999999961
 30
0.0
 11
1516.041697508023
 21
862.9999999999961
 31
0.0
  0
LINE
  5
11DE
330
1D9
100
AcDbEntity
  8
0
100
AcDbLine
 10
1489.999999999999
 20
877.9999999999962
 30
0.0
 11
1490.999999999999
 21
876.9999999999964
 31
0.0
  0
LINE
  5
11DF
330
1D9
100
AcDbEntity
  8
0
100
AcDbLine
 10
1494.0
 20
876.9999999999964
 30
0.0
 11
1494.0
 21
867.3999999999962
 31
0.0
  0
LINE
  5
11E0
330
1D9
100
AcDbEntity
  8
0
100
AcDbLine
 10
1503.25
 20
876.9999999999964
 30
0.0
 11
1503.25
 21
867.3999999999962
 31
0.0
  0
ARC
  5
11E1
330
1D9
100
AcDbEntity
  8
0
100
AcDbCircle
 10
1498.625
 20
867.6307528409056
 30
0.0
 40
4.630752840909087
100
AcDbArc
 50
182.8562616078017
 51
357.1437383921982
  0
LINE
  5
11E2
330
1D9
100
AcDbEntity
  8
0
100
AcDbLine
 10
1511.416697508021
 20
876.9999999999956
 30
0.0
 11
1511.416697508021
 21
867.399999999996
 31
0.0
  0
ARC
  5
11E3
330
1D9
100
AcDbEntity
  8
0
100
AcDbCircle
 10
1484.5
 20
866.7260789009421
 30
0.0
 40
65.0
100
AcDbArc
 50
336.3398638418936
 51
0.0
  0
LINE
  5
11E4
330
1D9
100
AcDbEntity
  8
0
100
AcDbLine
 10
1549.5
 20
866.7260789009421
 30
0.0
 11
1549.5
 21
869.9999999999961
 31
0.0
  0
LINE
  5
11E5
330
1D9
100
AcDbEntity
  8
0
100
AcDbLine
 10
1586.749999999999
 20
876.9999999999956
 30
0.0
 11
1586.749999999999
 21
867.399999999996
 31
0.0
  0
LINE
  5
11E6
330
1D9
100
AcDbEntity
  8
0
100
AcDbLine
 10
1558.999999999999
 20
876.9999999999956
 30
0.0
 11
1558.999999999999
 21
867.399999999996
 31
0.0
  0
LINE
  5
11E7
330
1D9
100
AcDbEntity
  8
0
100
AcDbLine
 10
1568.249999999999
 20
876.9999999999956
 30
0.0
 11
1568.249999999999
 21
867.399999999996
 31
0.0
  0
ARC
  5
11E8
330
1D9
100
AcDbEntity
  8
0
100
AcDbCircle
 10
1563.624999999999
 20
867.6307528409052
 30
0.0
 40
4.630752840909087
100
AcDbArc
 50
182.8562616078017
 51
357.1437383921982
  0
ARC
  5
11E9
330
1D9
100
AcDbEntity
  8
0
100
AcDbCircle
 10
1577.499999999999
 20
874.9230113636322
 30
0.0
 40
11.92301136363636
100
AcDbArc
 50
219.1214070650605
 51
320.8785929349393
  0
LINE
  5
11EA
330
1D9
100
AcDbEntity
  8
0
100
AcDbLine
 10
1516.041697508023
 20
862.9999999999959
 30
0.0
 11
1543.791697508023
 21
862.9999999999959
 31
0.0
  0
ARC
  5
11EB
330
1D9
100
AcDbEntity
  8
0
100
AcDbCircle
 10
1543.791697508023
 20
867.6307528409052
 30
0.0
 40
4.630752840909091
100
AcDbArc
 50
182.8562616078017
 51
357.1437383921982
  0
ARC
  5
11EC
330
1D9
100
AcDbEntity
  8
0
100
AcDbCircle
 10
1529.916697508022
 20
874.9230113636322
 30
0.0
 40
11.92301136363636
100
AcDbArc
 50
219.1214070650605
 51
320.8785929349393
  0
LINE
  5
11ED
330
1D9
100
AcDbEntity
  8
0
100
AcDbLine
 10
1520.666697508023
 20
876.9999999999956
 30
0.0
 11
1520.666697508023
 21
867.399999999996
 31
0.0
  0
LINE
  5
11EE
330
1D9
100
AcDbEntity
  8
0
100
AcDbLine
 10
1539.166697508021
 20
876.9999999999956
 30
0.0
 11
1539.166697508021
 21
867.399999999996
 31
0.0
  0
LINE
  5
11EF
330
1D9
100
AcDbEntity
  8
0
100
AcDbLine
 10
1548.416697508023
 20
867.399999999996
 30
0.0
 11
1548.416697508023
 21
876.9999999999956
 31
0.0
  0
ARC
  5
11F0
330
1D9
100
AcDbEntity
  8
0
100
AcDbCircle
 10
1542.5
 20
869.9999999999961
 30
0.0
 40
7.0
100
AcDbArc
 50
0.0
 51
32.30207281704368
  0
ARC
  5
11F1
330
1D9
100
AcDbEntity
  8
0
100
AcDbCircle
 10
1642.5
 20
874.9230113636327
 30
0.0
 40
11.92301136363636
100
AcDbArc
 50
219.1214070650605
 51
320.8785929349393
  0
LINE
  5
11F2
330
1D9
100
AcDbEntity
  8
0
100
AcDbLine
 10
1628.624999999999
 20
862.9999999999961
 30
0.0
 11
1656.374999999999
 21
862.9999999999961
 31
0.0
  0
ARC
  5
11F3
330
1D9
100
AcDbEntity
  8
0
100
AcDbCircle
 10
1628.624999999999
 20
867.6307528409056
 30
0.0
 40
4.630752840909087
100
AcDbArc
 50
182.8562616078017
 51
357.1437383921982
  0
ARC
  5
11F4
330
1D9
100
AcDbEntity
  8
0
100
AcDbCircle
 10
1656.374999999999
 20
867.6307528409056
 30
0.0
 40
4.630752840909091
100
AcDbArc
 50
182.8562616078017
 51
357.1437383921982
  0
LINE
  5
11F5
330
1D9
100
AcDbEntity
  8
0
100
AcDbLine
 10
1633.25
 20
876.9999999999964
 30
0.0
 11
1633.25
 21
867.3999999999962
 31
0.0
  0
LINE
  5
11F6
330
1D9
100
AcDbEntity
  8
0
100
AcDbLine
 10
1624.0
 20
876.9999999999964
 30
0.0
 11
1624.0
 21
867.3999999999962
 31
0.0
  0
LINE
  5
11F7
330
1D9
100
AcDbEntity
  8
0
100
AcDbLine
 10
1651.75
 20
876.9999999999964
 30
0.0
 11
1651.75
 21
867.3999999999962
 31
0.0
  0
LINE
  5
11F8
330
1D9
100
AcDbEntity
  8
0
100
AcDbLine
 10
1661.0
 20
867.3999999999962
 30
0.0
 11
1661.0
 21
876.9999999999964
 31
0.0
  0
LINE
  5
11F9
330
1D9
100
AcDbEntity
  8
0
100
AcDbLine
 10
1595.999999999999
 20
867.399999999996
 30
0.0
 11
1595.999999999999
 21
876.9999999999956
 31
0.0
  0
ARC
  5
11FA
330
1D9
100
AcDbEntity
  8
0
100
AcDbCircle
 10
1800.499999999999
 20
866.7260789009421
 30
0.0
 40
65.0
100
AcDbArc
 50
180.0
 51
203.6601361581064
  0
LINE
  5
11FB
330
1D9
100
AcDbEntity
  8
0
100
AcDbLine
 10
1735.5
 20
866.7260789009421
 30
0.0
 11
1735.5
 21
869.9999999999961
 31
0.0
  0
LINE
  5
11FC
330
1D9
100
AcDbEntity
  8
0
100
AcDbLine
 10
1745.833302491976
 20
876.9999999999956
 30
0.0
 11
1745.833302491976
 21
867.399999999996
 31
0.0
  0
ARC
  5
11FD
330
1D9
100
AcDbEntity
  8
0
100
AcDbCircle
 10
1741.208302491977
 20
867.6307528409052
 30
0.0
 40
4.630752840909091
100
AcDbArc
 50
182.8562616078017
 51
357.1437383921982
  0
LINE
  5
11FE
330
1D9
100
AcDbEntity
  8
0
100
AcDbLine
 10
1736.583302491975
 20
867.399999999996
 30
0.0
 11
1736.583302491975
 21
876.9999999999956
 31
0.0
  0
LINE
  5
11FF
330
1D9
100
AcDbEntity
  8
0
100
AcDbLine
 10
1721.375
 20
862.9999999999959
 30
0.0
 11
1693.625
 21
862.9999999999959
 31
0.0
  0
ARC
  5
1200
330
1D9
100
AcDbEntity
  8
0
100
AcDbCircle
 10
1693.625
 20
867.6307528409052
 30
0.0
 40
4.630752840909091
100
AcDbArc
 50
182.8562616078017
 51
357.1437383921982
  0
ARC
  5
1201
330
1D9
100
AcDbEntity
  8
0
100
AcDbCircle
 10
1707.5
 20
874.9230113636322
 30
0.0
 40
11.92301136363636
100
AcDbArc
 50
219.1214070650605
 51
320.8785929349393
  0
ARC
  5
1202
330
1D9
100
AcDbEntity
  8
0
100
AcDbCircle
 10
1721.375
 20
867.6307528409052
 30
0.0
 40
4.630752840909087
100
AcDbArc
 50
182.8562616078017
 51
357.1437383921982
  0
LINE
  5
1203
330
1D9
100
AcDbEntity
  8
0
100
AcDbLine
 10
1716.75
 20
876.9999999999956
 30
0.0
 11
1716.75
 21
867.399999999996
 31
0.0
  0
LINE
  5
1204
330
1D9
100
AcDbEntity
  8
0
100
AcDbLine
 10
1726.0
 20
876.9999999999956
 30
0.0
 11
1726.0
 21
867.399999999996
 31
0.0
  0
LINE
  5
1205
330
1D9
100
AcDbEntity
  8
0
100
AcDbLine
 10
1698.25
 20
876.9999999999956
 30
0.0
 11
1698.25
 21
867.399999999996
 31
0.0
  0
LINE
  5
1206
330
1D9
100
AcDbEntity
  8
0
100
AcDbLine
 10
1689.0
 20
867.399999999996
 30
0.0
 11
1689.0
 21
876.9999999999956
 31
0.0
  0
ARC
  5
1207
330
1D9
100
AcDbEntity
  8
0
100
AcDbCircle
 10
1742.5
 20
869.9999999999961
 30
0.0
 40
7.0
100
AcDbArc
 50
147.6979271829563
 51
180.0
  0
LINE
  5
1208
330
1D9
100
AcDbEntity
  8
0
100
AcDbLine
 10
1560.0
 20
954.9999999999968
 30
0.0
 11
1725.0
 21
954.9999999999959
 31
0.0
  0
LINE
  5
1209
330
1D9
100
AcDbEntity
  8
0
100
AcDbLine
 10
1491.0
 20
943.9999999999963
 30
0.0
 11
1490.0
 21
942.9999999999964
 31
0.0
  0
LINE
  5
120A
330
1D9
100
AcDbEntity
  8
0
100
AcDbLine
 10
1490.0
 20
942.9999999999964
 30
0.0
 11
1490.0
 21
910.9999999999963
 31
0.0
  0
LINE
  5
120B
330
1D9
100
AcDbEntity
  8
0
100
AcDbLine
 10
1490.999999999999
 20
904.9999999999963
 30
0.0
 11
1489.999999999999
 21
903.9999999999963
 31
0.0
  0
LINE
  5
120C
330
1D9
100
AcDbEntity
  8
0
100
AcDbLine
 10
1502.850009999999
 20
905.0000099999966
 30
0.0
 11
1502.850009999999
 21
909.9999999999964
 31
0.0
  0
LINE
  5
120D
330
1D9
100
AcDbEntity
  8
0
100
AcDbLine
 10
1501.5
 20
909.9999999999964
 30
0.0
 11
1501.5
 21
905.0000099999966
 31
0.0
  0
LINE
  5
120E
330
1D9
100
AcDbEntity
  8
0
100
AcDbLine
 10
1490.0
 20
910.9999999999963
 30
0.0
 11
1491.0
 21
909.9999999999964
 31
0.0
  0
LINE
  5
120F
330
1D9
100
AcDbEntity
  8
0
100
AcDbLine
 10
1577.092622740244
 20
957.9999999999964
 30
0.0
 11
1577.092622740242
 21
937.9999999999963
 31
0.0
  0
LINE
  5
1210
330
1D9
100
AcDbEntity
  8
0
100
AcDbLine
 10
1550.0
 20
957.999999999996
 30
0.0
 11
1549.999999999999
 21
937.9999999999963
 31
0.0
  0
LINE
  5
1211
330
1D9
100
AcDbEntity
  8
0
100
AcDbLine
 10
1531.0
 20
951.9999999999964
 30
0.0
 11
1530.0
 21
950.9999999999964
 31
0.0
  0
LINE
  5
1212
330
1D9
100
AcDbEntity
  8
0
100
AcDbLine
 10
1530.0
 20
950.9999999999964
 30
0.0
 11
1530.0
 21
943.9999999999963
 31
0.0
  0
LINE
  5
1213
330
1D9
100
AcDbEntity
  8
0
100
AcDbLine
 10
1560.0
 20
954.9999999999968
 30
0.0
 11
1560.0
 21
951.9999999999964
 31
0.0
  0
LINE
  5
1214
330
1D9
100
AcDbEntity
  8
0
100
AcDbLine
 10
1588.499999999999
 20
909.9999999999957
 30
0.0
 11
1588.499999999999
 21
905.0000099999961
 31
0.0
  0
LINE
  5
1215
330
1D9
100
AcDbEntity
  8
0
100
AcDbLine
 10
1587.149989999999
 20
905.0000099999961
 30
0.0
 11
1587.149989999999
 21
909.9999999999957
 31
0.0
  0
LINE
  5
1216
330
1D9
100
AcDbEntity
  8
0
100
AcDbLine
 10
1567.850009999999
 20
905.0000099999961
 30
0.0
 11
1567.850009999999
 21
909.9999999999957
 31
0.0
  0
LINE
  5
1217
330
1D9
100
AcDbEntity
  8
0
100
AcDbLine
 10
1566.499999999999
 20
909.9999999999957
 30
0.0
 11
1566.499999999999
 21
905.0000099999961
 31
0.0
  0
LINE
  5
1218
330
1D9
100
AcDbEntity
  8
0
100
AcDbLine
 10
1518.916697508023
 20
909.9999999999957
 30
0.0
 11
1518.916697508023
 21
905.0000099999961
 31
0.0
  0
LINE
  5
1219
330
1D9
100
AcDbEntity
  8
0
100
AcDbLine
 10
1520.266707508023
 20
905.0000099999961
 30
0.0
 11
1520.266707508023
 21
909.9999999999957
 31
0.0
  0
LINE
  5
121A
330
1D9
100
AcDbEntity
  8
0
100
AcDbLine
 10
1539.566687508022
 20
905.0000099999961
 30
0.0
 11
1539.566687508022
 21
909.9999999999957
 31
0.0
  0
LINE
  5
121B
330
1D9
100
AcDbEntity
  8
0
100
AcDbLine
 10
1540.916697508023
 20
909.9999999999957
 30
0.0
 11
1540.916697508023
 21
905.0000099999961
 31
0.0
  0
LINE
  5
121C
330
1D9
100
AcDbEntity
  8
0
100
AcDbLine
 10
1631.5
 20
909.9999999999964
 30
0.0
 11
1631.5
 21
905.0000099999966
 31
0.0
  0
LINE
  5
121D
330
1D9
100
AcDbEntity
  8
0
100
AcDbLine
 10
1632.85001
 20
905.0000099999966
 30
0.0
 11
1632.85001
 21
909.9999999999964
 31
0.0
  0
LINE
  5
121E
330
1D9
100
AcDbEntity
  8
0
100
AcDbLine
 10
1652.149989999999
 20
905.0000099999966
 30
0.0
 11
1652.149989999999
 21
909.9999999999964
 31
0.0
  0
LINE
  5
121F
330
1D9
100
AcDbEntity
  8
0
100
AcDbLine
 10
1653.5
 20
909.9999999999964
 30
0.0
 11
1653.5
 21
905.0000099999966
 31
0.0
  0
LINE
  5
1220
330
1D9
100
AcDbEntity
  8
0
100
AcDbLine
 10
1735.0
 20
957.999999999996
 30
0.0
 11
1735.0
 21
937.9999999999963
 31
0.0
  0
LINE
  5
1221
330
1D9
100
AcDbEntity
  8
0
100
AcDbLine
 10
1707.907377259755
 20
957.9999999999964
 30
0.0
 11
1707.907377259755
 21
937.9999999999963
 31
0.0
  0
LINE
  5
1222
330
1D9
100
AcDbEntity
  8
0
100
AcDbLine
 10
1725.0
 20
954.9999999999959
 30
0.0
 11
1725.0
 21
951.9999999999964
 31
0.0
  0
LINE
  5
1223
330
1D9
100
AcDbEntity
  8
0
100
AcDbLine
 10
1744.083302491977
 20
909.9999999999957
 30
0.0
 11
1744.083302491977
 21
905.0000099999961
 31
0.0
  0
LINE
  5
1224
330
1D9
100
AcDbEntity
  8
0
100
AcDbLine
 10
1745.433312491977
 20
905.0000099999961
 30
0.0
 11
1745.433312491977
 21
909.9999999999957
 31
0.0
  0
LINE
  5
1225
330
1D9
100
AcDbEntity
  8
0
100
AcDbLine
 10
1718.499999999999
 20
909.9999999999957
 30
0.0
 11
1718.499999999999
 21
905.0000099999961
 31
0.0
  0
LINE
  5
1226
330
1D9
100
AcDbEntity
  8
0
100
AcDbLine
 10
1717.14999
 20
905.0000099999961
 30
0.0
 11
1717.14999
 21
909.9999999999957
 31
0.0
  0
LINE
  5
1227
330
1D9
100
AcDbEntity
  8
0
100
AcDbLine
 10
1697.85001
 20
905.0000099999961
 30
0.0
 11
1697.85001
 21
909.9999999999957
 31
0.0
  0
LINE
  5
1228
330
1D9
100
AcDbEntity
  8
0
100
AcDbLine
 10
1696.5
 20
909.9999999999957
 30
0.0
 11
1696.5
 21
905.0000099999961
 31
0.0
  0
LINE
  5
1229
330
1D9
100
AcDbEntity
  8
0
100
AcDbLine
 10
1711.999999999999
 20
1186.091003199793
 30
0.0
 11
1711.999999999999
 21
1158.999999999996
 31
0.0
  0
LINE
  5
122A
330
1D9
100
AcDbEntity
  8
0
100
AcDbLine
 10
1573.000000000001
 20
1186.091003199793
 30
0.0
 11
1573.000000000001
 21
1158.999999999996
 31
0.0
  0
ARC
  5
122B
330
1D9
100
AcDbEntity
  8
0
100
AcDbCircle
 10
1590.083003797011
 20
1154.669318181815
 30
0.0
 40
4.330681818181816
100
AcDbArc
 50
359.0828675395623
 51
180.9171324604374
  0
LINE
  5
122C
330
1D9
100
AcDbEntity
  8
0
100
AcDbLine
 10
1566.0
 20
1080.499999999996
 30
0.0
 11
1719.000000000001
 21
1080.499999999996
 31
0.0
  0
LINE
  5
122D
330
1D9
100
AcDbEntity
  8
0
100
AcDbLine
 10
1530.0
 20
1116.499999999996
 30
0.0
 11
1530.0
 21
1089.499999999996
 31
0.0
  0
LINE
  5
122E
330
1D9
100
AcDbEntity
  8
0
100
AcDbLine
 10
1531.0
 20
1088.499999999996
 30
0.0
 11
1530.0
 21
1089.499999999996
 31
0.0
  0
LINE
  5
122F
330
1D9
100
AcDbEntity
  8
0
100
AcDbLine
 10
1566.0
 20
1080.499999999996
 30
0.0
 11
1565.0
 21
1081.499999999996
 31
0.0
  0
LINE
  5
1230
330
1D9
100
AcDbEntity
  8
0
100
AcDbLine
 10
1565.0
 20
1081.499999999996
 30
0.0
 11
1565.0
 21
1088.499999999996
 31
0.0
  0
LINE
  5
1231
330
1D9
100
AcDbEntity
  8
0
100
AcDbLine
 10
1582.500000000001
 20
1074.499999999996
 30
0.0
 11
1582.5
 21
1094.499999999996
 31
0.0
  0
ARC
  5
1232
330
1D9
100
AcDbEntity
  8
0
100
AcDbCircle
 10
1562.990381056765
 20
1154.669318181813
 30
0.0
 40
4.330681818181816
100
AcDbArc
 50
82.62457982365958
 51
180.9171324604374
  0
LINE
  5
1233
330
1D9
100
AcDbEntity
  8
0
100
AcDbLine
 10
1559.772114664556
 20
1146.499999999996
 30
0.0
 11
1559.772114664556
 21
1154.599999999996
 31
0.0
  0
LINE
  5
1234
330
1D9
100
AcDbEntity
  8
0
100
AcDbLine
 10
1564.102241683478
 20
1158.999999999996
 30
0.0
 11
1590.083003797011
 21
1158.999999999996
 31
0.0
  0
LINE
  5
1235
330
1D9
100
AcDbEntity
  8
0
100
AcDbLine
 10
1585.752876778089
 20
1146.499999999996
 30
0.0
 11
1585.752876778089
 21
1154.599999999996
 31
0.0
  0
LINE
  5
1236
330
1D9
100
AcDbEntity
  8
0
100
AcDbLine
 10
1568.432368702399
 20
1146.499999999996
 30
0.0
 11
1568.432368702399
 21
1154.599999999996
 31
0.0
  0
ARC
  5
1237
330
1D9
100
AcDbEntity
  8
0
100
AcDbCircle
 10
1564.102241683478
 20
1154.669318181815
 30
0.0
 40
4.330681818181814
100
AcDbArc
 50
359.0828675395623
 51
180.9171324604374
  0
ARC
  5
1238
330
1D9
100
AcDbEntity
  8
0
100
AcDbCircle
 10
1577.092622740245
 20
1148.277272727269
 30
0.0
 40
10.72272727272727
100
AcDbArc
 50
36.13264570574848
 51
143.8673542942515
  0
ARC
  5
1239
330
1D9
100
AcDbEntity
  8
0
100
AcDbCircle
 10
1550.0
 20
1148.277272727269
 30
0.0
 40
10.72272727272727
100
AcDbArc
 50
36.13264570574848
 51
143.8673542942515
  0
ARC
  5
123A
330
1D9
100
AcDbEntity
  8
0
100
AcDbCircle
 10
1537.009618943233
 20
1154.669318181813
 30
0.0
 40
4.330681818181814
100
AcDbArc
 50
359.0828675395623
 51
180.9171324604374
  0
LINE
  5
123B
330
1D9
100
AcDbEntity
  8
0
100
AcDbLine
 10
1541.339745962155
 20
1146.499999999996
 30
0.0
 11
1541.339745962155
 21
1154.599999999996
 31
0.0
  0
LINE
  5
123C
330
1D9
100
AcDbEntity
  8
0
100
AcDbLine
 10
1558.660254037843
 20
1146.499999999996
 30
0.0
 11
1558.660254037843
 21
1154.599999999996
 31
0.0
  0
LINE
  5
123D
330
1D9
100
AcDbEntity
  8
0
100
AcDbLine
 10
1537.009618943233
 20
1158.999999999996
 30
0.0
 11
1562.990381056765
 21
1158.999999999996
 31
0.0
  0
LINE
  5
123E
330
1D9
100
AcDbEntity
  8
0
100
AcDbLine
 10
1532.67949192431
 20
1146.499999999996
 30
0.0
 11
1532.67949192431
 21
1154.599999999996
 31
0.0
  0
LINE
  5
123F
330
1D9
100
AcDbEntity
  8
0
100
AcDbLine
 10
1530.0
 20
1145.499999999996
 30
0.0
 11
1531.0
 21
1146.499999999996
 31
0.0
  0
LINE
  5
1240
330
1D9
100
AcDbEntity
  8
0
100
AcDbLine
 10
1568.442632740245
 20
1122.499989999995
 30
0.0
 11
1568.442632740245
 21
1117.499999999996
 31
0.0
  0
LINE
  5
1241
330
1D9
100
AcDbEntity
  8
0
100
AcDbLine
 10
1567.092622740244
 20
1117.499999999996
 30
0.0
 11
1567.092622740245
 21
1122.499989999995
 31
0.0
  0
LINE
  5
1242
330
1D9
100
AcDbEntity
  8
0
100
AcDbLine
 10
1585.742632740245
 20
1122.499989999995
 30
0.0
 11
1585.742632740245
 21
1117.499999999996
 31
0.0
  0
LINE
  5
1243
330
1D9
100
AcDbEntity
  8
0
100
AcDbLine
 10
1587.092642740244
 20
1117.499999999996
 30
0.0
 11
1587.092642740245
 21
1122.499989999995
 31
0.0
  0
LINE
  5
1244
330
1D9
100
AcDbEntity
  8
0
100
AcDbLine
 10
1560.000019999999
 20
1117.499999999996
 30
0.0
 11
1560.00002
 21
1122.499989999995
 31
0.0
  0
LINE
  5
1245
330
1D9
100
AcDbEntity
  8
0
100
AcDbLine
 10
1558.65001
 20
1122.499989999995
 30
0.0
 11
1558.65001
 21
1117.499999999995
 31
0.0
  0
LINE
  5
1246
330
1D9
100
AcDbEntity
  8
0
100
AcDbLine
 10
1539.999999999999
 20
1117.499999999996
 30
0.0
 11
1540.0
 21
1122.499989999995
 31
0.0
  0
LINE
  5
1247
330
1D9
100
AcDbEntity
  8
0
100
AcDbLine
 10
1541.350009999999
 20
1122.499989999995
 30
0.0
 11
1541.350009999999
 21
1117.499999999995
 31
0.0
  0
LINE
  5
1248
330
1D9
100
AcDbEntity
  8
0
100
AcDbLine
 10
1531.0
 20
1122.499999999996
 30
0.0
 11
1530.0
 21
1123.499999999996
 31
0.0
  0
LINE
  5
1249
330
1D9
100
AcDbEntity
  8
0
100
AcDbLine
 10
1530.0
 20
1116.499999999996
 30
0.0
 11
1531.0
 21
1117.499999999996
 31
0.0
  0
LINE
  5
124A
330
1D9
100
AcDbEntity
  8
0
100
AcDbLine
 10
1530.0
 20
1123.499999999996
 30
0.0
 11
1530.0
 21
1145.499999999996
 31
0.0
  0
LINE
  5
124B
330
1D9
100
AcDbEntity
  8
0
100
AcDbLine
 10
1590.5
 20
1077.499999999996
 30
0.0
 11
1694.500000000001
 21
1077.499999999996
 31
0.0
  0
LINE
  5
124C
330
1D9
100
AcDbEntity
  8
0
100
AcDbLine
 10
1600.073593128808
 20
1074.499999999996
 30
0.0
 11
1600.073593128807
 21
1094.499999999996
 31
0.0
  0
LINE
  5
124D
330
1D9
100
AcDbEntity
  8
0
100
AcDbLine
 10
1590.500000000001
 20
1080.499999999996
 30
0.0
 11
1590.5
 21
1077.499999999996
 31
0.0
  0
LINE
  5
124E
330
1D9
100
AcDbEntity
  8
0
100
AcDbLine
 10
1684.926406871191
 20
1074.499999999996
 30
0.0
 11
1684.926406871192
 21
1094.499999999996
 31
0.0
  0
LINE
  5
124F
330
1D9
100
AcDbEntity
  8
0
100
AcDbLine
 10
1702.499999999999
 20
1074.499999999996
 30
0.0
 11
1702.499999999999
 21
1094.499999999996
 31
0.0
  0
LINE
  5
1250
330
1D9
100
AcDbEntity
  8
0
100
AcDbLine
 10
1720.0
 20
1081.499999999996
 30
0.0
 11
1720.0
 21
1088.499999999996
 31
0.0
  0
LINE
  5
1251
330
1D9
100
AcDbEntity
  8
0
100
AcDbLine
 10
1719.0
 20
1080.499999999996
 30
0.0
 11
1720.0
 21
1081.499999999996
 31
0.0
  0
LINE
  5
1252
330
1D9
100
AcDbEntity
  8
0
100
AcDbLine
 10
1694.500000000001
 20
1080.499999999996
 30
0.0
 11
1694.500000000001
 21
1077.499999999996
 31
0.0
  0
LINE
  5
1253
330
1D9
100
AcDbEntity
  8
0
100
AcDbLine
 10
1594.413130815934
 20
1154.599999999996
 30
0.0
 11
1594.413130815934
 21
1146.499999999996
 31
0.0
  0
LINE
  5
1254
330
1D9
100
AcDbEntity
  8
0
100
AcDbLine
 10
1659.820508075688
 20
1154.599999999996
 30
0.0
 11
1659.820508075688
 21
1146.499999999996
 31
0.0
  0
LINE
  5
1255
330
1D9
100
AcDbEntity
  8
0
100
AcDbLine
 10
1625.179491924311
 20
1146.499999999996
 30
0.0
 11
1625.179491924311
 21
1154.599999999996
 31
0.0
  0
LINE
  5
1256
330
1D9
100
AcDbEntity
  8
0
100
AcDbLine
 10
1629.509618943233
 20
1158.999999999996
 30
0.0
 11
1655.490381056766
 21
1158.999999999996
 31
0.0
  0
LINE
  5
1257
330
1D9
100
AcDbEntity
  8
0
100
AcDbLine
 10
1651.160254037844
 20
1146.499999999996
 30
0.0
 11
1651.160254037844
 21
1154.599999999996
 31
0.0
  0
LINE
  5
1258
330
1D9
100
AcDbEntity
  8
0
100
AcDbLine
 10
1633.839745962155
 20
1146.499999999996
 30
0.0
 11
1633.839745962155
 21
1154.599999999996
 31
0.0
  0
ARC
  5
1259
330
1D9
100
AcDbEntity
  8
0
100
AcDbCircle
 10
1629.509618943233
 20
1154.669318181813
 30
0.0
 40
4.330681818181814
100
AcDbArc
 50
359.0828675395623
 51
180.9171324604374
  0
ARC
  5
125A
330
1D9
100
AcDbEntity
  8
0
100
AcDbCircle
 10
1642.5
 20
1148.277272727269
 30
0.0
 40
10.72272727272727
100
AcDbArc
 50
36.13264570574848
 51
143.8673542942515
  0
ARC
  5
125B
330
1D9
100
AcDbEntity
  8
0
100
AcDbCircle
 10
1655.490381056766
 20
1154.669318181813
 30
0.0
 40
4.330681818181816
100
AcDbArc
 50
359.0828675395623
 51
180.9171324604374
  0
LINE
  5
125C
330
1D9
100
AcDbEntity
  8
0
100
AcDbLine
 10
1633.850009999999
 20
1122.499989999995
 30
0.0
 11
1633.850009999999
 21
1117.499999999995
 31
0.0
  0
LINE
  5
125D
330
1D9
100
AcDbEntity
  8
0
100
AcDbLine
 10
1632.499999999999
 20
1117.499999999996
 30
0.0
 11
1632.5
 21
1122.499989999995
 31
0.0
  0
LINE
  5
125E
330
1D9
100
AcDbEntity
  8
0
100
AcDbLine
 10
1651.15001
 20
1122.499989999995
 30
0.0
 11
1651.15001
 21
1117.499999999995
 31
0.0
  0
LINE
  5
125F
330
1D9
100
AcDbEntity
  8
0
100
AcDbLine
 10
1652.500019999999
 20
1117.499999999996
 30
0.0
 11
1652.50002
 21
1122.499989999995
 31
0.0
  0
LINE
  5
1260
330
1D9
100
AcDbEntity
  8
0
100
AcDbLine
 10
1720.897758316521
 20
1158.999999999996
 30
0.0
 11
1694.916996202988
 21
1158.999999999996
 31
0.0
  0
LINE
  5
1261
330
1D9
100
AcDbEntity
  8
0
100
AcDbLine
 10
1690.586869184064
 20
1154.599999999996
 30
0.0
 11
1690.586869184064
 21
1146.499999999996
 31
0.0
  0
LINE
  5
1262
330
1D9
100
AcDbEntity
  8
0
100
AcDbLine
 10
1726.339745962155
 20
1146.499999999996
 30
0.0
 11
1726.339745962155
 21
1154.599999999996
 31
0.0
  0
LINE
  5
1263
330
1D9
100
AcDbEntity
  8
0
100
AcDbLine
 10
1743.660254037844
 20
1146.499999999996
 30
0.0
 11
1743.660254037844
 21
1154.599999999996
 31
0.0
  0
ARC
  5
1264
330
1D9
100
AcDbEntity
  8
0
100
AcDbCircle
 10
1735.0
 20
1148.277272727269
 30
0.0
 40
10.72272727272727
100
AcDbArc
 50
36.13264570574848
 51
143.8673542942515
  0
ARC
  5
1265
330
1D9
100
AcDbEntity
  8
0
100
AcDbCircle
 10
1707.907377259755
 20
1148.277272727269
 30
0.0
 40
10.72272727272727
100
AcDbArc
 50
36.13264570574848
 51
143.8673542942515
  0
ARC
  5
1266
330
1D9
100
AcDbEntity
  8
0
100
AcDbCircle
 10
1720.897758316521
 20
1154.669318181815
 30
0.0
 40
4.330681818181814
100
AcDbArc
 50
359.0828675395623
 51
180.9171324604374
  0
LINE
  5
1267
330
1D9
100
AcDbEntity
  8
0
100
AcDbLine
 10
1716.567631297599
 20
1146.499999999996
 30
0.0
 11
1716.567631297599
 21
1154.599999999996
 31
0.0
  0
LINE
  5
1268
330
1D9
100
AcDbEntity
  8
0
100
AcDbLine
 10
1699.247123221909
 20
1146.499999999996
 30
0.0
 11
1699.247123221909
 21
1154.599999999996
 31
0.0
  0
LINE
  5
1269
330
1D9
100
AcDbEntity
  8
0
100
AcDbLine
 10
1725.227885335443
 20
1146.499999999996
 30
0.0
 11
1725.227885335443
 21
1154.599999999996
 31
0.0
  0
ARC
  5
126A
330
1D9
100
AcDbEntity
  8
0
100
AcDbCircle
 10
1722.009618943233
 20
1154.669318181813
 30
0.0
 40
4.330681818181816
100
AcDbArc
 50
359.0828675395623
 51
97.37542017634041
  0
ARC
  5
126B
330
1D9
100
AcDbEntity
  8
0
100
AcDbCircle
 10
1694.916996202988
 20
1154.669318181815
 30
0.0
 40
4.330681818181816
100
AcDbArc
 50
359.0828675395623
 51
180.9171324604374
  0
LINE
  5
126C
330
1D9
100
AcDbEntity
  8
0
100
AcDbLine
 10
1743.649989999999
 20
1122.499989999995
 30
0.0
 11
1743.649989999999
 21
1117.499999999995
 31
0.0
  0
LINE
  5
126D
330
1D9
100
AcDbEntity
  8
0
100
AcDbLine
 10
1745.0
 20
1117.499999999996
 30
0.0
 11
1745.0
 21
1122.499989999995
 31
0.0
  0
LINE
  5
126E
330
1D9
100
AcDbEntity
  8
0
100
AcDbLine
 10
1726.34999
 20
1122.499989999995
 30
0.0
 11
1726.349989999999
 21
1117.499999999995
 31
0.0
  0
LINE
  5
126F
330
1D9
100
AcDbEntity
  8
0
100
AcDbLine
 10
1724.99998
 20
1117.499999999996
 30
0.0
 11
1724.99998
 21
1122.499989999995
 31
0.0
  0
LINE
  5
1270
330
1D9
100
AcDbEntity
  8
0
100
AcDbLine
 10
1697.907357259754
 20
1117.499999999996
 30
0.0
 11
1697.907357259754
 21
1122.499989999995
 31
0.0
  0
LINE
  5
1271
330
1D9
100
AcDbEntity
  8
0
100
AcDbLine
 10
1699.257367259755
 20
1122.499989999995
 30
0.0
 11
1699.257367259754
 21
1117.499999999996
 31
0.0
  0
LINE
  5
1272
330
1D9
100
AcDbEntity
  8
0
100
AcDbLine
 10
1717.907377259754
 20
1117.499999999996
 30
0.0
 11
1717.907377259754
 21
1122.499989999995
 31
0.0
  0
LINE
  5
1273
330
1D9
100
AcDbEntity
  8
0
100
AcDbLine
 10
1716.557367259754
 20
1122.499989999995
 30
0.0
 11
1716.557367259754
 21
1117.499999999996
 31
0.0
  0
LINE
  5
1274
330
1D9
100
AcDbEntity
  8
0
100
AcDbLine
 10
1568.123748468201
 20
1251.781258184006
 30
0.0
 11
1716.876251531799
 21
1251.781258184006
 31
0.0
  0
LINE
  5
1275
330
1D9
100
AcDbEntity
  8
0
100
AcDbLine
 10
1568.338015129043
 20
1253.249999999996
 30
0.0
 11
1716.661984870957
 21
1253.249999999996
 31
0.0
  0
ARC
  5
1276
330
1D9
100
AcDbEntity
  8
0
100
AcDbCircle
 10
1590.083003797011
 20
1305.330681818177
 30
0.0
 40
4.330681818181816
100
AcDbArc
 50
179.0828675395624
 51
0.9171324604375683
  0
LINE
  5
1277
330
1D9
100
AcDbEntity
  8
0
100
AcDbLine
 10
1568.338015129043
 20
1206.749999999996
 30
0.0
 11
1716.661984870957
 21
1206.749999999996
 31
0.0
  0
LINE
  5
1278
330
1D9
100
AcDbEntity
  8
0
100
AcDbLine
 10
1568.123748468201
 20
1208.218741815985
 30
0.0
 11
1716.876251531799
 21
1208.218741815985
 31
0.0
  0
ARC
  5
1279
330
1D9
100
AcDbEntity
  8
0
100
AcDbCircle
 10
1568.338015129043
 20
1252.499999999996
 30
0.0
 40
0.75
100
AcDbArc
 50
90.0
 51
253.39996928602
  0
ARC
  5
127A
330
1D9
100
AcDbEntity
  8
0
100
AcDbCircle
 10
1642.5
 20
1229.999999999996
 30
0.0
 40
77.5
100
AcDbArc
 50
163.6772080106784
 51
196.3227919893215
  0
ARC
  5
127B
330
1D9
100
AcDbEntity
  8
0
100
AcDbCircle
 10
1642.5
 20
1229.999999999996
 30
0.0
 40
77.5
100
AcDbArc
 50
197.4576031237317
 51
200.6514894093216
  0
ARC
  5
127C
330
1D9
100
AcDbEntity
  8
0
100
AcDbCircle
 10
1568.338015129043
 20
1207.499999999996
 30
0.0
 40
0.75
100
AcDbArc
 50
106.6000307139798
 51
270.0
  0
ARC
  5
127D
330
1D9
100
AcDbEntity
  8
0
100
AcDbCircle
 10
1526.0
 20
1186.091003199793
 30
0.0
 40
47.0
100
AcDbArc
 50
0.0
 51
20.65148940932159
  0
LINE
  5
127E
330
1D9
100
AcDbEntity
  8
0
100
AcDbLine
 10
1530.0
 20
1314.499999999996
 30
0.0
 11
1531.0
 21
1313.499999999996
 31
0.0
  0
LINE
  5
127F
330
1D9
100
AcDbEntity
  8
0
100
AcDbLine
 10
1532.67949192431
 20
1313.499999999996
 30
0.0
 11
1532.67949192431
 21
1305.399999999996
 31
0.0
  0
LINE
  5
1280
330
1D9
100
AcDbEntity
  8
0
100
AcDbLine
 10
1537.009618943233
 20
1300.999999999996
 30
0.0
 11
1562.990381056765
 21
1300.999999999996
 31
0.0
  0
LINE
  5
1281
330
1D9
100
AcDbEntity
  8
0
100
AcDbLine
 10
1558.660254037843
 20
1313.499999999996
 30
0.0
 11
1558.660254037843
 21
1305.399999999996
 31
0.0
  0
LINE
  5
1282
330
1D9
100
AcDbEntity
  8
0
100
AcDbLine
 10
1541.339745962155
 20
1313.499999999996
 30
0.0
 11
1541.339745962155
 21
1305.399999999996
 31
0.0
  0
ARC
  5
1283
330
1D9
100
AcDbEntity
  8
0
100
AcDbCircle
 10
1537.009618943233
 20
1305.330681818178
 30
0.0
 40
4.330681818181814
100
AcDbArc
 50
179.0828675395624
 51
0.9171324604375683
  0
ARC
  5
1284
330
1D9
100
AcDbEntity
  8
0
100
AcDbCircle
 10
1550.0
 20
1311.722727272723
 30
0.0
 40
10.72272727272727
100
AcDbArc
 50
216.1326457057484
 51
323.8673542942515
  0
ARC
  5
1285
330
1D9
100
AcDbEntity
  8
0
100
AcDbCircle
 10
1577.092622740245
 20
1311.722727272723
 30
0.0
 40
10.72272727272727
100
AcDbArc
 50
216.1326457057484
 51
323.8673542942515
  0
ARC
  5
1286
330
1D9
100
AcDbEntity
  8
0
100
AcDbCircle
 10
1564.102241683478
 20
1305.330681818177
 30
0.0
 40
4.330681818181814
100
AcDbArc
 50
179.0828675395624
 51
0.9171324604375683
  0
LINE
  5
1287
330
1D9
100
AcDbEntity
  8
0
100
AcDbLine
 10
1568.432368702399
 20
1313.499999999995
 30
0.0
 11
1568.432368702399
 21
1305.399999999996
 31
0.0
  0
LINE
  5
1288
330
1D9
100
AcDbEntity
  8
0
100
AcDbLine
 10
1585.752876778089
 20
1313.499999999995
 30
0.0
 11
1585.752876778089
 21
1305.399999999996
 31
0.0
  0
LINE
  5
1289
330
1D9
100
AcDbEntity
  8
0
100
AcDbLine
 10
1564.102241683478
 20
1300.999999999995
 30
0.0
 11
1590.083003797011
 21
1300.999999999995
 31
0.0
  0
LINE
  5
128A
330
1D9
100
AcDbEntity
  8
0
100
AcDbLine
 10
1559.772114664556
 20
1313.499999999995
 30
0.0
 11
1559.772114664556
 21
1305.399999999996
 31
0.0
  0
ARC
  5
128B
330
1D9
100
AcDbEntity
  8
0
100
AcDbCircle
 10
1562.990381056765
 20
1305.330681818178
 30
0.0
 40
4.330681818181816
100
AcDbArc
 50
179.0828675395624
 51
277.3754201763404
  0
LINE
  5
128C
330
1D9
100
AcDbEntity
  8
0
100
AcDbLine
 10
1573.000000000001
 20
1273.908996800199
 30
0.0
 11
1573.000000000001
 21
1300.999999999995
 31
0.0
  0
ARC
  5
128D
330
1D9
100
AcDbEntity
  8
0
100
AcDbCircle
 10
1642.5
 20
1229.999999999996
 30
0.0
 40
77.5
100
AcDbArc
 50
159.3485105906783
 51
162.5423968762681
  0
ARC
  5
128E
330
1D9
100
AcDbEntity
  8
0
100
AcDbCircle
 10
1526.0
 20
1273.908996800199
 30
0.0
 40
47.0
100
AcDbArc
 50
339.3485105906784
 51
0.0
  0
ARC
  5
128F
330
1D9
100
AcDbEntity
  8
0
100
AcDbCircle
 10
1716.661984870957
 20
1252.499999999996
 30
0.0
 40
0.75
100
AcDbArc
 50
286.6000307139799
 51
90.0
  0
ARC
  5
1290
330
1D9
100
AcDbEntity
  8
0
100
AcDbCircle
 10
1642.5
 20
1229.999999999996
 30
0.0
 40
77.5
100
AcDbArc
 50
343.6772080106783
 51
16.32279198932158
  0
ARC
  5
1291
330
1D9
100
AcDbEntity
  8
0
100
AcDbCircle
 10
1642.5
 20
1229.999999999996
 30
0.0
 40
77.5
100
AcDbArc
 50
339.3485105906784
 51
342.5423968762673
  0
ARC
  5
1292
330
1D9
100
AcDbEntity
  8
0
100
AcDbCircle
 10
1716.661984870957
 20
1207.499999999996
 30
0.0
 40
0.75
100
AcDbArc
 50
270.0
 51
73.39996928602005
  0
ARC
  5
1293
330
1D9
100
AcDbEntity
  8
0
100
AcDbCircle
 10
1758.999999999999
 20
1186.091003199793
 30
0.0
 40
47.0
100
AcDbArc
 50
159.3485105906783
 51
180.0
  0
ARC
  5
1294
330
1D9
100
AcDbEntity
  8
0
100
AcDbCircle
 10
1655.490381056766
 20
1305.330681818178
 30
0.0
 40
4.330681818181816
100
AcDbArc
 50
179.0828675395624
 51
0.9171324604375683
  0
ARC
  5
1295
330
1D9
100
AcDbEntity
  8
0
100
AcDbCircle
 10
1642.5
 20
1311.722727272723
 30
0.0
 40
10.72272727272727
100
AcDbArc
 50
216.1326457057484
 51
323.8673542942515
  0
ARC
  5
1296
330
1D9
100
AcDbEntity
  8
0
100
AcDbCircle
 10
1629.509618943233
 20
1305.330681818178
 30
0.0
 40
4.330681818181814
100
AcDbArc
 50
179.0828675395624
 51
0.9171324604375683
  0
LINE
  5
1297
330
1D9
100
AcDbEntity
  8
0
100
AcDbLine
 10
1633.839745962155
 20
1313.499999999996
 30
0.0
 11
1633.839745962155
 21
1305.399999999996
 31
0.0
  0
LINE
  5
1298
330
1D9
100
AcDbEntity
  8
0
100
AcDbLine
 10
1651.160254037844
 20
1313.499999999996
 30
0.0
 11
1651.160254037844
 21
1305.399999999996
 31
0.0
  0
LINE
  5
1299
330
1D9
100
AcDbEntity
  8
0
100
AcDbLine
 10
1629.509618943233
 20
1300.999999999996
 30
0.0
 11
1655.490381056766
 21
1300.999999999996
 31
0.0
  0
LINE
  5
129A
330
1D9
100
AcDbEntity
  8
0
100
AcDbLine
 10
1625.179491924311
 20
1313.499999999996
 30
0.0
 11
1625.179491924311
 21
1305.399999999996
 31
0.0
  0
LINE
  5
129B
330
1D9
100
AcDbEntity
  8
0
100
AcDbLine
 10
1659.820508075688
 20
1305.399999999996
 30
0.0
 11
1659.820508075688
 21
1313.499999999996
 31
0.0
  0
LINE
  5
129C
330
1D9
100
AcDbEntity
  8
0
100
AcDbLine
 10
1594.413130815934
 20
1305.399999999996
 30
0.0
 11
1594.413130815934
 21
1313.499999999995
 31
0.0
  0
ARC
  5
129D
330
1D9
100
AcDbEntity
  8
0
100
AcDbCircle
 10
1694.916996202988
 20
1305.330681818177
 30
0.0
 40
4.330681818181816
100
AcDbArc
 50
179.0828675395624
 51
0.9171324604375683
  0
ARC
  5
129E
330
1D9
100
AcDbEntity
  8
0
100
AcDbCircle
 10
1722.009618943233
 20
1305.330681818178
 30
0.0
 40
4.330681818181816
100
AcDbArc
 50
262.6245798236595
 51
0.9171324604375683
  0
LINE
  5
129F
330
1D9
100
AcDbEntity
  8
0
100
AcDbLine
 10
1725.227885335443
 20
1313.499999999995
 30
0.0
 11
1725.227885335443
 21
1305.399999999996
 31
0.0
  0
LINE
  5
12A0
330
1D9
100
AcDbEntity
  8
0
100
AcDbLine
 10
1699.247123221909
 20
1313.499999999995
 30
0.0
 11
1699.247123221909
 21
1305.399999999996
 31
0.0
  0
LINE
  5
12A1
330
1D9
100
AcDbEntity
  8
0
100
AcDbLine
 10
1716.567631297599
 20
1313.499999999995
 30
0.0
 11
1716.567631297599
 21
1305.399999999996
 31
0.0
  0
ARC
  5
12A2
330
1D9
100
AcDbEntity
  8
0
100
AcDbCircle
 10
1720.897758316521
 20
1305.330681818177
 30
0.0
 40
4.330681818181814
100
AcDbArc
 50
179.0828675395624
 51
0.9171324604375683
  0
ARC
  5
12A3
330
1D9
100
AcDbEntity
  8
0
100
AcDbCircle
 10
1707.907377259755
 20
1311.722727272723
 30
0.0
 40
10.72272727272727
100
AcDbArc
 50
216.1326457057484
 51
323.8673542942515
  0
ARC
  5
12A4
330
1D9
100
AcDbEntity
  8
0
100
AcDbCircle
 10
1735.0
 20
1311.722727272723
 30
0.0
 40
10.72272727272727
100
AcDbArc
 50
216.1326457057484
 51
323.8673542942515
  0
LINE
  5
12A5
330
1D9
100
AcDbEntity
  8
0
100
AcDbLine
 10
1743.660254037844
 20
1313.499999999996
 30
0.0
 11
1743.660254037844
 21
1305.399999999996
 31
0.0
  0
LINE
  5
12A6
330
1D9
100
AcDbEntity
  8
0
100
AcDbLine
 10
1726.339745962155
 20
1313.499999999996
 30
0.0
 11
1726.339745962155
 21
1305.399999999996
 31
0.0
  0
LINE
  5
12A7
330
1D9
100
AcDbEntity
  8
0
100
AcDbLine
 10
1690.586869184064
 20
1305.399999999996
 30
0.0
 11
1690.586869184064
 21
1313.499999999995
 31
0.0
  0
LINE
  5
12A8
330
1D9
100
AcDbEntity
  8
0
100
AcDbLine
 10
1720.897758316521
 20
1300.999999999995
 30
0.0
 11
1694.916996202988
 21
1300.999999999995
 31
0.0
  0
LINE
  5
12A9
330
1D9
100
AcDbEntity
  8
0
100
AcDbLine
 10
1711.999999999999
 20
1273.908996800199
 30
0.0
 11
1711.999999999999
 21
1300.999999999995
 31
0.0
  0
ARC
  5
12AA
330
1D9
100
AcDbEntity
  8
0
100
AcDbCircle
 10
1642.5
 20
1229.999999999996
 30
0.0
 40
77.5
100
AcDbArc
 50
17.45760312373177
 51
20.65148940932159
  0
ARC
  5
12AB
330
1D9
100
AcDbEntity
  8
0
100
AcDbCircle
 10
1758.999999999999
 20
1273.908996800199
 30
0.0
 40
47.0
100
AcDbArc
 50
180.0
 51
200.6514894093216
  0
LINE
  5
12AC
330
1D9
100
AcDbEntity
  8
0
100
AcDbLine
 10
1794.999999999999
 20
470.5000000000004
 30
0.0
 11
1794.999999999998
 21
451.5000000000005
 31
0.0
  0
LINE
  5
12AD
330
1D9
100
AcDbEntity
  8
0
100
AcDbLine
 10
1774.568874077125
 20
470.5000000000008
 30
0.0
 11
1774.568874077125
 21
451.4999999999998
 31
0.0
  0
ARC
  5
12AE
330
1D9
100
AcDbEntity
  8
0
100
AcDbCircle
 10
1642.5
 20
292.5
 30
0.0
 40
180.0
100
AcDbArc
 50
8.305109528061388
 51
16.24598839847415
  0
ARC
  5
12AF
330
1D9
100
AcDbEntity
  8
0
100
AcDbCircle
 10
1642.5
 20
292.5
 30
0.0
 40
180.0
100
AcDbArc
 50
343.7540116015249
 51
351.6948904719386
  0
ARC
  5
12B0
330
1D9
100
AcDbEntity
  8
0
100
AcDbCircle
 10
1825.545642221806
 20
218.3029411764704
 30
0.0
 40
5.19705882352941
100
AcDbArc
 50
1.070102236513484
 51
178.9298977634865
  0
ARC
  5
12B1
330
1D9
100
AcDbEntity
  8
0
100
AcDbCircle
 10
1919.0
 20
211.9286030901784
 30
0.0
 40
108.0
100
AcDbArc
 50
163.754011601525
 51
173.9645406333478
  0
LINE
  5
12B2
330
1D9
100
AcDbEntity
  8
0
100
AcDbLine
 10
1815.312567645932
 20
208.4999999999999
 30
0.0
 11
1815.312567645932
 21
218.4
 31
0.0
  0
LINE
  5
12B3
330
1D9
100
AcDbEntity
  8
0
100
AcDbLine
 10
1820.349489799099
 20
218.4
 30
0.0
 11
1820.349489799099
 21
208.4999999999999
 31
0.0
  0
ARC
  5
12B4
330
1D9
100
AcDbEntity
  8
0
100
AcDbCircle
 10
1794.527957955105
 20
210.3617647058821
 30
0.0
 40
13.13823529411763
100
AcDbArc
 50
37.721218445649
 51
142.278781554351
  0
LINE
  5
12B5
330
1D9
100
AcDbEntity
  8
0
100
AcDbLine
 10
1810.116415223227
 20
223.4999999999998
 30
0.0
 11
1778.939500686987
 21
223.4999999999998
 31
0.0
  0
ARC
  5
12B6
330
1D9
100
AcDbEntity
  8
0
100
AcDbCircle
 10
1810.116415223227
 20
218.3029411764704
 30
0.0
 40
5.19705882352941
100
AcDbArc
 50
1.070102236513484
 51
178.9298977634865
  0
LINE
  5
12B7
330
1D9
100
AcDbEntity
  8
0
100
AcDbLine
 10
1804.92026280052
 20
208.4999999999999
 30
0.0
 11
1804.92026280052
 21
218.4
 31
0.0
  0
ARC
  5
12B8
330
1D9
100
AcDbEntity
  8
0
100
AcDbCircle
 10
1778.939500686987
 20
218.3029411764704
 30
0.0
 40
5.19705882352941
100
AcDbArc
 50
1.070102236513484
 51
178.9298977634865
  0
LINE
  5
12B9
330
1D9
100
AcDbEntity
  8
0
100
AcDbLine
 10
1784.135653109694
 20
208.4999999999999
 30
0.0
 11
1784.135653109694
 21
218.4
 31
0.0
  0
LINE
  5
12BA
330
1D9
100
AcDbEntity
  8
0
100
AcDbLine
 10
1773.74334826428
 20
218.4
 30
0.0
 11
1773.74334826428
 21
208.4999999999999
 31
0.0
  0
LINE
  5
12BB
330
1D9
100
AcDbEntity
  8
0
100
AcDbLine
 10
1873.088457268118
 20
223.4999999999998
 30
0.0
 11
1841.911542731878
 21
223.4999999999998
 31
0.0
  0
LINE
  5
12BC
330
1D9
100
AcDbEntity
  8
0
100
AcDbLine
 10
1856.722556758045
 20
223.4999999999998
 30
0.0
 11
1825.545642221806
 21
223.4999999999998
 31
0.0
  0
LINE
  5
12BD
330
1D9
100
AcDbEntity
  8
0
100
AcDbLine
 10
1830.741794644513
 20
208.4999999999999
 30
0.0
 11
1830.741794644513
 21
218.4
 31
0.0
  0
LINE
  5
12BE
330
1D9
100
AcDbEntity
  8
0
100
AcDbLine
 10
1878.284609690825
 20
208.4999999999999
 30
0.0
 11
1878.284609690825
 21
218.4
 31
0.0
  0
LINE
  5
12BF
330
1D9
100
AcDbEntity
  8
0
100
AcDbLine
 10
1867.892304845412
 20
208.4999999999999
 30
0.0
 11
1867.892304845412
 21
218.4
 31
0.0
  0
ARC
  5
12C0
330
1D9
100
AcDbEntity
  8
0
100
AcDbCircle
 10
1873.088457268118
 20
218.3029411764704
 30
0.0
 40
5.19705882352941
100
AcDbArc
 50
1.070102236513484
 51
178.9298977634865
  0
ARC
  5
12C1
330
1D9
100
AcDbEntity
  8
0
100
AcDbCircle
 10
1856.722556758045
 20
218.3029411764704
 30
0.0
 40
5.19705882352941
100
AcDbArc
 50
1.070102236513484
 51
178.9298977634865
  0
LINE
  5
12C2
330
1D9
100
AcDbEntity
  8
0
100
AcDbLine
 10
1851.526404335339
 20
208.4999999999999
 30
0.0
 11
1851.526404335339
 21
218.4
 31
0.0
  0
LINE
  5
12C3
330
1D9
100
AcDbEntity
  8
0
100
AcDbLine
 10
1861.918709180751
 20
208.4999999999999
 30
0.0
 11
1861.918709180751
 21
218.4
 31
0.0
  0
ARC
  5
12C4
330
1D9
100
AcDbEntity
  8
0
100
AcDbCircle
 10
1857.499999999999
 20
210.3617647058821
 30
0.0
 40
13.13823529411763
100
AcDbArc
 50
37.721218445649
 51
99.10087838933218
  0
ARC
  5
12C5
330
1D9
100
AcDbEntity
  8
0
100
AcDbCircle
 10
1841.134099489925
 20
210.3617647058821
 30
0.0
 40
13.13823529411763
100
AcDbArc
 50
37.721218445649
 51
142.278781554351
  0
LINE
  5
12C6
330
1D9
100
AcDbEntity
  8
0
100
AcDbLine
 10
1882.5
 20
207.5
 30
0.0
 11
1881.5
 21
208.4999999999999
 31
0.0
  0
ARC
  5
12C7
330
1D9
100
AcDbEntity
  8
0
100
AcDbCircle
 10
1820.755434699758
 20
317.5
 30
0.0
 40
1.0
100
AcDbArc
 50
277.8244009977565
 51
90.0
  0
ARC
  5
12C8
330
1D9
100
AcDbEntity
  8
0
100
AcDbCircle
 10
1820.755434699758
 20
267.5
 30
0.0
 40
1.0
100
AcDbArc
 50
270.0
 51
82.1755990022434
  0
ARC
  5
12C9
330
1D9
100
AcDbEntity
  8
0
100
AcDbCircle
 10
1642.5
 20
292.5
 30
0.0
 40
180.0
100
AcDbArc
 50
352.3347541499653
 51
7.665245850034676
  0
LINE
  5
12CA
330
1D9
100
AcDbEntity
  8
0
100
AcDbLine
 10
1882.5
 20
411.5
 30
0.0
 11
1882.5
 21
377.4999999999998
 31
0.0
  0
ARC
  5
12CB
330
1D9
100
AcDbEntity
  8
0
100
AcDbCircle
 10
1825.545642221806
 20
366.6970588235293
 30
0.0
 40
5.19705882352941
100
AcDbArc
 50
181.0701022365135
 51
358.9298977634864
  0
LINE
  5
12CC
330
1D9
100
AcDbEntity
  8
0
100
AcDbLine
 10
1773.74334826428
 20
366.5999999999998
 30
0.0
 11
1773.74334826428
 21
376.5
 31
0.0
  0
LINE
  5
12CD
330
1D9
100
AcDbEntity
  8
0
100
AcDbLine
 10
1784.135653109694
 20
376.5
 30
0.0
 11
1784.135653109694
 21
366.5999999999998
 31
0.0
  0
ARC
  5
12CE
330
1D9
100
AcDbEntity
  8
0
100
AcDbCircle
 10
1778.939500686987
 20
366.6970588235293
 30
0.0
 40
5.19705882352941
100
AcDbArc
 50
181.0701022365135
 51
358.9298977634864
  0
LINE
  5
12CF
330
1D9
100
AcDbEntity
  8
0
100
AcDbLine
 10
1804.92026280052
 20
376.5
 30
0.0
 11
1804.92026280052
 21
366.5999999999998
 31
0.0
  0
ARC
  5
12D0
330
1D9
100
AcDbEntity
  8
0
100
AcDbCircle
 10
1810.116415223227
 20
366.6970588235293
 30
0.0
 40
5.19705882352941
100
AcDbArc
 50
181.0701022365135
 51
358.9298977634864
  0
LINE
  5
12D1
330
1D9
100
AcDbEntity
  8
0
100
AcDbLine
 10
1810.116415223227
 20
361.5
 30
0.0
 11
1778.939500686987
 21
361.5
 31
0.0
  0
ARC
  5
12D2
330
1D9
100
AcDbEntity
  8
0
100
AcDbCircle
 10
1794.527957955105
 20
374.6382352941176
 30
0.0
 40
13.13823529411763
100
AcDbArc
 50
217.721218445649
 51
322.2787815543508
  0
LINE
  5
12D3
330
1D9
100
AcDbEntity
  8
0
100
AcDbLine
 10
1820.349489799099
 20
366.5999999999998
 30
0.0
 11
1820.349489799099
 21
376.5
 31
0.0
  0
LINE
  5
12D4
330
1D9
100
AcDbEntity
  8
0
100
AcDbLine
 10
1815.312567645932
 20
376.5
 30
0.0
 11
1815.312567645932
 21
366.5999999999998
 31
0.0
  0
ARC
  5
12D5
330
1D9
100
AcDbEntity
  8
0
100
AcDbCircle
 10
1919.0
 20
373.0713969098213
 30
0.0
 40
108.0
100
AcDbArc
 50
186.0354593666522
 51
196.2459883984742
  0
LINE
  5
12D6
330
1D9
100
AcDbEntity
  8
0
100
AcDbLine
 10
1882.5
 20
377.4999999999998
 30
0.0
 11
1881.5
 21
376.5
 31
0.0
  0
ARC
  5
12D7
330
1D9
100
AcDbEntity
  8
0
100
AcDbCircle
 10
1841.134099489925
 20
374.6382352941176
 30
0.0
 40
13.13823529411763
100
AcDbArc
 50
217.721218445649
 51
322.2787815543508
  0
ARC
  5
12D8
330
1D9
100
AcDbEntity
  8
0
100
AcDbCircle
 10
1857.499999999999
 20
374.6382352941176
 30
0.0
 40
13.13823529411763
100
AcDbArc
 50
260.8991216106677
 51
322.2787815543508
  0
LINE
  5
12D9
330
1D9
100
AcDbEntity
  8
0
100
AcDbLine
 10
1861.918709180751
 20
376.5
 30
0.0
 11
1861.918709180751
 21
366.5999999999998
 31
0.0
  0
LINE
  5
12DA
330
1D9
100
AcDbEntity
  8
0
100
AcDbLine
 10
1851.526404335339
 20
376.5
 30
0.0
 11
1851.526404335339
 21
366.5999999999998
 31
0.0
  0
ARC
  5
12DB
330
1D9
100
AcDbEntity
  8
0
100
AcDbCircle
 10
1856.722556758045
 20
366.6970588235293
 30
0.0
 40
5.19705882352941
100
AcDbArc
 50
181.0701022365135
 51
358.9298977634864
  0
ARC
  5
12DC
330
1D9
100
AcDbEntity
  8
0
100
AcDbCircle
 10
1873.088457268118
 20
366.6970588235293
 30
0.0
 40
5.19705882352941
100
AcDbArc
 50
181.0701022365135
 51
358.9298977634864
  0
LINE
  5
12DD
330
1D9
100
AcDbEntity
  8
0
100
AcDbLine
 10
1867.892304845412
 20
376.5
 30
0.0
 11
1867.892304845412
 21
366.5999999999998
 31
0.0
  0
LINE
  5
12DE
330
1D9
100
AcDbEntity
  8
0
100
AcDbLine
 10
1878.284609690825
 20
376.5
 30
0.0
 11
1878.284609690825
 21
366.5999999999998
 31
0.0
  0
LINE
  5
12DF
330
1D9
100
AcDbEntity
  8
0
100
AcDbLine
 10
1830.741794644513
 20
376.5
 30
0.0
 11
1830.741794644513
 21
366.5999999999998
 31
0.0
  0
LINE
  5
12E0
330
1D9
100
AcDbEntity
  8
0
100
AcDbLine
 10
1856.722556758045
 20
361.5
 30
0.0
 11
1825.545642221806
 21
361.5
 31
0.0
  0
LINE
  5
12E1
330
1D9
100
AcDbEntity
  8
0
100
AcDbLine
 10
1873.088457268118
 20
361.5
 30
0.0
 11
1841.911542731878
 21
361.5
 31
0.0
  0
LINE
  5
12E2
330
1D9
100
AcDbEntity
  8
0
100
AcDbLine
 10
1816.499999999999
 20
464.5
 30
0.0
 11
1817.5
 21
463.4999999999998
 31
0.0
  0
LINE
  5
12E3
330
1D9
100
AcDbEntity
  8
0
100
AcDbLine
 10
1817.5
 20
463.4999999999998
 30
0.0
 11
1817.5
 21
457.5
 31
0.0
  0
LINE
  5
12E4
330
1D9
100
AcDbEntity
  8
0
100
AcDbLine
 10
1782.527957955108
 20
417.5000000000004
 30
0.0
 11
1782.527957955108
 21
412.5000099999998
 31
0.0
  0
LINE
  5
12E5
330
1D9
100
AcDbEntity
  8
0
100
AcDbLine
 10
1784.177967955107
 20
412.5000099999998
 30
0.0
 11
1784.177967955107
 21
417.5000000000008
 31
0.0
  0
LINE
  5
12E6
330
1D9
100
AcDbEntity
  8
0
100
AcDbLine
 10
1804.877947955108
 20
412.5000099999998
 30
0.0
 11
1804.877947955108
 21
417.5000000000008
 31
0.0
  0
LINE
  5
12E7
330
1D9
100
AcDbEntity
  8
0
100
AcDbLine
 10
1806.527957955108
 20
417.5000000000004
 30
0.0
 11
1806.527957955108
 21
412.5000099999998
 31
0.0
  0
LINE
  5
12E8
330
1D9
100
AcDbEntity
  8
0
100
AcDbLine
 10
1783.999999999999
 20
467.5000000000004
 30
0.0
 11
1783.999999999999
 21
464.5000000000004
 31
0.0
  0
LINE
  5
12E9
330
1D9
100
AcDbEntity
  8
0
100
AcDbLine
 10
1882.5
 20
456.5
 30
0.0
 11
1882.5
 21
418.5
 31
0.0
  0
LINE
  5
12EA
330
1D9
100
AcDbEntity
  8
0
100
AcDbLine
 10
1882.5
 20
418.5
 30
0.0
 11
1881.5
 21
417.4999999999998
 31
0.0
  0
LINE
  5
12EB
330
1D9
100
AcDbEntity
  8
0
100
AcDbLine
 10
1881.5
 20
457.5
 30
0.0
 11
1882.5
 21
456.5
 31
0.0
  0
LINE
  5
12EC
330
1D9
100
AcDbEntity
  8
0
100
AcDbLine
 10
1851.484089489927
 20
412.5000099999998
 30
0.0
 11
1851.484089489927
 21
417.5000000000008
 31
0.0
  0
LINE
  5
12ED
330
1D9
100
AcDbEntity
  8
0
100
AcDbLine
 10
1853.134099489927
 20
417.5000000000004
 30
0.0
 11
1853.134099489927
 21
412.5000099999998
 31
0.0
  0
LINE
  5
12EE
330
1D9
100
AcDbEntity
  8
0
100
AcDbLine
 10
1869.5
 20
417.5000000000004
 30
0.0
 11
1869.5
 21
412.5000099999998
 31
0.0
  0
LINE
  5
12EF
330
1D9
100
AcDbEntity
  8
0
100
AcDbLine
 10
1867.849989999999
 20
412.5000099999998
 30
0.0
 11
1867.849989999999
 21
417.5000000000008
 31
0.0
  0
LINE
  5
12F0
330
1D9
100
AcDbEntity
  8
0
100
AcDbLine
 10
1829.134099489927
 20
417.5000000000004
 30
0.0
 11
1829.134099489927
 21
412.5000099999998
 31
0.0
  0
LINE
  5
12F1
330
1D9
100
AcDbEntity
  8
0
100
AcDbLine
 10
1830.784109489925
 20
412.5000099999998
 30
0.0
 11
1830.784109489925
 21
417.5000000000008
 31
0.0
  0
LINE
  5
12F2
330
1D9
100
AcDbEntity
  8
0
100
AcDbLine
 10
1847.15001
 20
412.5000099999998
 30
0.0
 11
1847.15001
 21
417.5000000000008
 31
0.0
  0
LINE
  5
12F3
330
1D9
100
AcDbEntity
  8
0
100
AcDbLine
 10
1845.5
 20
417.5000000000004
 30
0.0
 11
1845.5
 21
412.5000099999998
 31
0.0
  0
LINE
  5
12F4
330
1D9
100
AcDbEntity
  8
0
100
AcDbLine
 10
1882.5
 20
411.5
 30
0.0
 11
1881.5
 21
412.5
 31
0.0
  0
LINE
  5
12F5
330
1D9
100
AcDbEntity
  8
0
100
AcDbLine
 10
1795.0
 20
651.9999999999964
 30
0.0
 11
1795.0
 21
683.9999999999962
 31
0.0
  0
LINE
  5
12F6
330
1D9
100
AcDbEntity
  8
0
100
AcDbLine
 10
1755.0
 20
643.9999999999962
 30
0.0
 11
1755.0
 21
650.9999999999962
 31
0.0
  0
LINE
  5
12F7
330
1D9
100
AcDbEntity
  8
0
100
AcDbLine
 10
1754.0
 20
642.9999999999964
 30
0.0
 11
1755.0
 21
643.9999999999962
 31
0.0
  0
LINE
  5
12F8
330
1D9
100
AcDbEntity
  8
0
100
AcDbLine
 10
1794.0
 20
650.9999999999962
 30
0.0
 11
1795.0
 21
651.9999999999964
 31
0.0
  0
LINE
  5
12F9
330
1D9
100
AcDbEntity
  8
0
100
AcDbLine
 10
1764.333302491976
 20
717.9999999999968
 30
0.0
 11
1764.333302491976
 21
727.5999999999968
 31
0.0
  0
LINE
  5
12FA
330
1D9
100
AcDbEntity
  8
0
100
AcDbLine
 10
1791.0
 20
717.9999999999964
 30
0.0
 11
1791.0
 21
727.5999999999961
 31
0.0
  0
LINE
  5
12FB
330
1D9
100
AcDbEntity
  8
0
100
AcDbLine
 10
1781.749999999999
 20
717.9999999999964
 30
0.0
 11
1781.749999999999
 21
727.5999999999961
 31
0.0
  0
ARC
  5
12FC
330
1D9
100
AcDbEntity
  8
0
100
AcDbCircle
 10
1786.375
 20
727.369247159087
 30
0.0
 40
4.630752840909087
100
AcDbArc
 50
2.85626160780179
 51
177.1437383921982
  0
LINE
  5
12FD
330
1D9
100
AcDbEntity
  8
0
100
AcDbLine
 10
1773.583302491976
 20
717.9999999999968
 30
0.0
 11
1773.583302491976
 21
727.5999999999968
 31
0.0
  0
ARC
  5
12FE
330
1D9
100
AcDbEntity
  8
0
100
AcDbCircle
 10
1768.958302491977
 20
727.3692471590875
 30
0.0
 40
4.630752840909087
100
AcDbArc
 50
2.85626160780179
 51
177.1437383921982
  0
ARC
  5
12FF
330
1D9
100
AcDbEntity
  8
0
100
AcDbCircle
 10
1772.5
 20
720.07698863636
 30
0.0
 40
11.92301136363636
100
AcDbArc
 50
39.1214070650605
 51
100.5723255571087
  0
LINE
  5
1300
330
1D9
100
AcDbEntity
  8
0
100
AcDbLine
 10
1786.375
 20
731.9999999999961
 30
0.0
 11
1768.958302491977
 21
731.9999999999961
 31
0.0
  0
LINE
  5
1301
330
1D9
100
AcDbEntity
  8
0
100
AcDbLine
 10
1795.0
 20
716.9999999999961
 30
0.0
 11
1794.0
 21
717.9999999999964
 31
0.0
  0
LINE
  5
1302
330
1D9
100
AcDbEntity
  8
0
100
AcDbLine
 10
1795.0
 20
683.9999999999962
 30
0.0
 11
1794.0
 21
684.9999999999964
 31
0.0
  0
LINE
  5
1303
330
1D9
100
AcDbEntity
  8
0
100
AcDbLine
 10
1766.083302491976
 20
684.9999999999966
 30
0.0
 11
1766.083302491976
 21
689.9999899999966
 31
0.0
  0
LINE
  5
1304
330
1D9
100
AcDbEntity
  8
0
100
AcDbLine
 10
1764.733292491976
 20
689.9999899999966
 30
0.0
 11
1764.733292491976
 21
684.9999999999966
 31
0.0
  0
LINE
  5
1305
330
1D9
100
AcDbEntity
  8
0
100
AcDbLine
 10
1782.149989999998
 20
689.9999899999961
 30
0.0
 11
1782.149989999998
 21
684.9999999999964
 31
0.0
  0
LINE
  5
1306
330
1D9
100
AcDbEntity
  8
0
100
AcDbLine
 10
1783.5
 20
684.9999999999964
 30
0.0
 11
1783.5
 21
689.9999899999961
 31
0.0
  0
LINE
  5
1307
330
1D9
100
AcDbEntity
  8
0
100
AcDbLine
 10
1794.0
 20
689.9999999999961
 30
0.0
 11
1795.0
 21
690.9999999999961
 31
0.0
  0
LINE
  5
1308
330
1D9
100
AcDbEntity
  8
0
100
AcDbLine
 10
1795.0
 20
690.9999999999961
 30
0.0
 11
1795.0
 21
716.9999999999961
 31
0.0
  0
LINE
  5
1309
330
1D9
100
AcDbEntity
  8
0
100
AcDbLine
 10
1795.0
 20
903.9999999999963
 30
0.0
 11
1795.0
 21
877.9999999999962
 31
0.0
  0
ARC
  5
130A
330
1D9
100
AcDbEntity
  8
0
100
AcDbCircle
 10
1642.5
 20
797.4999999999964
 30
0.0
 40
107.4999999999999
100
AcDbArc
 50
348.4515160324728
 51
11.54848396752703
  0
ARC
  5
130B
330
1D9
100
AcDbEntity
  8
0
100
AcDbCircle
 10
1747.618980208143
 20
819.9999999999969
 30
0.0
 40
1.0
100
AcDbArc
 50
281.8149769260899
 51
90.0
  0
ARC
  5
130C
330
1D9
100
AcDbEntity
  8
0
100
AcDbCircle
 10
1747.618980208143
 20
774.9999999999959
 30
0.0
 40
1.0
100
AcDbArc
 50
270.0
 51
78.18502307390989
  0
LINE
  5
130D
330
1D9
100
AcDbEntity
  8
0
100
AcDbLine
 10
1795.0
 20
877.9999999999962
 30
0.0
 11
1794.0
 21
876.9999999999964
 31
0.0
  0
LINE
  5
130E
330
1D9
100
AcDbEntity
  8
0
100
AcDbLine
 10
1786.375
 20
862.9999999999961
 30
0.0
 11
1768.958302491977
 21
862.9999999999961
 31
0.0
  0
ARC
  5
130F
330
1D9
100
AcDbEntity
  8
0
100
AcDbCircle
 10
1772.5
 20
874.9230113636327
 30
0.0
 40
11.92301136363636
100
AcDbArc
 50
259.427674442891
 51
320.8785929349393
  0
ARC
  5
1310
330
1D9
100
AcDbEntity
  8
0
100
AcDbCircle
 10
1768.958302491977
 20
867.6307528409052
 30
0.0
 40
4.630752840909087
100
AcDbArc
 50
182.8562616078017
 51
357.1437383921982
  0
LINE
  5
1311
330
1D9
100
AcDbEntity
  8
0
100
AcDbLine
 10
1773.583302491976
 20
876.9999999999956
 30
0.0
 11
1773.583302491976
 21
867.399999999996
 31
0.0
  0
ARC
  5
1312
330
1D9
100
AcDbEntity
  8
0
100
AcDbCircle
 10
1786.375
 20
867.6307528409056
 30
0.0
 40
4.630752840909087
100
AcDbArc
 50
182.8562616078017
 51
357.1437383921982
  0
LINE
  5
1313
330
1D9
100
AcDbEntity
  8
0
100
AcDbLine
 10
1781.749999999999
 20
876.9999999999964
 30
0.0
 11
1781.749999999999
 21
867.3999999999962
 31
0.0
  0
LINE
  5
1314
330
1D9
100
AcDbEntity
  8
0
100
AcDbLine
 10
1791.0
 20
876.9999999999964
 30
0.0
 11
1791.0
 21
867.3999999999962
 31
0.0
  0
LINE
  5
1315
330
1D9
100
AcDbEntity
  8
0
100
AcDbLine
 10
1764.333302491976
 20
876.9999999999956
 30
0.0
 11
1764.333302491976
 21
867.399999999996
 31
0.0
  0
LINE
  5
1316
330
1D9
100
AcDbEntity
  8
0
100
AcDbLine
 10
1794.0
 20
943.9999999999963
 30
0.0
 11
1795.0
 21
942.9999999999964
 31
0.0
  0
LINE
  5
1317
330
1D9
100
AcDbEntity
  8
0
100
AcDbLine
 10
1795.0
 20
942.9999999999964
 30
0.0
 11
1795.0
 21
910.9999999999963
 31
0.0
  0
LINE
  5
1318
330
1D9
100
AcDbEntity
  8
0
100
AcDbLine
 10
1754.0
 20
951.9999999999964
 30
0.0
 11
1755.0
 21
950.9999999999964
 31
0.0
  0
LINE
  5
1319
330
1D9
100
AcDbEntity
  8
0
100
AcDbLine
 10
1755.0
 20
950.9999999999964
 30
0.0
 11
1755.0
 21
943.9999999999963
 31
0.0
  0
LINE
  5
131A
330
1D9
100
AcDbEntity
  8
0
100
AcDbLine
 10
1794.0
 20
904.9999999999963
 30
0.0
 11
1795.0
 21
903.9999999999963
 31
0.0
  0
LINE
  5
131B
330
1D9
100
AcDbEntity
  8
0
100
AcDbLine
 10
1783.5
 20
909.9999999999964
 30
0.0
 11
1783.5
 21
905.0000099999966
 31
0.0
  0
LINE
  5
131C
330
1D9
100
AcDbEntity
  8
0
100
AcDbLine
 10
1782.149989999998
 20
905.0000099999966
 30
0.0
 11
1782.149989999998
 21
909.9999999999964
 31
0.0
  0
LINE
  5
131D
330
1D9
100
AcDbEntity
  8
0
100
AcDbLine
 10
1764.733292491976
 20
905.0000099999961
 30
0.0
 11
1764.733292491976
 21
909.9999999999957
 31
0.0
  0
LINE
  5
131E
330
1D9
100
AcDbEntity
  8
0
100
AcDbLine
 10
1766.083302491976
 20
909.9999999999957
 30
0.0
 11
1766.083302491976
 21
905.0000099999961
 31
0.0
  0
LINE
  5
131F
330
1D9
100
AcDbEntity
  8
0
100
AcDbLine
 10
1795.0
 20
910.9999999999963
 30
0.0
 11
1794.0
 21
909.9999999999964
 31
0.0
  0
LINE
  5
1320
330
1D9
100
AcDbEntity
  8
0
100
AcDbLine
 10
1755.0
 20
1116.499999999996
 30
0.0
 11
1755.0
 21
1089.499999999996
 31
0.0
  0
LINE
  5
1321
330
1D9
100
AcDbEntity
  8
0
100
AcDbLine
 10
1754.0
 20
1088.499999999996
 30
0.0
 11
1755.0
 21
1089.499999999996
 31
0.0
  0
LINE
  5
1322
330
1D9
100
AcDbEntity
  8
0
100
AcDbLine
 10
1752.320508075688
 20
1146.499999999996
 30
0.0
 11
1752.320508075688
 21
1154.599999999996
 31
0.0
  0
LINE
  5
1323
330
1D9
100
AcDbEntity
  8
0
100
AcDbLine
 10
1755.0
 20
1145.499999999996
 30
0.0
 11
1754.0
 21
1146.499999999996
 31
0.0
  0
LINE
  5
1324
330
1D9
100
AcDbEntity
  8
0
100
AcDbLine
 10
1754.0
 20
1122.499999999996
 30
0.0
 11
1755.0
 21
1123.499999999996
 31
0.0
  0
LINE
  5
1325
330
1D9
100
AcDbEntity
  8
0
100
AcDbLine
 10
1755.0
 20
1116.499999999996
 30
0.0
 11
1754.0
 21
1117.499999999996
 31
0.0
  0
LINE
  5
1326
330
1D9
100
AcDbEntity
  8
0
100
AcDbLine
 10
1755.0
 20
1123.499999999996
 30
0.0
 11
1755.0
 21
1145.499999999996
 31
0.0
  0
LINE
  5
1327
330
1D9
100
AcDbEntity
  8
0
100
AcDbLine
 10
1755.0
 20
1314.499999999996
 30
0.0
 11
1754.0
 21
1313.499999999996
 31
0.0
  0
LINE
  5
1328
330
1D9
100
AcDbEntity
  8
0
100
AcDbLine
 10
1752.320508075688
 20
1313.499999999996
 30
0.0
 11
1752.320508075688
 21
1305.399999999996
 31
0.0
  0
LINE
  5
1329
330
1D9
100
AcDbEntity
  8
0
100
AcDbLine
 10
1754.000000000001
 20
1371.499999999996
 30
0.0
 11
1531.0
 21
1371.499999999996
 31
0.0
  0
LINE
  5
132A
330
1D9
100
AcDbEntity
  8
0
100
AcDbLine
 10
1531.0
 20
1342.499999999996
 30
0.0
 11
1754.0
 21
1342.499999999996
 31
0.0
  0
LINE
  5
132B
330
1D9
100
AcDbEntity
  8
0
100
AcDbLine
 10
1531.0
 20
1337.499999999996
 30
0.0
 11
1754.0
 21
1337.499999999996
 31
0.0
  0
LINE
  5
132C
330
1D9
100
AcDbEntity
  8
0
100
AcDbLine
 10
1059.0
 20
1346.499999999996
 30
0.0
 11
861.000000000001
 21
1346.499999999996
 31
0.0
  0
LINE
  5
132D
330
1D9
100
AcDbEntity
  8
0
100
AcDbLine
 10
896.0000000000004
 20
1354.499999999996
 30
0.0
 11
1024.0
 21
1354.499999999996
 31
0.0
  0
LINE
  5
132E
330
1D9
100
AcDbEntity
  8
0
100
AcDbLine
 10
915.5000000000002
 20
1357.499999999996
 30
0.0
 11
1004.500000000001
 21
1357.499999999996
 31
0.0
  0
LINE
  5
132F
330
1D9
100
AcDbEntity
  8
0
100
AcDbLine
 10
861.000000000001
 20
1346.499999999996
 30
0.0
 11
860.0000000000008
 21
1345.499999999996
 31
0.0
  0
LINE
  5
1330
330
1D9
100
AcDbEntity
  8
0
100
AcDbLine
 10
895.0000000000002
 20
1353.499999999996
 30
0.0
 11
895.0000000000002
 21
1346.499999999996
 31
0.0
  0
LINE
  5
1331
330
1D9
100
AcDbEntity
  8
0
100
AcDbLine
 10
896.0000000000004
 20
1354.499999999996
 30
0.0
 11
895.0000000000002
 21
1353.499999999996
 31
0.0
  0
LINE
  5
1332
330
1D9
100
AcDbEntity
  8
0
100
AcDbLine
 10
915.5000000000002
 20
1357.499999999996
 30
0.0
 11
915.4999999999999
 21
1354.499999999996
 31
0.0
  0
LINE
  5
1333
330
1D9
100
AcDbEntity
  8
0
100
AcDbLine
 10
907.5000000000002
 20
1360.499999999996
 30
0.0
 11
907.5000000000002
 21
1340.499999999996
 31
0.0
  0
LINE
  5
1334
330
1D9
100
AcDbEntity
  8
0
100
AcDbLine
 10
1025.0
 20
1353.499999999996
 30
0.0
 11
1025.0
 21
1346.499999999996
 31
0.0
  0
LINE
  5
1335
330
1D9
100
AcDbEntity
  8
0
100
AcDbLine
 10
1024.0
 20
1354.499999999996
 30
0.0
 11
1025.0
 21
1353.499999999996
 31
0.0
  0
LINE
  5
1336
330
1D9
100
AcDbEntity
  8
0
100
AcDbLine
 10
1004.500000000001
 20
1357.499999999996
 30
0.0
 11
1004.499999999999
 21
1354.499999999996
 31
0.0
  0
LINE
  5
1337
330
1D9
100
AcDbEntity
  8
0
100
AcDbLine
 10
1012.499999999999
 20
1360.499999999996
 30
0.0
 11
1012.499999999999
 21
1340.499999999996
 31
0.0
  0
LINE
  5
1338
330
1D9
100
AcDbEntity
  8
0
100
AcDbLine
 10
1059.0
 20
1346.499999999996
 30
0.0
 11
1060.0
 21
1345.499999999996
 31
0.0
  0
LINE
  5
1339
330
1D9
100
AcDbEntity
  8
0
100
AcDbLine
 10
1566.0
 20
1379.499999999996
 30
0.0
 11
1719.000000000001
 21
1379.499999999996
 31
0.0
  0
LINE
  5
133A
330
1D9
100
AcDbEntity
  8
0
100
AcDbLine
 10
1530.0
 20
1343.499999999996
 30
0.0
 11
1530.0
 21
1370.499999999996
 31
0.0
  0
LINE
  5
133B
330
1D9
100
AcDbEntity
  8
0
100
AcDbLine
 10
1530.0
 20
1343.499999999996
 30
0.0
 11
1531.0
 21
1342.499999999996
 31
0.0
  0
LINE
  5
133C
330
1D9
100
AcDbEntity
  8
0
100
AcDbLine
 10
1582.500000000001
 20
1385.499999999996
 30
0.0
 11
1582.5
 21
1365.499999999996
 31
0.0
  0
LINE
  5
133D
330
1D9
100
AcDbEntity
  8
0
100
AcDbLine
 10
1565.0
 20
1378.499999999996
 30
0.0
 11
1565.0
 21
1371.499999999996
 31
0.0
  0
LINE
  5
133E
330
1D9
100
AcDbEntity
  8
0
100
AcDbLine
 10
1566.0
 20
1379.499999999996
 30
0.0
 11
1565.0
 21
1378.499999999996
 31
0.0
  0
LINE
  5
133F
330
1D9
100
AcDbEntity
  8
0
100
AcDbLine
 10
1531.0
 20
1371.499999999996
 30
0.0
 11
1530.0
 21
1370.499999999996
 31
0.0
  0
LINE
  5
1340
330
1D9
100
AcDbEntity
  8
0
100
AcDbLine
 10
1531.0
 20
1337.499999999996
 30
0.0
 11
1530.0
 21
1336.499999999996
 31
0.0
  0
LINE
  5
1341
330
1D9
100
AcDbEntity
  8
0
100
AcDbLine
 10
1541.350009999999
 20
1337.500009999996
 30
0.0
 11
1541.350009999999
 21
1342.499999999996
 31
0.0
  0
LINE
  5
1342
330
1D9
100
AcDbEntity
  8
0
100
AcDbLine
 10
1539.999999999999
 20
1342.499999999996
 30
0.0
 11
1540.0
 21
1337.500009999996
 31
0.0
  0
LINE
  5
1343
330
1D9
100
AcDbEntity
  8
0
100
AcDbLine
 10
1558.65001
 20
1337.500009999996
 30
0.0
 11
1558.65001
 21
1342.499999999996
 31
0.0
  0
LINE
  5
1344
330
1D9
100
AcDbEntity
  8
0
100
AcDbLine
 10
1560.000019999999
 20
1342.499999999996
 30
0.0
 11
1560.00002
 21
1337.500009999996
 31
0.0
  0
LINE
  5
1345
330
1D9
100
AcDbEntity
  8
0
100
AcDbLine
 10
1587.092642740244
 20
1342.499999999996
 30
0.0
 11
1587.092642740245
 21
1337.500009999996
 31
0.0
  0
LINE
  5
1346
330
1D9
100
AcDbEntity
  8
0
100
AcDbLine
 10
1585.742632740245
 20
1337.500009999996
 30
0.0
 11
1585.742632740245
 21
1342.499999999996
 31
0.0
  0
LINE
  5
1347
330
1D9
100
AcDbEntity
  8
0
100
AcDbLine
 10
1567.092622740244
 20
1342.499999999996
 30
0.0
 11
1567.092622740245
 21
1337.500009999996
 31
0.0
  0
LINE
  5
1348
330
1D9
100
AcDbEntity
  8
0
100
AcDbLine
 10
1568.442632740245
 20
1337.500009999996
 30
0.0
 11
1568.442632740245
 21
1342.499999999996
 31
0.0
  0
LINE
  5
1349
330
1D9
100
AcDbEntity
  8
0
100
AcDbLine
 10
1590.5
 20
1382.499999999996
 30
0.0
 11
1694.500000000001
 21
1382.499999999996
 31
0.0
  0
LINE
  5
134A
330
1D9
100
AcDbEntity
  8
0
100
AcDbLine
 10
1590.500000000001
 20
1379.499999999996
 30
0.0
 11
1590.5
 21
1382.499999999996
 31
0.0
  0
LINE
  5
134B
330
1D9
100
AcDbEntity
  8
0
100
AcDbLine
 10
1600.073593128808
 20
1385.499999999996
 30
0.0
 11
1600.073593128807
 21
1365.499999999995
 31
0.0
  0
LINE
  5
134C
330
1D9
100
AcDbEntity
  8
0
100
AcDbLine
 10
1652.500019999999
 20
1342.499999999996
 30
0.0
 11
1652.50002
 21
1337.500009999996
 31
0.0
  0
LINE
  5
134D
330
1D9
100
AcDbEntity
  8
0
100
AcDbLine
 10
1651.15001
 20
1337.500009999996
 30
0.0
 11
1651.15001
 21
1342.499999999996
 31
0.0
  0
LINE
  5
134E
330
1D9
100
AcDbEntity
  8
0
100
AcDbLine
 10
1632.499999999999
 20
1342.499999999996
 30
0.0
 11
1632.5
 21
1337.500009999996
 31
0.0
  0
LINE
  5
134F
330
1D9
100
AcDbEntity
  8
0
100
AcDbLine
 10
1633.850009999999
 20
1337.500009999996
 30
0.0
 11
1633.850009999999
 21
1342.499999999996
 31
0.0
  0
LINE
  5
1350
330
1D9
100
AcDbEntity
  8
0
100
AcDbLine
 10
1694.500000000001
 20
1379.499999999996
 30
0.0
 11
1694.500000000001
 21
1382.499999999996
 31
0.0
  0
LINE
  5
1351
330
1D9
100
AcDbEntity
  8
0
100
AcDbLine
 10
1719.0
 20
1379.499999999996
 30
0.0
 11
1720.0
 21
1378.499999999996
 31
0.0
  0
LINE
  5
1352
330
1D9
100
AcDbEntity
  8
0
100
AcDbLine
 10
1720.0
 20
1378.499999999996
 30
0.0
 11
1720.0
 21
1371.499999999996
 31
0.0
  0
LINE
  5
1353
330
1D9
100
AcDbEntity
  8
0
100
AcDbLine
 10
1702.499999999999
 20
1385.499999999996
 30
0.0
 11
1702.499999999999
 21
1365.499999999996
 31
0.0
  0
LINE
  5
1354
330
1D9
100
AcDbEntity
  8
0
100
AcDbLine
 10
1684.926406871191
 20
1385.499999999996
 30
0.0
 11
1684.926406871192
 21
1365.499999999995
 31
0.0
  0
LINE
  5
1355
330
1D9
100
AcDbEntity
  8
0
100
AcDbLine
 10
1716.557367259754
 20
1337.500009999996
 30
0.0
 11
1716.557367259754
 21
1342.499999999996
 31
0.0
  0
LINE
  5
1356
330
1D9
100
AcDbEntity
  8
0
100
AcDbLine
 10
1717.907377259754
 20
1342.499999999996
 30
0.0
 11
1717.907377259754
 21
1337.500009999996
 31
0.0
  0
LINE
  5
1357
330
1D9
100
AcDbEntity
  8
0
100
AcDbLine
 10
1699.257367259755
 20
1337.500009999996
 30
0.0
 11
1699.257367259754
 21
1342.499999999996
 31
0.0
  0
LINE
  5
1358
330
1D9
100
AcDbEntity
  8
0
100
AcDbLine
 10
1697.907357259754
 20
1342.499999999996
 30
0.0
 11
1697.907357259754
 21
1337.500009999996
 31
0.0
  0
LINE
  5
1359
330
1D9
100
AcDbEntity
  8
0
100
AcDbLine
 10
1724.99998
 20
1342.499999999996
 30
0.0
 11
1724.99998
 21
1337.500009999996
 31
0.0
  0
LINE
  5
135A
330
1D9
100
AcDbEntity
  8
0
100
AcDbLine
 10
1726.34999
 20
1337.500009999996
 30
0.0
 11
1726.349989999999
 21
1342.499999999996
 31
0.0
  0
LINE
  5
135B
330
1D9
100
AcDbEntity
  8
0
100
AcDbLine
 10
1745.0
 20
1342.499999999996
 30
0.0
 11
1745.0
 21
1337.500009999996
 31
0.0
  0
LINE
  5
135C
330
1D9
100
AcDbEntity
  8
0
100
AcDbLine
 10
1743.649989999999
 20
1337.500009999996
 30
0.0
 11
1743.649989999999
 21
1342.499999999996
 31
0.0
  0
LINE
  5
135D
330
1D9
100
AcDbEntity
  8
0
100
AcDbLine
 10
1755.0
 20
1343.499999999996
 30
0.0
 11
1755.0
 21
1370.499999999996
 31
0.0
  0
LINE
  5
135E
330
1D9
100
AcDbEntity
  8
0
100
AcDbLine
 10
1755.0
 20
1343.499999999996
 30
0.0
 11
1754.0
 21
1342.499999999996
 31
0.0
  0
LINE
  5
135F
330
1D9
100
AcDbEntity
  8
0
100
AcDbLine
 10
1754.0
 20
1371.499999999996
 30
0.0
 11
1755.0
 21
1370.499999999996
 31
0.0
  0
LINE
  5
1360
330
1D9
100
AcDbEntity
  8
0
100
AcDbLine
 10
1754.0
 20
1337.499999999996
 30
0.0
 11
1755.0
 21
1336.499999999996
 31
0.0
  0
LINE
  5
14EA
330
1D9
100
AcDbEntity
  8
0
100
AcDbLine
 10
1030.499999999999
 20
954.9999999999954
 30
0.0
 11
1154.0
 21
954.9999999999954
 31
0.0
  0
LINE
  5
14EB
330
1D9
100
AcDbEntity
  8
0
100
AcDbLine
 10
1030.499999999999
 20
639.9999999999972
 30
0.0
 11
1154.0
 21
639.9999999999972
 31
0.0
  0
LINE
  5
14EC
330
1D9
100
AcDbEntity
  8
0
100
AcDbLine
 10
1145.0
 20
944.9999999999954
 30
0.0
 11
1145.0
 21
649.9999999999972
 31
0.0
  0
LINE
  5
14F0
330
1D9
100
AcDbEntity
  8
0
100
AcDbLine
 10
1005.000000000001
 20
1357.499999999996
 30
0.0
 11
1119.000000000001
 21
1357.499999999996
 31
0.0
  0
LINE
  5
14F1
330
1D9
100
AcDbEntity
  8
0
100
AcDbLine
 10
1005.000000000001
 20
1102.499999999996
 30
0.0
 11
1119.000000000001
 21
1102.499999999996
 31
0.0
  0
LINE
  5
14F2
330
1D9
100
AcDbEntity
  8
0
100
AcDbLine
 10
1110.0
 20
1347.499999999995
 30
0.0
 11
1110.0
 21
1112.499999999996
 31
0.0
  0
LINE
  5
14F6
330
1D9
100
AcDbEntity
  8
0
100
AcDbLine
 10
397.5000000000018
 20
949.9999999999964
 30
0.0
 11
506.5000000000003
 21
949.9999999999964
 31
0.0
  0
LINE
  5
14F7
330
1D9
100
AcDbEntity
  8
0
100
AcDbLine
 10
397.5000000000018
 20
644.9999999999962
 30
0.0
 11
506.5000000000003
 21
644.9999999999962
 31
0.0
  0
LINE
  5
14F8
330
1D9
100
AcDbEntity
  8
0
100
AcDbLine
 10
497.5000000000004
 20
939.9999999999963
 30
0.0
 11
497.5000000000004
 21
654.9999999999962
 31
0.0
  0
LINE
  5
14FC
330
1D9
100
AcDbEntity
  8
0
100
AcDbLine
 10
352.3205080756891
 20
722.0999999999961
 30
0.0
 11
352.3205080756891
 21
713.9999999999964
 31
0.0
  0
LINE
  5
14FD
330
1D9
100
AcDbEntity
  8
0
100
AcDbLine
 10
317.6794919243116
 20
713.9999999999964
 30
0.0
 11
317.6794919243116
 21
722.0999999999961
 31
0.0
  0
LINE
  5
14FE
330
1D9
100
AcDbEntity
  8
0
100
AcDbLine
 10
322.0096189432338
 20
726.4999999999964
 30
0.0
 11
347.990381056767
 21
726.4999999999964
 31
0.0
  0
LINE
  5
14FF
330
1D9
100
AcDbEntity
  8
0
100
AcDbLine
 10
343.6602540378448
 20
713.9999999999964
 30
0.0
 11
343.6602540378448
 21
722.0999999999961
 31
0.0
  0
LINE
  5
1500
330
1D9
100
AcDbEntity
  8
0
100
AcDbLine
 10
326.3397459621561
 20
713.9999999999964
 30
0.0
 11
326.3397459621561
 21
722.0999999999961
 31
0.0
  0
ARC
  5
1501
330
1D9
100
AcDbEntity
  8
0
100
AcDbCircle
 10
322.0096189432338
 20
722.1693181818145
 30
0.0
 40
4.330681818181814
100
AcDbArc
 50
359.0828675395623
 51
180.9171324604374
  0
ARC
  5
1502
330
1D9
100
AcDbEntity
  8
0
100
AcDbCircle
 10
335.0000000000004
 20
715.7772727272689
 30
0.0
 40
10.72272727272727
100
AcDbArc
 50
36.13264570574195
 51
143.867354294258
  0
ARC
  5
1503
330
1D9
100
AcDbEntity
  8
0
100
AcDbCircle
 10
347.990381056767
 20
722.1693181818145
 30
0.0
 40
4.330681818181816
100
AcDbArc
 50
359.0828675395623
 51
180.9171324604374
  0
LINE
  5
1504
330
1D9
100
AcDbEntity
  8
0
100
AcDbLine
 10
437.0000000000003
 20
462.5
 30
0.0
 11
569.0000000000005
 21
462.5
 31
0.0
  0
LINE
  5
1505
330
1D9
100
AcDbEntity
  8
0
100
AcDbLine
 10
437.0000000000003
 20
122.5
 30
0.0
 11
569.0000000000003
 21
122.4999999999998
 31
0.0
  0
LINE
  5
1506
330
1D9
100
AcDbEntity
  8
0
100
AcDbLine
 10
560.0000000000005
 20
452.5
 30
0.0
 11
560.0000000000003
 21
132.4999999999999
 31
0.0
  0
LINE
  5
150A
330
1D9
100
AcDbEntity
  8
0
100
AcDbLine
 10
377.5000000000008
 20
1357.499999999997
 30
0.0
 11
481.5000000000003
 21
1357.499999999997
 31
0.0
  0
LINE
  5
150B
330
1D9
100
AcDbEntity
  8
0
100
AcDbLine
 10
377.5000000000008
 20
1102.499999999995
 30
0.0
 11
481.5000000000003
 21
1102.499999999995
 31
0.0
  0
LINE
  5
150C
330
1D9
100
AcDbEntity
  8
0
100
AcDbLine
 10
472.5000000000004
 20
1347.499999999996
 30
0.0
 11
472.5000000000004
 21
1112.499999999995
 31
0.0
  0
LINE
  5
1510
330
1D9
100
AcDbEntity
  8
0
100
AcDbLine
 10
352.3205080756891
 20
872.8999999999961
 30
0.0
 11
352.3205080756891
 21
880.9999999999961
 31
0.0
  0
LINE
  5
1511
330
1D9
100
AcDbEntity
  8
0
100
AcDbLine
 10
317.6794919243116
 20
880.9999999999961
 30
0.0
 11
317.6794919243116
 21
872.8999999999961
 31
0.0
  0
LINE
  5
1512
330
1D9
100
AcDbEntity
  8
0
100
AcDbLine
 10
322.0096189432338
 20
868.4999999999961
 30
0.0
 11
347.990381056767
 21
868.4999999999961
 31
0.0
  0
LINE
  5
1513
330
1D9
100
AcDbEntity
  8
0
100
AcDbLine
 10
343.6602540378448
 20
880.9999999999961
 30
0.0
 11
343.6602540378448
 21
872.8999999999961
 31
0.0
  0
LINE
  5
1514
330
1D9
100
AcDbEntity
  8
0
100
AcDbLine
 10
326.3397459621561
 20
880.9999999999961
 30
0.0
 11
326.3397459621561
 21
872.8999999999961
 31
0.0
  0
ARC
  5
1515
330
1D9
100
AcDbEntity
  8
0
100
AcDbCircle
 10
322.0096189432338
 20
872.830681818178
 30
0.0
 40
4.330681818181814
100
AcDbArc
 50
179.0828675395624
 51
0.9171324604375683
  0
ARC
  5
1516
330
1D9
100
AcDbEntity
  8
0
100
AcDbCircle
 10
335.0000000000004
 20
879.2227272727236
 30
0.0
 40
10.72272727272727
100
AcDbArc
 50
216.1326457057419
 51
323.867354294258
  0
ARC
  5
1517
330
1D9
100
AcDbEntity
  8
0
100
AcDbCircle
 10
347.990381056767
 20
872.830681818178
 30
0.0
 40
4.330681818181816
100
AcDbArc
 50
179.0828675395624
 51
0.9171324604375683
  0
LINE
  5
1518
330
1D9
100
AcDbEntity
  8
0
100
AcDbLine
 10
1725.5
 20
954.9999999999959
 30
0.0
 11
1854.0
 21
954.9999999999956
 31
0.0
  0
LINE
  5
1519
330
1D9
100
AcDbEntity
  8
0
100
AcDbLine
 10
1725.5
 20
639.9999999999967
 30
0.0
 11
1854.0
 21
639.9999999999967
 31
0.0
  0
LINE
  5
151A
330
1D9
100
AcDbEntity
  8
0
100
AcDbLine
 10
1845.0
 20
944.9999999999956
 30
0.0
 11
1845.0
 21
649.9999999999967
 31
0.0
  0
LINE
  5
151E
330
1D9
100
AcDbEntity
  8
0
100
AcDbLine
 10
1079.5
 20
467.4999999999995
 30
0.0
 11
1234.0
 21
467.4999999999995
 31
0.0
  0
LINE
  5
151F
330
1D9
100
AcDbEntity
  8
0
100
AcDbLine
 10
1079.5
 20
117.5000000000004
 30
0.0
 11
1234.0
 21
117.5000000000004
 31
0.0
  0
LINE
  5
1520
330
1D9
100
AcDbEntity
  8
0
100
AcDbLine
 10
1225.0
 20
457.4999999999993
 30
0.0
 11
1225.0
 21
127.5000000000003
 31
0.0
  0
LINE
  5
1524
330
1D9
100
AcDbEntity
  8
0
100
AcDbLine
 10
1784.499999999999
 20
467.5000000000004
 30
0.0
 11
1941.499999999999
 21
467.5000000000004
 31
0.0
  0
LINE
  5
1525
330
1D9
100
AcDbEntity
  8
0
100
AcDbLine
 10
1784.499999999999
 20
117.4999999999995
 30
0.0
 11
1941.499999999999
 21
117.4999999999995
 31
0.0
  0
LINE
  5
1526
330
1D9
100
AcDbEntity
  8
0
100
AcDbLine
 10
1932.5
 20
457.5000000000002
 30
0.0
 11
1932.5
 21
127.4999999999995
 31
0.0
  0
LINE
  5
152A
330
1D9
100
AcDbEntity
  8
0
100
AcDbLine
 10
1695.000000000001
 20
1382.499999999996
 30
0.0
 11
1814.0
 21
1382.499999999996
 31
0.0
  0
LINE
  5
152B
330
1D9
100
AcDbEntity
  8
0
100
AcDbLine
 10
1695.000000000001
 20
1077.499999999996
 30
0.0
 11
1814.0
 21
1077.499999999996
 31
0.0
  0
LINE
  5
152C
330
1D9
100
AcDbEntity
  8
0
100
AcDbLine
 10
1805.0
 20
1372.499999999996
 30
0.0
 11
1805.0
 21
1087.499999999996
 31
0.0
  0
TEXT
  5
1530
330
1D9
100
AcDbEntity
  8
0
100
AcDbText
 10
552.5000000000003
 20
273.75
 30
0.0
 40
15.0
  1
340
 50
90.0
100
AcDbText
  0
LINE
  5
1531
330
1D9
100
AcDbEntity
  8
0
100
AcDbLine
 10
560.0000000000003
 20
122.4999999999998
 30
0.0
 11
557.3205080756894
 21
132.4999999999999
 31
0.0
  0
LINE
  5
1532
330
1D9
100
AcDbEntity
  8
0
100
AcDbLine
 10
560.0000000000003
 20
122.4999999999998
 30
0.0
 11
562.6794919243113
 21
132.4999999999999
 31
0.0
  0
LINE
  5
1533
330
1D9
100
AcDbEntity
  8
0
100
AcDbLine
 10
560.0000000000003
 20
132.4999999999999
 30
0.0
 11
560.0000000000003
 21
122.4999999999998
 31
0.0
  0
LINE
  5
1534
330
1D9
100
AcDbEntity
  8
0
100
AcDbLine
 10
560.0000000000005
 20
462.5
 30
0.0
 11
562.6794919243116
 21
452.5
 31
0.0
  0
LINE
  5
1535
330
1D9
100
AcDbEntity
  8
0
100
AcDbLine
 10
560.0000000000005
 20
462.5
 30
0.0
 11
557.3205080756894
 21
452.5
 31
0.0
  0
LINE
  5
1536
330
1D9
100
AcDbEntity
  8
0
100
AcDbLine
 10
560.0000000000005
 20
452.5
 30
0.0
 11
560.0000000000005
 21
462.5
 31
0.0
  0
LINE
  5
1537
330
1D9
100
AcDbEntity
  8
0
100
AcDbLine
 10
497.5000000000004
 20
644.9999999999962
 30
0.0
 11
494.8205080756894
 21
654.9999999999962
 31
0.0
  0
LINE
  5
1538
330
1D9
100
AcDbEntity
  8
0
100
AcDbLine
 10
497.5000000000004
 20
644.9999999999962
 30
0.0
 11
500.1794919243113
 21
654.9999999999962
 31
0.0
  0
LINE
  5
1539
330
1D9
100
AcDbEntity
  8
0
100
AcDbLine
 10
497.5000000000004
 20
654.9999999999962
 30
0.0
 11
497.5000000000004
 21
644.9999999999962
 31
0.0
  0
TEXT
  5
153A
330
1D9
100
AcDbEntity
  8
0
100
AcDbText
 10
490.0000000000003
 20
778.7499999999965
 30
0.0
 40
15.0
  1
305
 50
90.0
100
AcDbText
  0
LINE
  5
153B
330
1D9
100
AcDbEntity
  8
0
100
AcDbLine
 10
497.5000000000004
 20
949.9999999999964
 30
0.0
 11
500.1794919243115
 21
939.9999999999963
 31
0.0
  0
LINE
  5
153C
330
1D9
100
AcDbEntity
  8
0
100
AcDbLine
 10
497.5000000000004
 20
949.9999999999964
 30
0.0
 11
494.8205080756895
 21
939.9999999999963
 31
0.0
  0
LINE
  5
153D
330
1D9
100
AcDbEntity
  8
0
100
AcDbLine
 10
497.5000000000004
 20
939.9999999999963
 30
0.0
 11
497.5000000000004
 21
949.9999999999964
 31
0.0
  0
LINE
  5
153E
330
1D9
100
AcDbEntity
  8
0
100
AcDbLine
 10
472.5000000000004
 20
1102.499999999995
 30
0.0
 11
469.8205080756894
 21
1112.499999999995
 31
0.0
  0
LINE
  5
153F
330
1D9
100
AcDbEntity
  8
0
100
AcDbLine
 10
472.5000000000004
 20
1102.499999999995
 30
0.0
 11
475.1794919243113
 21
1112.499999999995
 31
0.0
  0
LINE
  5
1540
330
1D9
100
AcDbEntity
  8
0
100
AcDbLine
 10
472.5000000000004
 20
1112.499999999995
 30
0.0
 11
472.5000000000004
 21
1102.499999999995
 31
0.0
  0
TEXT
  5
1541
330
1D9
100
AcDbEntity
  8
0
100
AcDbText
 10
465.0000000000003
 20
1209.999999999995
 30
0.0
 40
15.0
  1
255
 50
90.0
100
AcDbText
  0
LINE
  5
1542
330
1D9
100
AcDbEntity
  8
0
100
AcDbLine
 10
472.5000000000004
 20
1357.499999999997
 30
0.0
 11
475.1794919243115
 21
1347.499999999996
 31
0.0
  0
LINE
  5
1543
330
1D9
100
AcDbEntity
  8
0
100
AcDbLine
 10
472.5000000000004
 20
1357.499999999997
 30
0.0
 11
469.8205080756895
 21
1347.499999999996
 31
0.0
  0
LINE
  5
1544
330
1D9
100
AcDbEntity
  8
0
100
AcDbLine
 10
472.5000000000004
 20
1347.499999999996
 30
0.0
 11
472.5000000000004
 21
1357.499999999997
 31
0.0
  0
TEXT
  5
1545
330
1D9
100
AcDbEntity
  8
0
100
AcDbText
 10
1217.5
 20
273.75
 30
0.0
 40
15.0
  1
350
 50
90.0
100
AcDbText
  0
LINE
  5
1546
330
1D9
100
AcDbEntity
  8
0
100
AcDbLine
 10
1225.0
 20
117.5000000000004
 30
0.0
 11
1222.320508075688
 21
127.5000000000003
 31
0.0
  0
LINE
  5
1547
330
1D9
100
AcDbEntity
  8
0
100
AcDbLine
 10
1225.0
 20
117.5000000000004
 30
0.0
 11
1227.679491924311
 21
127.5000000000003
 31
0.0
  0
LINE
  5
1548
330
1D9
100
AcDbEntity
  8
0
100
AcDbLine
 10
1225.0
 20
127.5000000000003
 30
0.0
 11
1225.0
 21
117.5000000000004
 31
0.0
  0
LINE
  5
1549
330
1D9
100
AcDbEntity
  8
0
100
AcDbLine
 10
1225.0
 20
467.4999999999995
 30
0.0
 11
1227.679491924311
 21
457.4999999999993
 31
0.0
  0
LINE
  5
154A
330
1D9
100
AcDbEntity
  8
0
100
AcDbLine
 10
1225.0
 20
467.4999999999995
 30
0.0
 11
1222.320508075688
 21
457.4999999999993
 31
0.0
  0
LINE
  5
154B
330
1D9
100
AcDbEntity
  8
0
100
AcDbLine
 10
1225.0
 20
457.4999999999993
 30
0.0
 11
1225.0
 21
467.4999999999995
 31
0.0
  0
LINE
  5
154C
330
1D9
100
AcDbEntity
  8
0
100
AcDbLine
 10
1145.0
 20
639.9999999999972
 30
0.0
 11
1142.320508075688
 21
649.9999999999972
 31
0.0
  0
LINE
  5
154D
330
1D9
100
AcDbEntity
  8
0
100
AcDbLine
 10
1145.0
 20
639.9999999999972
 30
0.0
 11
1147.679491924311
 21
649.9999999999972
 31
0.0
  0
LINE
  5
154E
330
1D9
100
AcDbEntity
  8
0
100
AcDbLine
 10
1145.0
 20
649.9999999999972
 30
0.0
 11
1145.0
 21
639.9999999999972
 31
0.0
  0
TEXT
  5
154F
330
1D9
100
AcDbEntity
  8
0
100
AcDbText
 10
1925.0
 20
273.7500000000001
 30
0.0
 40
15.0
  1
350
 50
90.0
100
AcDbText
  0
LINE
  5
1550
330
1D9
100
AcDbEntity
  8
0
100
AcDbLine
 10
1932.5
 20
117.4999999999995
 30
0.0
 11
1929.820508075689
 21
127.4999999999995
 31
0.0
  0
LINE
  5
1551
330
1D9
100
AcDbEntity
  8
0
100
AcDbLine
 10
1932.5
 20
117.4999999999995
 30
0.0
 11
1935.17949192431
 21
127.4999999999995
 31
0.0
  0
LINE
  5
1552
330
1D9
100
AcDbEntity
  8
0
100
AcDbLine
 10
1932.5
 20
127.4999999999995
 30
0.0
 11
1932.5
 21
117.4999999999995
 31
0.0
  0
LINE
  5
1553
330
1D9
100
AcDbEntity
  8
0
100
AcDbLine
 10
1932.5
 20
467.5000000000004
 30
0.0
 11
1935.17949192431
 21
457.5000000000002
 31
0.0
  0
LINE
  5
1554
330
1D9
100
AcDbEntity
  8
0
100
AcDbLine
 10
1932.5
 20
467.5000000000004
 30
0.0
 11
1929.820508075689
 21
457.5000000000002
 31
0.0
  0
LINE
  5
1555
330
1D9
100
AcDbEntity
  8
0
100
AcDbLine
 10
1932.5
 20
457.5000000000002
 30
0.0
 11
1932.5
 21
467.5000000000004
 31
0.0
  0
LINE
  5
1556
330
1D9
100
AcDbEntity
  8
0
100
AcDbLine
 10
1845.0
 20
639.9999999999967
 30
0.0
 11
1842.320508075689
 21
649.9999999999967
 31
0.0
  0
LINE
  5
1557
330
1D9
100
AcDbEntity
  8
0
100
AcDbLine
 10
1845.0
 20
639.9999999999967
 30
0.0
 11
1847.67949192431
 21
649.9999999999967
 31
0.0
  0
LINE
  5
1558
330
1D9
100
AcDbEntity
  8
0
100
AcDbLine
 10
1845.0
 20
649.9999999999967
 30
0.0
 11
1845.0
 21
639.9999999999967
 31
0.0
  0
TEXT
  5
1559
330
1D9
100
AcDbEntity
  8
0
100
AcDbText
 10
1137.499999999999
 20
779.9999999999965
 30
0.0
 40
15.0
  1
315
 50
90.0
100
AcDbText
  0
LINE
  5
155A
330
1D9
100
AcDbEntity
  8
0
100
AcDbLine
 10
1145.0
 20
954.9999999999954
 30
0.0
 11
1147.679491924311
 21
944.9999999999954
 31
0.0
  0
LINE
  5
155B
330
1D9
100
AcDbEntity
  8
0
100
AcDbLine
 10
1145.0
 20
954.9999999999954
 30
0.0
 11
1142.320508075688
 21
944.9999999999954
 31
0.0
  0
LINE
  5
155C
330
1D9
100
AcDbEntity
  8
0
100
AcDbLine
 10
1145.0
 20
944.9999999999954
 30
0.0
 11
1145.0
 21
954.9999999999954
 31
0.0
  0
LINE
  5
155D
330
1D9
100
AcDbEntity
  8
0
100
AcDbLine
 10
1110.0
 20
1102.499999999996
 30
0.0
 11
1107.32050807569
 21
1112.499999999996
 31
0.0
  0
LINE
  5
155E
330
1D9
100
AcDbEntity
  8
0
100
AcDbLine
 10
1110.0
 20
1102.499999999996
 30
0.0
 11
1112.679491924312
 21
1112.499999999996
 31
0.0
  0
LINE
  5
155F
330
1D9
100
AcDbEntity
  8
0
100
AcDbLine
 10
1110.0
 20
1112.499999999996
 30
0.0
 11
1110.0
 21
1102.499999999996
 31
0.0
  0
TEXT
  5
1560
330
1D9
100
AcDbEntity
  8
0
100
AcDbText
 10
1102.5
 20
1209.999999999996
 30
0.0
 40
15.0
  1
255
 50
90.0
100
AcDbText
  0
LINE
  5
1561
330
1D9
100
AcDbEntity
  8
0
100
AcDbLine
 10
1110.0
 20
1357.499999999996
 30
0.0
 11
1112.679491924311
 21
1347.499999999995
 31
0.0
  0
LINE
  5
1562
330
1D9
100
AcDbEntity
  8
0
100
AcDbLine
 10
1110.0
 20
1357.499999999996
 30
0.0
 11
1107.320508075688
 21
1347.499999999995
 31
0.0
  0
LINE
  5
1563
330
1D9
100
AcDbEntity
  8
0
100
AcDbLine
 10
1110.0
 20
1347.499999999995
 30
0.0
 11
1110.0
 21
1357.499999999996
 31
0.0
  0
TEXT
  5
1564
330
1D9
100
AcDbEntity
  8
0
100
AcDbText
 10
1837.5
 20
779.9999999999966
 30
0.0
 40
15.0
  1
315
 50
90.0
100
AcDbText
  0
LINE
  5
1565
330
1D9
100
AcDbEntity
  8
0
100
AcDbLine
 10
1845.0
 20
954.9999999999956
 30
0.0
 11
1847.67949192431
 21
944.9999999999956
 31
0.0
  0
LINE
  5
1566
330
1D9
100
AcDbEntity
  8
0
100
AcDbLine
 10
1845.0
 20
954.9999999999956
 30
0.0
 11
1842.320508075689
 21
944.9999999999956
 31
0.0
  0
LINE
  5
1567
330
1D9
100
AcDbEntity
  8
0
100
AcDbLine
 10
1845.0
 20
944.9999999999956
 30
0.0
 11
1845.0
 21
954.9999999999956
 31
0.0
  0
LINE
  5
1568
330
1D9
100
AcDbEntity
  8
0
100
AcDbLine
 10
1805.0
 20
1077.499999999996
 30
0.0
 11
1802.320508075689
 21
1087.499999999996
 31
0.0
  0
LINE
  5
1569
330
1D9
100
AcDbEntity
  8
0
100
AcDbLine
 10
1805.0
 20
1077.499999999996
 30
0.0
 11
1807.679491924311
 21
1087.499999999996
 31
0.0
  0
LINE
  5
156A
330
1D9
100
AcDbEntity
  8
0
100
AcDbLine
 10
1805.0
 20
1087.499999999996
 30
0.0
 11
1805.0
 21
1077.499999999996
 31
0.0
  0
TEXT
  5
156B
330
1D9
100
AcDbEntity
  8
0
100
AcDbText
 10
1797.499999999999
 20
1211.249999999997
 30
0.0
 40
15.0
  1
305
 50
90.0
100
AcDbText
  0
LINE
  5
156C
330
1D9
100
AcDbEntity
  8
0
100
AcDbLine
 10
1805.0
 20
1382.499999999996
 30
0.0
 11
1807.679491924311
 21
1372.499999999996
 31
0.0
  0
LINE
  5
156D
330
1D9
100
AcDbEntity
  8
0
100
AcDbLine
 10
1805.0
 20
1382.499999999996
 30
0.0
 11
1802.320508075688
 21
1372.499999999996
 31
0.0
  0
LINE
  5
156E
330
1D9
100
AcDbEntity
  8
0
100
AcDbLine
 10
1805.0
 20
1372.499999999996
 30
0.0
 11
1805.0
 21
1382.499999999996
 31
0.0
  0
ENDSEC
  0
SECTION
  2
OBJECTS
  0
DICTIONARY
  5
1CD
330
0
100
AcDbDictionary
  3
ACAD_GROUP
350
1CE
  3
ACAD_LAYOUT
350
2DE
  3
ACAD_MLINESTYLE
350
1CF
  3
ACAD_PLOTSETTINGS
350
2DF
1001
ACAD
1000
TREAT_AS_HARD
1070
     0
  0
DICTIONARY
  5
1579
330
1D9
100
AcDbDictionary
  3
ACAD_LAYOUTSELFREF
350
157A
  0
DICTIONARY
  5
1577
330
1D6
100
AcDbDictionary
  3
ACAD_LAYOUTSELFREF
350
1578
  0
DICTIONARY
  5
1CE
102
{ACAD_REACTORS
330
1CD
102
}
330
1CD
100
AcDbDictionary
1001
ACAD
1000
TREAT_AS_HARD
1070
     0
  0
DICTIONARY
  5
2DE
102
{ACAD_REACTORS
330
1CD
102
}
330
1CD
100
AcDbDictionary
1001
ACAD
1000
TREAT_AS_HARD
1070
     0
  0
DICTIONARY
  5
1CF
102
{ACAD_REACTORS
330
1CD
102
}
330
1CD
100
AcDbDictionary
  3
STANDARD
350
1DC
1001
ACAD
1000
TREAT_AS_HARD
1070
     0
  0
DICTIONARY
  5
2DF
102
{ACAD_REACTORS
330
1CD
102
}
330
1CD
100
AcDbDictionary
1001
ACAD
1000
TREAT_AS_HARD
1070
     0
  0
XRECORD
  5
157A
102
{ACAD_REACTORS
330
1579
102
}
330
1579
100
AcDbXrecord
340
1D9
  0
XRECORD
  5
1578
102
{ACAD_REACTORS
330
1577
102
}
330
1577
100
AcDbXrecord
340
1D6
  0
MLINESTYLE
  5
1DC
102
{ACAD_REACTORS
330
1CF
102
}
330
1CF
100
AcDbMlineStyle
  2
STANDARD
 70
     0
  3

 62
     0
 51
90.0
 52
90.0
 71
     2
 49
0.5
 62
   256
  6
BYLAYER
 49
-0.5
 62
   256
  6
BYLAYER
  0
ENDSEC
  0
EOF
