  0
SECTION
  2
HEADER
  9
$ACADVER
  1
AC1021
  9
$ACADMAINTVER
 70
    50
  9
$DWGCODEPAGE
  3
ANSI_932
  9
$LASTSAVEDBY
  1
mino-t
  9
$INSBASE
 10
0.0
 20
0.0
 30
0.0
  9
$EXTMIN
 10
40.0
 20
0.0
 30
0.0
  9
$EXTMAX
 10
1995.0
 20
1420.0
 30
0.0
  9
$LIMMIN
 10
0.0
 20
0.0
  9
$LIMMAX
 10
2100.0
 20
1485.0
  9
$ORTHOMODE
 70
     1
  9
$REGENMODE
 70
     1
  9
$FILLMODE
 70
     1
  9
$QTEXTMODE
 70
     0
  9
$MIRRTEXT
 70
     0
  9
$LTSCALE
 40
40.0
  9
$ATTMODE
 70
     1
  9
$TEXTSIZE
 40
15.0
  9
$TRACEWID
 40
0.05
  9
$TEXTSTYLE
  7
STANDARD
  9
$CLAYER
  8
0
  9
$CELTYPE
  6
BYLAYER
  9
$CECOLOR
 62
   256
  9
$CELTSCALE
 40
1.0
  9
$DISPSILH
 70
     0
  9
$DIMSCALE
 40
5.0
  9
$DIMASZ
 40
2.0
  9
$DIMEXO
 40
0.1
  9
$DIMDLI
 40
7.0
  9
$DIMRND
 40
0.0
  9
$DIMDLE
 40
0.0
  9
$DIMEXE
 40
1.8
  9
$DIMTP
 40
0.0
  9
$DIMTM
 40
0.0
  9
$DIMTXT
 40
3.0
  9
$DIMCEN
 40
0.1
  9
$DIMTSZ
 40
0.0
  9
$DIMTOL
 70
     0
  9
$DIMLIM
 70
     0
  9
$DIMTIH
 70
     0
  9
$DIMTOH
 70
     0
  9
$DIMSE1
 70
     0
  9
$DIMSE2
 70
     0
  9
$DIMTAD
 70
     0
  9
$DIMZIN
 70
     9
  9
$DIMBLK
  1
YAZ1
  9
$DIMASO
 70
     1
  9
$DIMSHO
 70
     1
  9
$DIMPOST
  1

  9
$DIMAPOST
  1

  9
$DIMALT
 70
     0
  9
$DIMALTD
 70
     2
  9
$DIMALTF
 40
25.4
  9
$DIMLFAC
 40
1.0
  9
$DIMTOFL
 70
     1
  9
$DIMTVP
 40
1.0
  9
$DIMTIX
 70
     0
  9
$DIMSOXD
 70
     0
  9
$DIMSAH
 70
     1
  9
$DIMBLK1
  1
YAZ1
  9
$DIMBLK2
  1
YAZ1
  9
$DIMSTYLE
  2
YAZ1
  9
$DIMCLRD
 70
   256
  9
$DIMCLRE
 70
   256
  9
$DIMCLRT
 70
   256
  9
$DIMTFAC
 40
1.0
  9
$DIMGAP
 40
0.0
  9
$DIMJUST
 70
     0
  9
$DIMSD1
 70
     0
  9
$DIMSD2
 70
     0
  9
$DIMTOLJ
 70
     1
  9
$DIMTZIN
 70
     9
  9
$DIMALTZ
 70
     9
  9
$DIMALTTZ
 70
     9
  9
$DIMUPT
 70
     0
  9
$DIMDEC
 70
     3
  9
$DIMTDEC
 70
     3
  9
$DIMALTU
 70
     2
  9
$DIMALTTD
 70
     2
  9
$DIMTXSTY
  7
STANDARD
  9
$DIMAUNIT
 70
     0
  9
$DIMADEC
 70
     0
  9
$DIMALTRND
 40
0.0
  9
$DIMAZIN
 70
     0
  9
$DIMDSEP
 70
    46
  9
$DIMATFIT
 70
     3
  9
$DIMFRAC
 70
     0
  9
$DIMLDRBLK
  1
YAZ1
  9
$DIMLUNIT
 70
     2
  9
$DIMLWD
 70
    -2
  9
$DIMLWE
 70
    -2
  9
$DIMTMOVE
 70
     0
  9
$DIMFXL
 40
1.0
  9
$DIMFXLON
 70
     0
  9
$DIMJOGANG
 40
0.7853981633974483
  9
$DIMTFILL
 70
     0
  9
$DIMTFILLCLR
 70
     0
  9
$DIMARCSYM
 70
     0
  9
$DIMLTYPE
  6

  9
$DIMLTEX1
  6

  9
$DIMLTEX2
  6

  9
$LUNITS
 70
     2
  9
$LUPREC
 70
     3
  9
$SKETCHINC
 40
0.1
  9
$FILLETRAD
 40
0.0
  9
$AUNITS
 70
     0
  9
$AUPREC
 70
     2
  9
$MENU
  1
amecex
  9
$ELEVATION
 40
0.0
  9
$PELEVATION
 40
0.0
  9
$THICKNESS
 40
0.0
  9
$LIMCHECK
 70
     0
  9
$CHAMFERA
 40
0.0
  9
$CHAMFERB
 40
0.0
  9
$CHAMFERC
 40
0.0
  9
$CHAMFERD
 40
0.0
  9
$SKPOLY
 70
     0
  9
$TDCREATE
 40
2453412.776307871
  9
$TDUCREATE
 40
2453412.401307871
  9
$TDUPDATE
 40
2459563.668495371
  9
$TDUUPDATE
 40
2459563.293495371
  9
$TDINDWG
 40
0.1377547222
  9
$TDUSRTIMER
 40
0.1377544213
  9
$USRTIMER
 70
     1
  9
$ANGBASE
 50
0.0
  9
$ANGDIR
 70
     0
  9
$PDMODE
 70
     0
  9
$PDSIZE
 40
0.0
  9
$PLINEWID
 40
0.0
  9
$SPLFRAME
 70
     0
  9
$SPLINETYPE
 70
     6
  9
$SPLINESEGS
 70
     8
  9
$HANDSEED
  5
478
  9
$SURFTAB1
 70
     6
  9
$SURFTAB2
 70
     6
  9
$SURFTYPE
 70
     6
  9
$SURFU
 70
     6
  9
$SURFV
 70
     6
  9
$UCSBASE
  2

  9
$UCSNAME
  2

  9
$UCSORG
 10
0.0
 20
0.0
 30
0.0
  9
$UCSXDIR
 10
1.0
 20
0.0
 30
0.0
  9
$UCSYDIR
 10
0.0
 20
1.0
 30
0.0
  9
$UCSORTHOREF
  2

  9
$UCSORTHOVIEW
 70
     0
  9
$UCSORGTOP
 10
0.0
 20
0.0
 30
0.0
  9
$UCSORGBOTTOM
 10
0.0
 20
0.0
 30
0.0
  9
$UCSORGLEFT
 10
0.0
 20
0.0
 30
0.0
  9
$UCSORGRIGHT
 10
0.0
 20
0.0
 30
0.0
  9
$UCSORGFRONT
 10
0.0
 20
0.0
 30
0.0
  9
$UCSORGBACK
 10
0.0
 20
0.0
 30
0.0
  9
$PUCSBASE
  2

  9
$PUCSNAME
  2

  9
$PUCSORG
 10
0.0
 20
0.0
 30
0.0
  9
$PUCSXDIR
 10
1.0
 20
0.0
 30
0.0
  9
$PUCSYDIR
 10
0.0
 20
1.0
 30
0.0
  9
$PUCSORTHOREF
  2

  9
$PUCSORTHOVIEW
 70
     0
  9
$PUCSORGTOP
 10
0.0
 20
0.0
 30
0.0
  9
$PUCSORGBOTTOM
 10
0.0
 20
0.0
 30
0.0
  9
$PUCSORGLEFT
 10
0.0
 20
0.0
 30
0.0
  9
$PUCSORGRIGHT
 10
0.0
 20
0.0
 30
0.0
  9
$PUCSORGFRONT
 10
0.0
 20
0.0
 30
0.0
  9
$PUCSORGBACK
 10
0.0
 20
0.0
 30
0.0
  9
$USERI1
 70
     0
  9
$USERI2
 70
     0
  9
$USERI3
 70
     0
  9
$USERI4
 70
     0
  9
$USERI5
 70
     0
  9
$USERR1
 40
30.0
  9
$USERR2
 40
0.0
  9
$USERR3
 40
0.0
  9
$USERR4
 40
0.0
  9
$USERR5
 40
0.0
  9
$WORLDVIEW
 70
     1
  9
$SHADEDGE
 70
     3
  9
$SHADEDIF
 70
    70
  9
$TILEMODE
 70
     1
  9
$MAXACTVP
 70
    16
  9
$PINSBASE
 10
0.0
 20
0.0
 30
0.0
  9
$PLIMCHECK
 70
     0
  9
$PEXTMIN
 10
1.000000000000000E+20
 20
1.000000000000000E+20
 30
1.000000000000000E+20
  9
$PEXTMAX
 10
-1.000000000000000E+20
 20
-1.000000000000000E+20
 30
-1.000000000000000E+20
  9
$PLIMMIN
 10
0.0
 20
0.0
  9
$PLIMMAX
 10
12.0
 20
9.0
  9
$UNITMODE
 70
     0
  9
$VISRETAIN
 70
     0
  9
$PLINEGEN
 70
     0
  9
$PSLTSCALE
 70
     0
  9
$TREEDEPTH
 70
  3020
  9
$CMLSTYLE
  2
STANDARD
  9
$CMLJUST
 70
     0
  9
$CMLSCALE
 40
1.0
  9
$PROXYGRAPHICS
 70
     1
  9
$MEASUREMENT
 70
     0
  9
$CELWEIGHT
370
    -1
  9
$ENDCAPS
280
     0
  9
$JOINSTYLE
280
     0
  9
$LWDISPLAY
290
     0
  9
$INSUNITS
 70
     0
  9
$HYPERLINKBASE
  1

  9
$STYLESHEET
  1

  9
$XEDIT
290
     1
  9
$CEPSNTYPE
380
     0
  9
$PSTYLEMODE
290
     1
  9
$FINGERPRINTGUID
  2
{0DEC4967-371E-B94D-A48F-85ACC66E0E92}
  9
$VERSIONGUID
  2
{D3D2E878-B14A-0A46-B04C-C6788B21EA67}
  9
$EXTNAMES
290
     1
  9
$PSVPSCALE
 40
0.0
  9
$OLESTARTUP
290
     0
  9
$SORTENTS
280
   127
  9
$INDEXCTL
280
     0
  9
$HIDETEXT
280
     0
  9
$XCLIPFRAME
290
     0
  9
$HALOGAP
280
     0
  9
$OBSCOLOR
 70
   257
  9
$OBSLTYPE
280
     0
  9
$INTERSECTIONDISPLAY
280
     0
  9
$INTERSECTIONCOLOR
 70
   257
  9
$DIMASSOC
280
     1
  9
$PROJECTNAME
  1

  9
$CAMERADISPLAY
290
     0
  9
$LENSLENGTH
 40
50.0
  9
$CAMERAHEIGHT
 40
0.0
  9
$STEPSPERSEC
 40
2.0
  9
$STEPSIZE
 40
6.0
  9
$3DDWFPREC
 40
2.0
  9
$PSOLWIDTH
 40
0.25
  9
$PSOLHEIGHT
 40
4.0
  9
$LOFTANG1
 40
1.570796326794896
  9
$LOFTANG2
 40
1.570796326794896
  9
$LOFTMAG1
 40
0.0
  9
$LOFTMAG2
 40
0.0
  9
$LOFTPARAM
 70
     7
  9
$LOFTNORMALS
280
     1
  9
$LATITUDE
 40
37.795
  9
$LONGITUDE
 40
-122.394
  9
$NORTHDIRECTION
 40
0.0
  9
$TIMEZONE
 70
 -8000
  9
$LIGHTGLYPHDISPLAY
280
     1
  9
$TILEMODELIGHTSYNCH
280
     1
  9
$CMATERIAL
347
360
  9
$SOLIDHIST
280
     0
  9
$SHOWHIST
280
     1
  9
$DWFFRAME
280
     2
  9
$DGNFRAME
280
     0
  9
$REALWORLDSCALE
290
     1
  9
$INTERFERECOLOR
 62
     1
  9
$INTERFEREOBJVS
345
382
  9
$INTERFEREVPVS
346
37F
  9
$CSHADOW
280
     0
  9
$SHADOWPLANELOCATION
 40
0.0
  0
ENDSEC
  0
SECTION
  2
CLASSES
  0
CLASS
  1
ACDBDICTIONARYWDFLT
  2
AcDbDictionaryWithDefault
  3
ObjectDBX Classes
 90
        0
 91
        1
280
     0
281
     0
  0
CLASS
  1
MATERIAL
  2
AcDbMaterial
  3
ObjectDBX Classes
 90
     1153
 91
        3
280
     0
281
     0
  0
CLASS
  1
VISUALSTYLE
  2
AcDbVisualStyle
  3
ObjectDBX Classes
 90
     4095
 91
       24
280
     0
281
     0
  0
CLASS
  1
TABLESTYLE
  2
AcDbTableStyle
  3
ObjectDBX Classes
 90
     4095
 91
        1
280
     0
281
     0
  0
CLASS
  1
SCALE
  2
AcDbScale
  3
ObjectDBX Classes
 90
     1153
 91
       17
280
     0
281
     0
  0
CLASS
  1
MLEADERSTYLE
  2
AcDbMLeaderStyle
  3
ACDB_MLEADERSTYLE_CLASS
 90
     4095
 91
        1
280
     0
281
     0
  0
CLASS
  1
ACDBSECTIONVIEWSTYLE
  2
AcDbSectionViewStyle
  3
ObjectDBX Classes
 90
     1025
 91
        2
280
     0
281
     0
  0
CLASS
  1
ACDBDETAILVIEWSTYLE
  2
AcDbDetailViewStyle
  3
ObjectDBX Classes
 90
     1025
 91
        2
280
     0
281
     0
  0
CLASS
  1
AMGSETTINGSOBJ
  2
AmgSettingsObj
  3
"AcadM|Product Description: AutoCAD Mechanical|Company: Autodesk, Inc."
 90
     1024
 91
        2
280
     0
281
     0
  0
CLASS
  1
ACME_DOCUMENT
  2
AcMeDbDoc
  3
AcMeServices
 90
     1024
 91
        1
280
     0
281
     0
  0
CLASS
  1
ACMESCOPE
  2
AcMeScope
  3
AcMeServices
 90
     1024
 91
        1
280
     0
281
     0
  0
CLASS
  1
ACMECOMMANDHISTORY
  2
AcMeCommandHistory
  3
AcMeServices
 90
     1024
 91
        1
280
     0
281
     0
  0
CLASS
  1
ACIMSYSVARMAN
  2
AcImSysVarManager
  3
AcMeServices
 90
     1024
 91
        3
280
     0
281
     0
  0
CLASS
  1
ACIMINTSYSVAR
  2
AcImIntSysVar
  3
AcMeServices
 90
     1024
 91
        2
280
     0
281
     0
  0
CLASS
  1
ACMESTATEMGR
  2
AcMeStateMgr
  3
AcMeServices
 90
     1024
 91
        1
280
     0
281
     0
  0
CLASS
  1
ACDBENTITYCACHE
  2
AcMeEntityCache
  3
AcMeServices
 90
     1024
 91
        1
280
     0
281
     0
  0
CLASS
  1
ACGREFMASTER
  2
AcGrefMaster
  3
AcAttribServices
 90
     1024
 91
        1
280
     0
281
     0
  0
CLASS
  1
ACME_DATABASE
  2
AcMeDbDatabase
  3
AcMeServices
 90
     1024
 91
        1
280
     0
281
     0
  0
CLASS
  1
ACRFINSADJUSTERMGR
  2
AcRfInsAdjusterMgr
  3
AcMeServices
 90
     1024
 91
        1
280
     0
281
     0
  0
CLASS
  1
ACGREFACADMASTER
  2
AcGrefacadMaster
  3
AcGrefServices
 90
     1024
 91
        1
280
     0
281
     0
  0
CLASS
  1
AMIMASTER
  2
AmiMaster
  3
AmiServices
 90
     1024
 91
        1
280
     0
281
     0
  0
CLASS
  1
AMDTMENUSTATEMGR
  2
AmdtMenuStateMgr
  3
McadcomServices
 90
     1024
 91
        1
280
     0
281
     0
  0
CLASS
  1
AMDTMCOMMENUSTATE
  2
AmdtMcomMenuState
  3
McadcomServices
 90
     1024
 91
        1
280
     0
281
     0
  0
CLASS
  1
MAPIAMMOUDLE
  2
MApiAmModule
  3
MApiAmServices
 90
     1024
 91
        1
280
     0
281
     0
  0
CLASS
  1
ACIMSTRSYSVAR
  2
AcImStrSysVar
  3
AcMeServices
 90
     1024
 91
        5
280
     0
281
     0
  0
CLASS
  1
AMDTAMMENUSTATE
  2
AmdtAmMenuState
  3
DesignerAssemblies_arx
 90
     1024
 91
        1
280
     0
281
     0
  0
CLASS
  1
ACAMPROJECT
  2
AcAmProject
  3
DesignerAssemblies
 90
     1024
 91
        1
280
     0
281
     0
  0
CLASS
  1
ACAMGRCOMPDEF
  2
AcAmGrCompDef
  3
DesignerAssemblies
 90
     1024
 91
        1
280
     0
281
     0
  0
CLASS
  1
ACAMCOMPDEF
  2
AcAmCompDef
  3
DesignerAssemblies
 90
     1024
 91
        1
280
     0
281
     0
  0
CLASS
  1
ACAMCOMPDEFMGR
  2
AcAmCompDefMgr
  3
DesignerAssemblies
 90
     1024
 91
        1
280
     0
281
     0
  0
CLASS
  1
AMCONTEXTMGR
  2
AcAmContextMgr
  3
DesignerAssemblies
 90
     1024
 91
        1
280
     0
281
     0
  0
CLASS
  1
ACAMCONTEXTMODELER
  2
AcAmContextModeler
  3
DesignerAssemblies
 90
     1024
 91
        1
280
     0
281
     0
  0
CLASS
  1
ACMDATADICTIONARY
  2
AcmDataDictionary
  3
"AcmSymBB|Product Description: AutoCAD Mechanical|Company: Autodesk, Inc."
 90
     1024
 91
        1
280
     0
281
     0
  0
CLASS
  1
ACAMGRCOMPDEFSET
  2
AcAmGrCompDefSet
  3
DesignerAssemblies
 90
     1024
 91
        1
280
     0
281
     0
  0
CLASS
  1
AMDTBROWSERDBTAB
  2
AmdtBrowserDbTab
  3
McadcomServices
 90
     1024
 91
        1
280
     0
281
     0
  0
CLASS
  1
CBROWSERAPPOBJECT
  2
CBrowserAppObject
  3
McadcomServices
 90
     1024
 91
        2
280
     0
281
     0
  0
CLASS
  1
DM_PLACEHOLDER
  2
AcDmSelsetPlaceholder
  3
McadcomServices
 90
     1024
 91
        1
280
     0
281
     0
  0
CLASS
  1
ACMSTANDARDANSI
  2
AcmStandardANSI
  3
"Amdt_StdImp|Product Description: AutoCAD Mechanical|Company: Autodesk, Inc."
 90
     1024
 91
        1
280
     0
281
     0
  0
CLASS
  1
ACMSURFSTANDARDANSI
  2
AcmSurfTextStdANSI
  3
"Amdt_StdImp|Product Description: AutoCAD Mechanical|Company: Autodesk, Inc."
 90
     1024
 91
        1
280
     0
281
     0
  0
CLASS
  1
ACMFCFSTANDARDANSI
  2
AcmFCFStdANSI
  3
"Amdt_StdImp|Product Description: AutoCAD Mechanical|Company: Autodesk, Inc."
 90
     1024
 91
        1
280
     0
281
     0
  0
CLASS
  1
ACMWELDSTANDARDANSI
  2
AcmWeldingStdANSI
  3
"Amdt_StdImp|Product Description: AutoCAD Mechanical|Company: Autodesk, Inc."
 90
     1024
 91
        1
280
     0
281
     0
  0
CLASS
  1
ACMIDSTANDARDANSI
  2
AcmIdStdANSI
  3
"Amdt_StdImp|Product Description: AutoCAD Mechanical|Company: Autodesk, Inc."
 90
     1024
 91
        1
280
     0
281
     0
  0
CLASS
  1
ACMDATUMSTANDARDANSI
  2
AcmDatumStdANSI
  3
"Amdt_StdImp|Product Description: AutoCAD Mechanical|Company: Autodesk, Inc."
 90
     1024
 91
        1
280
     0
281
     0
  0
CLASS
  1
ACMBOMSTANDARDANSI
  2
AcmBOMStdANSI
  3
"Amdt_StdImp|Product Description: AutoCAD Mechanical|Company: Autodesk, Inc."
 90
     1024
 91
        1
280
     0
281
     0
  0
CLASS
  1
ACMDETAILSTANDARDANSI
  2
AmdtDetailSymStdANSI
  3
"Amdt_StdImp|Product Description: AutoCAD Mechanical|Company: Autodesk, Inc."
 90
     1024
 91
        1
280
     0
281
     0
  0
CLASS
  1
ACMSECTIONSTANDARDANSI
  2
AmdtSectionSymStdANSI
  3
"Amdt_StdImp|Product Description: AutoCAD Mechanical|Company: Autodesk, Inc."
 90
     1024
 91
        1
280
     0
281
     0
  0
CLASS
  1
ACMCENTERLINESTANDARDANSI
  2
AmdtCenterLineStdANSI
  3
"Amdt_StdImp|Product Description: AutoCAD Mechanical|Company: Autodesk, Inc."
 90
     1024
 91
        1
280
     0
281
     0
  0
CLASS
  1
ACMTHREADLINESTANDARDANSI
  2
AmdtThreadLineStdANSI
  3
"Amdt_StdImp|Product Description: AutoCAD Mechanical|Company: Autodesk, Inc."
 90
     1024
 91
        1
280
     0
281
     0
  0
CLASS
  1
ACMNOTESTANDARDANSI
  2
AmdtNoteStdANSI
  3
"Amdt_StdImp|Product Description: AutoCAD Mechanical|Company: Autodesk, Inc."
 90
     1024
 91
        1
280
     0
281
     0
  0
CLASS
  1
ACMTAPERSTANDARDANSI
  2
AcmTaperStdANSI
  3
"Amdt_StdImp|Product Description: AutoCAD Mechanical|Company: Autodesk, Inc."
 90
     1024
 91
        1
280
     0
281
     0
  0
CLASS
  1
ACMANOOTATIONVIEWSTANDARDANSI
  2
AmdtAnViewStdANSI
  3
"Amdt_StdImp|Product Description: AutoCAD Mechanical|Company: Autodesk, Inc."
 90
     1024
 91
        1
280
     0
281
     0
  0
CLASS
  1
ACAMGLAYSTD
  2
AcAmgLayStd
  3
"AmgLay|Product Description: AutoCAD Mechanical|Company: Autodesk, Inc."
 90
     1024
 91
        1
280
     0
281
     0
  0
CLASS
  1
ACAMGTITLESTD
  2
AcAmgTitleStd
  3
"AmgTitle|Product Description: AutoCAD Mechanical|Company: Autodesk, Inc."
 90
     1024
 91
        1
280
     0
281
     0
  0
CLASS
  1
ACAMGDIMSTD
  2
AcAmgDimStd
  3
"AmgDim|Product Description: AutoCAD Mechanical|Company: Autodesk, Inc."
 90
     1024
 91
        1
280
     0
281
     0
  0
CLASS
  1
AMGOBJPROPCFG
  2
AmgObjPropCfg
  3
"AmgLay|Product Description: AutoCAD Mechanical|Company: Autodesk, Inc."
 90
     1024
 91
        1
280
     0
281
     0
  0
CLASS
  1
ACAMGHOLECHARTSTDANSI
  2
AcAmgHoleChartStdANSI
  3
"AmgDim" "Product Description: AutoCAD Mechanical|Company: Autodesk, Inc."
 90
     1024
 91
        1
280
     0
281
     0
  0
CLASS
  1
ACMSECTIONSTANDARDCUSTOM
  2
AmdtSectionSymStdCustom
  3
"Amdt_StdImp|Product Description: AutoCAD Mechanical|Company: Autodesk, Inc."
 90
     1024
 91
        1
280
     0
281
     0
  0
CLASS
  1
ACMDETAILTANDARDCUSTOM
  2
AmdtDetailSymStdCustom
  3
"Amdt_StdImp|Product Description: AutoCAD Mechanical|Company: Autodesk, Inc."
 90
     1024
 91
        1
280
     0
281
     0
  0
CLASS
  1
FIELD
  2
AcDbField
  3
ObjectDBX Classes
 90
     1152
 91
        8
280
     0
281
     0
  0
CLASS
  1
FIELDLIST
  2
AcDbFieldList
  3
ObjectDBX Classes
 90
     1152
 91
        1
280
     0
281
     0
  0
CLASS
  1
AMDTNOTETEMPLATEDB
  2
AmdtNoteTemplateDB
  3
"AcmSymBB" "Product Description: AutoCAD Mechanical|Company: Autodesk, Inc."
 90
     1024
 91
        7
280
     0
281
     0
  0
CLASS
  1
DICTIONARYVAR
  2
AcDbDictionaryVar
  3
ObjectDBX Classes
 90
        0
 91
       10
280
     0
281
     0
  0
CLASS
  1
CELLSTYLEMAP
  2
AcDbCellStyleMap
  3
ObjectDBX Classes
 90
     1152
 91
        1
280
     0
281
     0
  0
ENDSEC
  0
SECTION
  2
TABLES
  0
TABLE
  2
VPORT
  5
1E
330
0
100
AcDbSymbolTable
 70
     1
  0
VPORT
  5
1F
330
1E
100
AcDbSymbolTableRecord
100
AcDbViewportTableRecord
  2
*ACTIVE
 70
     0
 10
0.0
 20
0.0
 11
1.0
 21
1.0
 12
1875.502022520883
 22
708.4983659131221
 13
0.0
 23
0.0
 14
1.0
 24
1.0
 15
0.0
 25
0.0
 16
0.0
 26
0.0
 36
1.0
 17
0.0
 27
0.0
 37
0.0
 40
2380.260773280857
 41
1.896009673518742
 42
50.0
 43
0.0
 44
0.0
 50
0.0
 51
0.0
 71
     0
 72
   100
 73
     1
 74
     1
 75
     0
 76
     0
 77
     0
 78
     0
281
     0
 65
     0
110
0.0
120
0.0
130
0.0
111
1.0
121
0.0
131
0.0
112
0.0
122
1.0
132
0.0
 79
     0
146
0.0
348
37E
 60
     3
 61
     5
292
     1
282
     1
141
0.0
142
0.0
 63
   250
421
  3355443
1001
ACAD_NAV_VCDISPLAY
1070
     3
  0
ENDTAB
  0
TABLE
  2
LTYPE
  5
19
330
0
100
AcDbSymbolTable
 70
    16
  0
LTYPE
  5
1A
330
19
100
AcDbSymbolTableRecord
100
AcDbLinetypeTableRecord
  2
BYBLOCK
 70
     0
  3

 72
    65
 73
     0
 40
0.0
  0
LTYPE
  5
1B
330
19
100
AcDbSymbolTableRecord
100
AcDbLinetypeTableRecord
  2
BYLAYER
 70
     0
  3

 72
    65
 73
     0
 40
0.0
  0
LTYPE
  5
B
330
19
100
AcDbSymbolTableRecord
100
AcDbLinetypeTableRecord
  2
CONTINUOUS
 70
     0
  3
実線
 72
    65
 73
     0
 40
0.0
  0
LTYPE
  5
3BB
330
19
100
AcDbSymbolTableRecord
100
AcDbLinetypeTableRecord
  2
HIDDEN
 70
     0
  3
Hidden __ __ __ __ __ __ __ __ __ __ __ __ __ _
 72
    65
 73
     2
 40
0.375
 49
0.25
 74
     0
 49
-0.125
 74
     0
  0
LTYPE
  5
3BC
330
19
100
AcDbSymbolTableRecord
100
AcDbLinetypeTableRecord
  2
PHANTOM2
 70
     0
  3
Phantom (.5x) ___ _ _ ___ _ _ ___ _ _ ___ _ _
 72
    65
 73
     6
 40
1.25
 49
0.625
 74
     0
 49
-0.125
 74
     0
 49
0.125
 74
     0
 49
-0.125
 74
     0
 49
0.125
 74
     0
 49
-0.125
 74
     0
  0
LTYPE
  5
3BD
330
19
100
AcDbSymbolTableRecord
100
AcDbLinetypeTableRecord
  2
CENTER
 70
     0
  3
Center ____ _ ____ _ ____ _ ____ _ ____ _ ____
 72
    65
 73
     4
 40
2.0
 49
1.25
 74
     0
 49
-0.25
 74
     0
 49
0.25
 74
     0
 49
-0.25
 74
     0
  0
LTYPE
  5
3FB
330
19
100
AcDbSymbolTableRecord
100
AcDbLinetypeTableRecord
  2
Amconstr
 70
     0
  3
_______________________
 72
    65
 73
     2
 40
9999.0
 49
9999.0
 74
     0
 49
0.0
 74
     0
  0
LTYPE
  5
401
330
19
100
AcDbSymbolTableRecord
100
AcDbLinetypeTableRecord
  2
CENTER2
 70
     0
  3
Center (.5x) ___ _ ___ _ ___ _ ___ _ ___ _ ___
 72
    65
 73
     4
 40
1.125
 49
0.75
 74
     0
 49
-0.125
 74
     0
 49
0.125
 74
     0
 49
-0.125
 74
     0
  0
LTYPE
  5
402
330
19
100
AcDbSymbolTableRecord
100
AcDbLinetypeTableRecord
  2
HIDDEN2
 70
     0
  3
Hidden (.5x) _ _ _ _ _ _ _ _ _ _ _ _ _ _ _ _ _
 72
    65
 73
     2
 40
0.1875
 49
0.125
 74
     0
 49
-0.0625
 74
     0
  0
LTYPE
  5
403
330
19
100
AcDbSymbolTableRecord
100
AcDbLinetypeTableRecord
  2
Amzigzag2
 70
     0
  3
/\/-/\/-/\/-/\/-/\/-/\/
 72
    65
 73
     2
 40
0.4401
 49
0.0001
 74
     4
 75
   136
340
3FF
 46
0.0016
 50
0.0
 44
0.0
 45
0.0
 49
-0.4400000000000001
 74
     0
  0
LTYPE
  5
412
330
19
100
AcDbSymbolTableRecord
100
AcDbLinetypeTableRecord
  2
ACANSTGB
 70
     0
  3
__ . . __ . .
 72
    65
 73
     6
 40
0.35433070866
 49
0.15748031496
 74
     0
 49
-0.03937007874
 74
     0
 49
0.03937007874
 74
     0
 49
-0.03937007874
 74
     0
 49
0.03937007874
 74
     0
 49
-0.03937007874
 74
     0
  0
LTYPE
  5
413
330
19
100
AcDbSymbolTableRecord
100
AcDbLinetypeTableRecord
  2
ACANSTGL
 70
     0
  3
_ _ _ _ _
 72
    65
 73
     2
 40
0.11811023622
 49
0.07874015748
 74
     0
 49
-0.03937007874
 74
     0
  0
ENDTAB
  0
TABLE
  2
LAYER
  5
15
330
0
100
AcDbSymbolTable
 70
     2
  0
LAYER
  5
6
102
{ACAD_XDICTIONARY
360
433
102
}
330
15
100
AcDbSymbolTableRecord
100
AcDbLayerTableRecord
  2
0
 70
     0
 62
     7
  6
CONTINUOUS
370
    -3
390
35E
347
370
  0
ENDTAB
  0
TABLE
  2
STYLE
  5
16
330
0
100
AcDbSymbolTable
 70
     5
  0
STYLE
  5
17
330
16
100
AcDbSymbolTableRecord
100
AcDbTextStyleTableRecord
  2
STANDARD
 70
     0
 40
0.0
 41
1.0
 50
0.0
 71
     0
 42
15.0
  3
TXT
  4
BIGFONT
  0
STYLE
  5
1A3
330
16
100
AcDbSymbolTableRecord
100
AcDbTextStyleTableRecord
  2
SMP-SET
 70
     0
 40
0.0
 41
1.0
 50
0.0
 71
     0
 42
0.2
  3
SIMPLEX
  4
BIGFONT
  0
STYLE
  5
3FF
330
16
100
AcDbSymbolTableRecord
100
AcDbTextStyleTableRecord
  2

 70
     1
 40
0.0
 41
1.0
 50
0.0
 71
     0
 42
15.0
  3
genltshp.shx
  4

  0
STYLE
  5
411
330
16
100
AcDbSymbolTableRecord
100
AcDbTextStyleTableRecord
  2
ACANSGDT
 70
     0
 40
0.0
 41
1.0
 50
0.0
 71
     0
 42
15.0
  3
amgdt.shx
  4

  0
ENDTAB
  0
TABLE
  2
VIEW
  5
1C
330
0
100
AcDbSymbolTable
 70
     0
  0
ENDTAB
  0
TABLE
  2
UCS
  5
1D
330
0
100
AcDbSymbolTable
 70
     0
  0
ENDTAB
  0
TABLE
  2
APPID
  5
20
330
0
100
AcDbSymbolTable
 70
     9
  0
APPID
  5
A
330
20
100
AcDbSymbolTableRecord
100
AcDbRegAppTableRecord
  2
ACAD
 70
     0
  0
APPID
  5
3B4
330
20
100
AcDbSymbolTableRecord
100
AcDbRegAppTableRecord
  2
MCAD_NO_VIS
 70
     0
  0
APPID
  5
3B5
330
20
100
AcDbSymbolTableRecord
100
AcDbRegAppTableRecord
  2
ACAD_TEMP_GRAPHIC
 70
     0
  0
APPID
  5
3C2
330
20
100
AcDbSymbolTableRecord
100
AcDbRegAppTableRecord
  2
ACATTRIBSERVICES
 70
     0
  0
APPID
  5
3DA
330
20
100
AcDbSymbolTableRecord
100
AcDbRegAppTableRecord
  2
DESIGNERASSEMBLIES
 70
     0
  0
APPID
  5
3F5
330
20
100
AcDbSymbolTableRecord
100
AcDbRegAppTableRecord
  2
ACAD_DSTYLE_DIMJAG
 70
     0
  0
APPID
  5
3F6
330
20
100
AcDbSymbolTableRecord
100
AcDbRegAppTableRecord
  2
ACAD_DSTYLE_DIMBREAK
 70
     0
  0
APPID
  5
42F
330
20
100
AcDbSymbolTableRecord
100
AcDbRegAppTableRecord
  2
ACAD_NAV_VCDISPLAY
 70
     0
  0
APPID
  5
473
330
20
100
AcDbSymbolTableRecord
100
AcDbRegAppTableRecord
  2
ACAD_MLEADERVER
 70
     0
  0
ENDTAB
  0
TABLE
  2
DIMSTYLE
  5
21
330
0
100
AcDbSymbolTable
 70
     7
100
AcDbDimStyleTable
 71
     0
  0
DIMSTYLE
105
22
330
21
100
AcDbSymbolTableRecord
100
AcDbDimStyleTableRecord
  2
YAZ1
 70
     0
 40
5.0
 41
2.0
 42
0.1
 43
7.0
 44
1.8
 73
     0
 74
     0
 78
     9
140
3.0
141
0.1
145
1.0
147
0.0
172
     1
173
     1
176
   256
177
   256
178
   256
271
     3
272
     3
284
     9
285
     9
286
     9
340
17
341
23
342
23
343
23
344
23
  0
DIMSTYLE
105
3F4
102
{ACAD_REACTORS
330
3E3
102
}
330
21
100
AcDbSymbolTableRecord
100
AcDbDimStyleTableRecord
  2
AM_ANSI
 70
     0
  4
mm
 41
0.12
 42
0.05
 43
0.5
 44
0.1
 47
0.1
 48
0.1
 78
     7
 79
     2
 90
        1
140
0.12
141
0.0
146
0.71
147
0.06
176
   256
177
   256
178
     2
274
     4
284
     7
340
17
345
1A
346
1A
347
1A
371
    -1
372
    -1
1001
ACAD_DSTYLE_DIMJAG
1070
   388
1040
1.5
1001
ACAD_DSTYLE_DIMBREAK
1070
   391
1040
0.125
  0
DIMSTYLE
105
404
330
21
100
AcDbSymbolTableRecord
100
AcDbDimStyleTableRecord
  2
AM_ANSI$3
 70
     0
  4
mm
 41
0.12
 42
0.05
 43
0.5
 44
0.1
 47
0.1
 48
0.1
 78
     7
 79
     2
 90
        1
140
0.12
141
0.0
146
0.71
147
0.06
176
   256
177
   256
178
     2
274
     4
284
     7
288
     1
289
     0
340
17
345
1A
346
1A
347
1A
371
    -1
372
    -1
1001
ACAD_DSTYLE_DIMBREAK
1070
   391
1040
0.125
1001
ACAD_DSTYLE_DIMJAG
1070
   388
1040
1.5
  0
DIMSTYLE
105
405
330
21
100
AcDbSymbolTableRecord
100
AcDbDimStyleTableRecord
  2
AM_ANSI$4
 70
     0
  4
mm
 41
0.12
 42
0.05
 43
0.5
 44
0.1
 47
0.1
 48
0.1
 78
     7
 79
     2
 90
        1
140
0.12
141
0.0
146
0.71
147
0.06
176
   256
177
   256
178
     2
274
     4
284
     7
288
     1
289
     0
340
17
345
1A
346
1A
347
1A
371
    -1
372
    -1
1001
ACAD_DSTYLE_DIMBREAK
1070
   391
1040
0.125
1001
ACAD_DSTYLE_DIMJAG
1070
   388
1040
1.5
  0
DIMSTYLE
105
406
330
21
100
AcDbSymbolTableRecord
100
AcDbDimStyleTableRecord
  2
AM_ANSI$7
 70
     0
  4
mm
 41
0.12
 42
0.05
 43
0.5
 44
0.1
 47
0.1
 48
0.1
 78
     7
 79
     2
 90
        1
140
0.12
141
0.0
146
0.71
147
0.06
176
   256
177
   256
178
     2
274
     4
284
     7
340
17
345
1A
346
1A
347
1A
371
    -1
372
    -1
1001
ACAD_DSTYLE_DIMBREAK
1070
   391
1040
0.125
1001
ACAD_DSTYLE_DIMJAG
1070
   388
1040
1.5
  0
DIMSTYLE
105
407
330
21
100
AcDbSymbolTableRecord
100
AcDbDimStyleTableRecord
  2
AM_ANSI$SF
 70
     0
  4
mm
 41
0.12
 42
0.05
 43
0.5
 44
0.1
 47
0.1
 48
0.1
 75
     1
 76
     1
 78
     7
 79
     2
 90
        1
140
0.12
141
0.0
146
0.71
147
0.06
176
   256
177
   256
178
     2
274
     4
284
     7
340
17
345
1A
346
1A
347
1A
371
    -1
372
    -1
1001
ACAD_DSTYLE_DIMBREAK
1070
   391
1040
0.125
1001
ACAD_DSTYLE_DIMJAG
1070
   388
1040
1.5
  0
DIMSTYLE
105
40C
330
21
100
AcDbSymbolTableRecord
100
AcDbDimStyleTableRecord
  2
AM_ANSI$SH
 70
     0
  4
mm
 41
0.12
 42
0.05
 43
0.5
 44
0.1
 47
0.1
 48
0.1
 75
     1
 76
     1
 78
     7
 79
     2
 90
        1
140
0.12
141
0.0
146
0.71
147
0.06
173
     1
176
   256
177
   256
178
     2
274
     4
284
     7
340
17
343
408
345
1A
346
1A
347
1A
371
    -1
372
    -1
1001
ACAD_DSTYLE_DIMBREAK
1070
   391
1040
0.125
1001
ACAD_DSTYLE_DIMJAG
1070
   388
1040
1.5
  0
ENDTAB
  0
TABLE
  2
BLOCK_RECORD
  5
1
330
0
100
AcDbSymbolTable
 70
     4
  0
BLOCK_RECORD
  5
2
102
{ACAD_XDICTIONARY
360
3
102
}
330
1
100
AcDbSymbolTableRecord
100
AcDbBlockTableRecord
  2
*MODEL_SPACE
340
3AC
 70
     0
280
     1
281
     0
  0
BLOCK_RECORD
  5
F
102
{ACAD_XDICTIONARY
360
10
102
}
330
1
100
AcDbSymbolTableRecord
100
AcDbBlockTableRecord
  2
*PAPER_SPACE
340
3AD
 70
     0
280
     1
281
     0
  0
BLOCK_RECORD
  5
23
330
1
100
AcDbSymbolTableRecord
100
AcDbBlockTableRecord
  2
YAZ1
340
0
102
{BLKREFS
331
171
331
172
331
177
331
178
331
17D
331
17E
331
7E
331
7F
102
}
 70
     0
280
     1
281
     0
  0
BLOCK_RECORD
  5
408
330
1
100
AcDbSymbolTableRecord
100
AcDbBlockTableRecord
  2
GENAXEH
340
0
 70
     0
280
     1
281
     0
  0
BLOCK_RECORD
  5
415
330
1
100
AcDbSymbolTableRecord
100
AcDbBlockTableRecord
  2
_ACMFILLEDHALF
340
0
 70
     0
280
     1
281
     0
  0
ENDTAB
  0
ENDSEC
  0
SECTION
  2
BLOCKS
  0
BLOCK
  5
5
330
2
100
AcDbEntity
  8
0
100
AcDbBlockBegin
  2
*MODEL_SPACE
 70
     0
 10
0.0
 20
0.0
 30
0.0
  3
*MODEL_SPACE
  1

  0
ENDBLK
  5
C
330
2
100
AcDbEntity
  8
0
100
AcDbBlockEnd
  0
BLOCK
  5
12
330
F
100
AcDbEntity
 67
     1
  8
0
100
AcDbBlockBegin
  2
*PAPER_SPACE
 70
     0
 10
0.0
 20
0.0
 30
0.0
  3
*PAPER_SPACE
  1

  0
ENDBLK
  5
13
330
F
100
AcDbEntity
 67
     1
  8
0
100
AcDbBlockEnd
  0
BLOCK
  5
27
330
23
100
AcDbEntity
  8
0
100
AcDbBlockBegin
  2
YAZ1
 70
     0
 10
0.0
 20
0.0
 30
0.0
  3
YAZ1
  1

  0
LINE
  5
24
330
23
100
AcDbEntity
  8
0
100
AcDbLine
 10
0.0
 20
0.0
 30
0.0
 11
-1.0
 21
-0.2679491924311037
 31
0.0
  0
LINE
  5
25
330
23
100
AcDbEntity
  8
0
100
AcDbLine
 10
0.0
 20
0.0
 30
0.0
 11
-1.0
 21
0.2679491924311037
 31
0.0
  0
LINE
  5
26
330
23
100
AcDbEntity
  8
0
100
AcDbLine
 10
-1.0
 20
0.0
 30
0.0
 11
0.0
 21
0.0
 31
0.0
  0
ENDBLK
  5
28
330
23
100
AcDbEntity
  8
0
100
AcDbBlockEnd
  0
BLOCK
  5
40A
330
408
100
AcDbEntity
  8
0
100
AcDbBlockBegin
  2
GENAXEH
 70
     0
 10
0.0
 20
0.0
 30
0.0
  3
GENAXEH
  1

  0
LINE
  5
409
330
408
100
AcDbEntity
  8
0
100
AcDbLine
 10
-1.0
 20
0.0
 30
0.0
 11
1.0
 21
0.0
 31
0.0
  0
ENDBLK
  5
40B
330
408
100
AcDbEntity
  8
0
100
AcDbBlockEnd
  0
BLOCK
  5
416
330
415
100
AcDbEntity
  8
0
100
AcDbBlockBegin
  2
_ACMFILLEDHALF
 70
     0
 10
0.0
 20
0.0
 30
0.0
  3
_ACMFILLEDHALF
  1

  0
TRACE
  5
418
330
415
100
AcDbEntity
  8
0
 62
     0
100
AcDbTrace
 10
-0.8
 20
0.0
 30
0.0
 11
-1.0
 21
0.166666666
 31
0.0
 12
0.0
 22
0.0
 32
0.0
 13
0.0
 23
0.0
 33
0.0
  0
LINE
  5
419
330
415
100
AcDbEntity
  8
0
 62
     0
100
AcDbLine
 10
-1.0
 20
0.0
 30
0.0
 11
-0.8
 21
0.0
 31
0.0
  0
ENDBLK
  5
417
330
415
100
AcDbEntity
  8
0
100
AcDbBlockEnd
  0
ENDSEC
  0
SECTION
  2
ENTITIES
  0
ARC
  5
2E
330
2
100
AcDbEntity
  8
0
 62
     7
100
AcDbCircle
 10
1650.306646156297
 20
1220.833380699287
 30
0.0
 40
0.2689535900643035
100
AcDbArc
 50
90.0
 51
145.2973537911073
  0
ARC
  5
2F
330
2
100
AcDbEntity
  8
0
 62
     7
100
AcDbCircle
 10
1650.306646156297
 20
1220.833380699287
 30
0.0
 40
0.2913535900643081
100
AcDbArc
 50
90.0
 51
145.2973537911073
  0
ARC
  5
30
330
2
100
AcDbEntity
  8
0
 62
     7
100
AcDbCircle
 10
1650.306646156297
 20
1220.833380699287
 30
0.0
 40
0.2689535900643758
100
AcDbArc
 50
34.70264620889264
 51
90.0
  0
ARC
  5
31
330
2
100
AcDbEntity
  8
0
 62
     7
100
AcDbCircle
 10
1650.306646156297
 20
1220.833380699287
 30
0.0
 40
0.2913535900643804
100
AcDbArc
 50
34.70264620889264
 51
90.0
  0
ARC
  5
32
330
2
100
AcDbEntity
  8
0
 62
     7
100
AcDbCircle
 10
1652.489360764896
 20
1219.573189832448
 30
0.0
 40
0.2689535900643342
100
AcDbArc
 50
29.99999999998425
 51
85.29735379109274
  0
ARC
  5
33
330
2
100
AcDbEntity
  8
0
100
AcDbCircle
 10
1641.323367165365
 20
1218.31299896561
 30
0.0
 40
9.74500663284793
100
AcDbArc
 50
0.0
 51
6.775799326949626
  0
ARC
  5
34
330
2
100
AcDbEntity
  8
0
100
AcDbCircle
 10
1641.323367165365
 20
1218.31299896561
 30
0.0
 40
9.789806632847939
100
AcDbArc
 50
0.0
 51
6.775799326949626
  0
ARC
  5
35
330
2
100
AcDbEntity
  8
0
 62
     7
100
AcDbCircle
 10
1647.488643648595
 20
1212.977916311359
 30
0.0
 40
6.839616637120531
100
AcDbArc
 50
53.70491482373714
 51
56.2079984048124
  0
ARC
  5
36
330
2
100
AcDbEntity
  8
0
 62
     7
100
AcDbCircle
 10
1653.020645257557
 20
1214.675963492624
 30
0.0
 40
5.281805864951056
100
AcDbArc
 50
103.9948124716025
 51
109.8781563158204
  0
ARC
  5
37
330
2
100
AcDbEntity
  8
0
100
AcDbCircle
 10
1648.513880592856
 20
1222.481908869642
 30
0.0
 40
5.259405864951856
100
AcDbArc
 50
306.7757993269674
 51
316.0051875284132
  0
ARC
  5
38
330
2
100
AcDbEntity
  8
0
100
AcDbCircle
 10
1648.513880592856
 20
1222.481908869642
 30
0.0
 40
5.281805864951857
100
AcDbArc
 50
306.7757993269674
 51
316.0051875284132
  0
ARC
  5
39
330
2
100
AcDbEntity
  8
0
 62
     7
100
AcDbCircle
 10
1652.318317927611
 20
1217.493931444707
 30
0.0
 40
2.377635233366274
100
AcDbArc
 50
85.29735379109274
 51
103.9948124716025
  0
ARC
  5
3A
330
2
100
AcDbEntity
  8
0
 62
     7
100
AcDbCircle
 10
1647.962049438077
 20
1213.611288456627
 30
0.0
 40
6.048874380809632
100
AcDbArc
 50
43.99481247158668
 51
48.98569561469535
  0
ARC
  5
3B
330
2
100
AcDbEntity
  8
0
 62
     7
100
AcDbCircle
 10
1652.489360764896
 20
1217.052808098771
 30
0.0
 40
0.2689535900643801
100
AcDbArc
 50
274.7026462088783
 51
329.9999999999905
  0
ARC
  5
3C
330
2
100
AcDbEntity
  8
0
100
AcDbCircle
 10
1653.020645257557
 20
1221.950034438597
 30
0.0
 40
5.259405864952459
100
AcDbArc
 50
246.7757993269622
 51
256.0051875283974
  0
ARC
  5
3D
330
2
100
AcDbEntity
  8
0
100
AcDbCircle
 10
1653.020645257557
 20
1221.950034438597
 30
0.0
 40
5.281805864952461
100
AcDbArc
 50
246.7757993269622
 51
256.0051875283974
  0
ARC
  5
3E
330
2
100
AcDbEntity
  8
0
100
AcDbCircle
 10
1641.323367165368
 20
1218.31299896561
 30
0.0
 40
9.745006632845155
100
AcDbArc
 50
354.4383604175537
 51
355.7143093420711
  0
ARC
  5
3F
330
2
100
AcDbEntity
  8
0
100
AcDbCircle
 10
1641.323367165368
 20
1218.31299896561
 30
0.0
 40
9.789806632845165
100
AcDbArc
 50
354.3048887523537
 51
355.8564434980664
  0
ARC
  5
40
330
2
100
AcDbEntity
  8
0
100
AcDbCircle
 10
1652.318317927611
 20
1219.132066486512
 30
0.0
 40
2.377635233366313
100
AcDbArc
 50
256.0051875283974
 51
274.7026462088783
  0
ARC
  5
41
330
2
100
AcDbEntity
  8
0
100
AcDbCircle
 10
1641.323367165368
 20
1218.31299896561
 30
0.0
 40
9.789806632845165
100
AcDbArc
 50
359.1170580287282
 51
0.0
  0
ARC
  5
42
330
2
100
AcDbEntity
  8
0
100
AcDbCircle
 10
1641.323367165368
 20
1218.31299896561
 30
0.0
 40
9.745006632845155
100
AcDbArc
 50
358.9261000392261
 51
0.0
  0
ARC
  5
43
330
2
100
AcDbEntity
  8
0
 62
     7
100
AcDbCircle
 10
1647.488643648595
 20
1212.977916311359
 30
0.0
 40
6.839616637120531
100
AcDbArc
 50
61.16456129044763
 51
61.90260550446819
  0
ARC
  5
44
330
2
100
AcDbEntity
  8
0
 62
     7
100
AcDbCircle
 10
1656.335964520019
 20
1218.540078533137
 30
0.0
 40
6.839616637120607
100
AcDbArc
 50
173.2242006730503
 51
181.9026055044877
  0
ARC
  5
45
330
2
100
AcDbEntity
  8
0
 62
     7
100
AcDbCircle
 10
1655.550745257427
 20
1218.633373900492
 30
0.0
 40
6.048874380809422
100
AcDbArc
 50
163.9948124716006
 51
173.2242006730215
  0
ARC
  5
46
330
2
100
AcDbEntity
  8
0
 62
     7
100
AcDbCircle
 10
1645.815006660832
 20
1210.53325115018
 30
0.0
 40
9.789806632846495
100
AcDbArc
 50
60.00000000001576
 51
66.77579932696223
  0
ARC
  5
47
330
2
100
AcDbEntity
  8
0
 62
     7
100
AcDbCircle
 10
1654.798285651762
 20
1210.533251150182
 30
0.0
 40
9.789806632845172
100
AcDbArc
 50
114.314810551951
 51
119.9999999999842
  0
ARC
  5
48
330
2
100
AcDbEntity
  8
0
 62
     7
100
AcDbCircle
 10
1659.289925147228
 20
1218.31299896561
 30
0.0
 40
9.789806632846183
100
AcDbArc
 50
184.0992559760026
 51
186.0535392856664
  0
ARC
  5
49
330
2
100
AcDbEntity
  8
0
 62
     7
100
AcDbCircle
 10
1654.813410820999
 20
1217.781124534564
 30
0.0
 40
5.281805864951802
100
AcDbArc
 50
190.6994093466183
 51
196.0051875283992
  0
ARC
  5
4A
330
2
100
AcDbEntity
  8
0
100
AcDbCircle
 10
1647.095330300277
 20
1223.421002052333
 30
0.0
 40
6.794816637120452
100
AcDbArc
 50
293.2242006730378
 51
301.902605504469
  0
ARC
  5
4B
330
2
100
AcDbEntity
  8
0
100
AcDbCircle
 10
1647.095330300277
 20
1223.421002052333
 30
0.0
 40
6.839616637120462
100
AcDbArc
 50
293.2242006730378
 51
301.902605504469
  0
ARC
  5
4C
330
2
100
AcDbEntity
  8
0
100
AcDbCircle
 10
1654.798285651764
 20
1226.092746781041
 30
0.0
 40
9.745006632848136
100
AcDbArc
 50
239.9999999999905
 51
240.9213409166692
  0
ARC
  5
4D
330
2
100
AcDbEntity
  8
0
100
AcDbCircle
 10
1654.798285651764
 20
1226.092746781041
 30
0.0
 40
9.789806632848147
100
AcDbArc
 50
239.9999999999905
 51
240.6896992310846
  0
POLYLINE
  5
4E
330
2
100
AcDbEntity
  8
0
 62
     7
100
AcDb2dPolyline
 66
     1
 10
0.0
 20
0.0
 30
0.0
 70
     1
 40
0.3143448000000651
 41
0.3143448000000651
  0
VERTEX
  5
34C
330
4E
100
AcDbEntity
  8
0
 62
     7
100
AcDbVertex
100
AcDb2dVertex
 10
1650.104567356297
 20
1218.31299896561
 30
0.0
 42
1.0
  0
VERTEX
  5
34D
330
4E
100
AcDbEntity
  8
0
 62
     7
100
AcDbVertex
100
AcDb2dVertex
 10
1650.508724956297
 20
1218.31299896561
 30
0.0
 42
1.0
  0
SEQEND
  5
34E
330
4E
100
AcDbEntity
  8
0
 62
     7
  0
ARC
  5
4F
330
2
100
AcDbEntity
  8
0
 62
     7
100
AcDbCircle
 10
1659.289925147228
 20
1218.31299896561
 30
0.0
 40
9.789806632846183
100
AcDbArc
 50
180.0
 51
180.8005246427304
  0
ARC
  5
50
330
2
100
AcDbEntity
  8
0
100
AcDbCircle
 10
1645.815006660832
 20
1226.092746781039
 30
0.0
 40
9.745006632846152
100
AcDbArc
 50
299.9999999999841
 51
306.7757993269674
  0
ARC
  5
51
330
2
100
AcDbEntity
  8
0
100
AcDbCircle
 10
1645.815006660832
 20
1226.092746781039
 30
0.0
 40
9.789806632846163
100
AcDbArc
 50
299.9999999999841
 51
306.7757993269674
  0
ARC
  5
52
330
2
100
AcDbEntity
  8
0
100
AcDbCircle
 10
1654.798285651764
 20
1226.092746781041
 30
0.0
 40
9.789806632848147
100
AcDbArc
 50
244.4867715734778
 51
246.7757993269622
  0
ARC
  5
53
330
2
100
AcDbEntity
  8
0
100
AcDbCircle
 10
1654.798285651764
 20
1226.092746781041
 30
0.0
 40
9.745006632848136
100
AcDbArc
 50
244.5635176768487
 51
246.7757993269622
  0
ARC
  5
54
330
2
100
AcDbEntity
  8
0
100
AcDbCircle
 10
1645.799881491597
 20
1217.781124534564
 30
0.0
 40
5.259405864951123
100
AcDbArc
 50
343.9948124716007
 51
348.9010980423771
  0
ARC
  5
55
330
2
100
AcDbEntity
  8
0
100
AcDbCircle
 10
1645.799881491597
 20
1217.781124534564
 30
0.0
 40
5.281805864951127
100
AcDbArc
 50
343.9948124716007
 51
348.8521063160967
  0
ARC
  5
56
330
2
100
AcDbEntity
  8
0
100
AcDbCircle
 10
1645.799881491594
 20
1218.844873396655
 30
0.0
 40
5.259405864952659
100
AcDbArc
 50
6.775799326949626
 51
16.00518752839922
  0
ARC
  5
57
330
2
100
AcDbEntity
  8
0
100
AcDbCircle
 10
1645.799881491594
 20
1218.844873396655
 30
0.0
 40
5.281805864952665
100
AcDbArc
 50
6.775799326949626
 51
16.00518752839922
  0
ARC
  5
58
330
2
100
AcDbEntity
  8
0
 62
     9
100
AcDbCircle
 10
1650.306646156297
 20
1215.792617231933
 30
0.0
 40
0.2689535900643633
100
AcDbArc
 50
214.7026462088926
 51
270.0
  0
ARC
  5
59
330
2
100
AcDbEntity
  8
0
 62
     7
100
AcDbCircle
 10
1650.306646156297
 20
1215.792617231933
 30
0.0
 40
0.2689535900643767
100
AcDbArc
 50
270.0
 51
325.2973537911074
  0
ARC
  5
5A
330
2
100
AcDbEntity
  8
0
 62
     7
100
AcDbCircle
 10
1650.306646156297
 20
1215.792617231933
 30
0.0
 40
0.2913535900643814
100
AcDbArc
 50
270.0
 51
325.2973537911074
  0
ARC
  5
5B
330
2
100
AcDbEntity
  8
0
 62
     7
100
AcDbCircle
 10
1650.306646156297
 20
1215.792617231933
 30
0.0
 40
0.2913535900643679
100
AcDbArc
 50
214.7026462088926
 51
270.0
  0
ARC
  5
5C
330
2
100
AcDbEntity
  8
0
 62
     7
100
AcDbCircle
 10
1652.021815322469
 20
1216.980373868028
 30
0.0
 40
2.37763523336624
100
AcDbArc
 50
196.0051875283992
 51
214.7026462088926
  0
ARC
  5
5D
330
2
100
AcDbEntity
  8
0
100
AcDbCircle
 10
1648.591476990125
 20
1216.980373868028
 30
0.0
 40
2.377635233366162
100
AcDbArc
 50
325.2973537911074
 51
343.9948124716007
  0
ARC
  5
5E
330
2
100
AcDbEntity
  8
0
 62
     7
100
AcDbCircle
 10
1652.489360764896
 20
1217.052808098771
 30
0.0
 40
0.2689535900643549
100
AcDbArc
 50
329.9999999999905
 51
25.29735379110193
  0
ARC
  5
5F
330
2
100
AcDbEntity
  8
0
 62
     7
100
AcDbCircle
 10
1652.489360764896
 20
1217.052808098771
 30
0.0
 40
0.2913535900643848
100
AcDbArc
 50
274.7026462088783
 51
329.9999999999905
  0
ARC
  5
60
330
2
100
AcDbEntity
  8
0
 62
     7
100
AcDbCircle
 10
1650.603148761438
 20
1216.161306347126
 30
0.0
 40
2.377635233365923
100
AcDbArc
 50
25.29735379110193
 51
43.99481247158668
  0
ARC
  5
61
330
2
100
AcDbEntity
  8
0
 62
     7
100
AcDbCircle
 10
1652.489360764896
 20
1217.052808098771
 30
0.0
 40
0.2913535900643596
100
AcDbArc
 50
329.9999999999905
 51
25.29735379110193
  0
ARC
  5
62
330
2
100
AcDbEntity
  8
0
 62
     7
100
AcDbCircle
 10
1652.489360764896
 20
1219.573189832448
 30
0.0
 40
0.2689535900643765
100
AcDbArc
 50
334.702646208898
 51
30.00000000000943
  0
ARC
  5
63
330
2
100
AcDbEntity
  8
0
100
AcDbCircle
 10
1650.603148761438
 20
1220.464691584094
 30
0.0
 40
2.377635233366214
100
AcDbArc
 50
316.0051875284132
 51
334.702646208898
  0
ARC
  5
64
330
2
100
AcDbEntity
  8
0
 62
     7
100
AcDbCircle
 10
1652.489360764896
 20
1219.573189832448
 30
0.0
 40
0.2913535900643811
100
AcDbArc
 50
334.702646208898
 51
30.00000000000943
  0
ARC
  5
65
330
2
100
AcDbEntity
  8
0
 62
     7
100
AcDbCircle
 10
1652.489360764896
 20
1219.573189832448
 30
0.0
 40
0.291353590064339
100
AcDbArc
 50
29.99999999998425
 51
85.29735379109274
  0
ARC
  5
66
330
2
100
AcDbEntity
  8
0
100
AcDbCircle
 10
1648.591476990125
 20
1219.645624063192
 30
0.0
 40
2.37763523336624
100
AcDbArc
 50
16.00518752839922
 51
34.70264620889264
  0
ARC
  5
67
330
2
100
AcDbEntity
  8
0
 62
     7
100
AcDbCircle
 10
1652.021815322469
 20
1219.645624063192
 30
0.0
 40
2.377635233366009
100
AcDbArc
 50
145.2973537911073
 51
163.9948124716006
  0
ARC
  5
68
330
2
100
AcDbEntity
  8
0
100
AcDbCircle
 10
1652.099411719739
 20
1222.481908869642
 30
0.0
 40
5.259405864951126
100
AcDbArc
 50
223.9948124715867
 51
233.2242006730325
  0
ARC
  5
69
330
2
100
AcDbEntity
  8
0
100
AcDbCircle
 10
1652.099411719739
 20
1222.481908869642
 30
0.0
 40
5.281805864951132
100
AcDbArc
 50
223.9948124715867
 51
233.2242006730325
  0
ARC
  5
6A
330
2
100
AcDbEntity
  8
0
 62
     7
100
AcDbCircle
 10
1648.123931547699
 20
1219.573189832448
 30
0.0
 40
0.2689535900643837
100
AcDbArc
 50
94.70264620890729
 51
150.0000000000157
  0
ARC
  5
6B
330
2
100
AcDbEntity
  8
0
 62
     7
100
AcDbCircle
 10
1648.123931547699
 20
1219.573189832448
 30
0.0
 40
0.2689535900643676
100
AcDbArc
 50
149.9999999999905
 51
205.2973537911019
  0
ARC
  5
6C
330
2
100
AcDbEntity
  8
0
 62
     7
100
AcDbCircle
 10
1648.123931547699
 20
1219.573189832448
 30
0.0
 40
0.2913535900643724
100
AcDbArc
 50
149.9999999999905
 51
205.2973537911019
  0
ARC
  5
6D
330
2
100
AcDbEntity
  8
0
 62
     7
100
AcDbCircle
 10
1648.123931547699
 20
1219.573189832448
 30
0.0
 40
0.2913535900643884
100
AcDbArc
 50
94.70264620890729
 51
150.0000000000157
  0
ARC
  5
6E
330
2
100
AcDbEntity
  8
0
 62
     7
100
AcDbCircle
 10
1648.294974384984
 20
1217.493931444707
 30
0.0
 40
2.377635233366123
100
AcDbArc
 50
76.00518752839741
 51
94.7026462088783
  0
ARC
  5
6F
330
2
100
AcDbEntity
  8
0
100
AcDbCircle
 10
1650.010143551157
 20
1220.464691584094
 30
0.0
 40
2.377635233366139
100
AcDbArc
 50
205.2973537911019
 51
223.9948124715867
  0
ARC
  5
70
330
2
100
AcDbEntity
  8
0
 62
     7
100
AcDbCircle
 10
1652.09941171974
 20
1214.144089061577
 30
0.0
 40
5.281805864952829
100
AcDbArc
 50
130.7431265331659
 51
136.0051875284133
  0
ARC
  5
71
330
2
100
AcDbEntity
  8
0
 62
     7
100
AcDbCircle
 10
1648.123931547699
 20
1217.052808098771
 30
0.0
 40
0.2689535900643929
100
AcDbArc
 50
154.702646208898
 51
209.9999999999841
  0
ARC
  5
72
330
2
100
AcDbEntity
  8
0
 62
     7
100
AcDbCircle
 10
1648.123931547699
 20
1217.052808098771
 30
0.0
 40
0.2689535900643461
100
AcDbArc
 50
209.9999999999841
 51
265.2973537911216
  0
ARC
  5
73
330
2
100
AcDbEntity
  8
0
 62
     7
100
AcDbCircle
 10
1648.123931547699
 20
1217.052808098771
 30
0.0
 40
0.2913535900643508
100
AcDbArc
 50
209.9999999999841
 51
265.2973537911216
  0
ARC
  5
74
330
2
100
AcDbEntity
  8
0
 62
     7
100
AcDbCircle
 10
1648.123931547699
 20
1217.052808098771
 30
0.0
 40
0.2913535900643975
100
AcDbArc
 50
154.702646208898
 51
209.9999999999841
  0
ARC
  5
75
330
2
100
AcDbEntity
  8
0
100
AcDbCircle
 10
1648.294974384985
 20
1219.132066486512
 30
0.0
 40
2.377635233365981
100
AcDbArc
 50
265.2973537910927
 51
283.9948124716027
  0
ARC
  5
76
330
2
100
AcDbEntity
  8
0
 62
     7
100
AcDbCircle
 10
1650.010143551157
 20
1216.161306347125
 30
0.0
 40
2.377635233366258
100
AcDbArc
 50
136.0051875284133
 51
154.702646208898
  0
ARC
  5
77
330
2
100
AcDbEntity
  8
0
100
AcDbCircle
 10
1654.798285651762
 20
1226.092746781038
 30
0.0
 40
9.745006632845202
100
AcDbArc
 50
233.2242006730325
 51
240.0000000000157
  0
ARC
  5
78
330
2
100
AcDbEntity
  8
0
100
AcDbCircle
 10
1654.798285651762
 20
1226.092746781038
 30
0.0
 40
9.789806632845216
100
AcDbArc
 50
233.2242006730325
 51
240.0000000000157
  0
ARC
  5
79
330
2
100
AcDbEntity
  8
0
100
AcDbCircle
 10
1647.407143773389
 20
1222.69433453971
 30
0.0
 40
6.026474380809651
100
AcDbArc
 50
283.9948124716027
 51
293.2242006730378
  0
ARC
  5
7A
330
2
100
AcDbEntity
  8
0
100
AcDbCircle
 10
1647.407143773389
 20
1222.69433453971
 30
0.0
 40
6.048874380809655
100
AcDbArc
 50
283.9948124716027
 51
293.2242006730378
  0
ARC
  5
7B
330
2
100
AcDbEntity
  8
0
 62
     7
100
AcDbCircle
 10
1647.592647055038
 20
1214.675963492623
 30
0.0
 40
5.281805864951648
100
AcDbArc
 50
66.77579932696223
 51
76.00518752839741
  0
ARC
  5
7C
330
2
100
AcDbEntity
  8
0
 62
     7
100
AcDbCircle
 10
1654.798285651764
 20
1210.533251150179
 30
0.0
 40
9.789806632847792
100
AcDbArc
 50
119.9999999999842
 51
125.7357276272611
  0
MTEXT
  5
7D
330
2
100
AcDbEntity
  8
0
100
AcDbMText
 10
1661.594008251591
 20
1354.070710172502
 30
0.0
 40
15.0
 41
0.0
 46
0.0
 71
     5
 72
     5
  1
\A1;300
 73
     1
 44
1.0
1001
ACAD
1000
MTEXTBEGIN
1070
    73
1070
     1
1070
    44
1040
1.0
1070
    74
1070
     0
1000
MTEXTEND
  0
INSERT
  5
7E
330
2
100
AcDbEntity
  8
0
100
AcDbBlockReference
  2
YAZ1
 10
1511.594008251591
 20
1339.070710172502
 30
0.0
 41
10.0
 42
10.0
 43
10.0
 50
180.0
  0
INSERT
  5
7F
330
2
100
AcDbEntity
  8
0
100
AcDbBlockReference
  2
YAZ1
 10
1811.594008251591
 20
1339.070710172502
 30
0.0
 41
10.0
 42
10.0
 43
10.0
  0
LINE
  5
80
330
2
100
AcDbEntity
  8
0
100
AcDbLine
 10
1801.594008251591
 20
1339.070710172502
 30
0.0
 11
1521.594008251591
 21
1339.070710172502
 31
0.0
  0
LINE
  5
81
330
2
100
AcDbEntity
  8
0
100
AcDbLine
 10
1511.594008251591
 20
1242.103962480767
 30
0.0
 11
1511.594008251591
 21
1348.070710172502
 31
0.0
  0
LINE
  5
82
330
2
100
AcDbEntity
  8
0
100
AcDbLine
 10
1811.594008251591
 20
1240.593544303188
 30
0.0
 11
1811.594008251591
 21
1348.070710172502
 31
0.0
  0
ARC
  5
83
330
2
100
AcDbEntity
  8
0
 62
     7
100
AcDbCircle
 10
991.5326334371194
 20
1220.569146277137
 30
0.0
 40
0.2689535900642693
100
AcDbArc
 50
90.0
 51
145.2973537911073
  0
ARC
  5
84
330
2
100
AcDbEntity
  8
0
 62
     7
100
AcDbCircle
 10
991.5326334371194
 20
1220.569146277137
 30
0.0
 40
0.2913535900642711
100
AcDbArc
 50
90.0
 51
145.2973537911073
  0
ARC
  5
85
330
2
100
AcDbEntity
  8
0
 62
     7
100
AcDbCircle
 10
991.5326334371194
 20
1220.569146277136
 30
0.0
 40
0.2689535900643416
100
AcDbArc
 50
34.70264620889264
 51
90.0
  0
ARC
  5
86
330
2
100
AcDbEntity
  8
0
 62
     7
100
AcDbCircle
 10
991.5326334371194
 20
1220.569146277136
 30
0.0
 40
0.2913535900643434
100
AcDbArc
 50
34.70264620889264
 51
90.0
  0
ARC
  5
87
330
2
100
AcDbEntity
  8
0
 62
     7
100
AcDbCircle
 10
993.7153480457178
 20
1219.308955410298
 30
0.0
 40
0.2689535900643001
100
AcDbArc
 50
29.99999999999153
 51
85.29735379110721
  0
ARC
  5
88
330
2
100
AcDbEntity
  8
0
100
AcDbCircle
 10
982.5493544461881
 20
1218.048764543459
 30
0.0
 40
9.745006632846692
100
AcDbArc
 50
0.0
 51
6.77579932695134
  0
ARC
  5
89
330
2
100
AcDbEntity
  8
0
100
AcDbCircle
 10
982.5493544461881
 20
1218.048764543459
 30
0.0
 40
9.789806632846694
100
AcDbArc
 50
0.0
 51
6.77579932695134
  0
ARC
  5
8A
330
2
100
AcDbEntity
  8
0
 62
     7
100
AcDbCircle
 10
988.714630929418
 20
1212.713681889209
 30
0.0
 40
6.839616637119664
100
AcDbArc
 50
53.70491482373714
 51
56.2079984048124
  0
ARC
  5
8B
330
2
100
AcDbEntity
  8
0
 62
     7
100
AcDbCircle
 10
994.2466325383785
 20
1214.411729070474
 30
0.0
 40
5.281805864950387
100
AcDbArc
 50
103.9948124716025
 51
109.8781563158204
  0
ARC
  5
8C
330
2
100
AcDbEntity
  8
0
100
AcDbCircle
 10
989.7398678736776
 20
1222.217674447491
 30
0.0
 40
5.25940586495119
100
AcDbArc
 50
306.7757993269558
 51
316.0051875284032
  0
ARC
  5
8D
330
2
100
AcDbEntity
  8
0
100
AcDbCircle
 10
989.7398678736776
 20
1222.217674447491
 30
0.0
 40
5.281805864951186
100
AcDbArc
 50
306.7757993269558
 51
316.0051875284032
  0
ARC
  5
8E
330
2
100
AcDbEntity
  8
0
 62
     7
100
AcDbCircle
 10
993.544305208432
 20
1217.229697022557
 30
0.0
 40
2.377635233365971
100
AcDbArc
 50
85.29735379110721
 51
103.9948124715884
  0
ARC
  5
8F
330
2
100
AcDbEntity
  8
0
 62
     7
100
AcDbCircle
 10
989.1880367188987
 20
1213.347054034477
 30
0.0
 40
6.048874380808864
100
AcDbArc
 50
43.9948124715968
 51
48.98569561469535
  0
ARC
  5
90
330
2
100
AcDbEntity
  8
0
 62
     7
100
AcDbCircle
 10
993.7153480457178
 20
1216.788573676621
 30
0.0
 40
0.268953590064346
100
AcDbArc
 50
274.7026462088927
 51
330.0000000000084
  0
ARC
  5
91
330
2
100
AcDbEntity
  8
0
100
AcDbCircle
 10
994.2466325383788
 20
1221.685800016446
 30
0.0
 40
5.259405864951792
100
AcDbArc
 50
246.7757993269622
 51
256.0051875284115
  0
ARC
  5
92
330
2
100
AcDbEntity
  8
0
100
AcDbCircle
 10
994.2466325383788
 20
1221.685800016446
 30
0.0
 40
5.281805864951793
100
AcDbArc
 50
246.7757993269622
 51
256.0051875284115
  0
ARC
  5
93
330
2
100
AcDbEntity
  8
0
100
AcDbCircle
 10
982.5493544461906
 20
1218.04876454346
 30
0.0
 40
9.745006632843919
100
AcDbArc
 50
354.4383604175524
 51
355.7143093420702
  0
ARC
  5
94
330
2
100
AcDbEntity
  8
0
100
AcDbCircle
 10
982.5493544461906
 20
1218.04876454346
 30
0.0
 40
9.789806632843919
100
AcDbArc
 50
354.3048887523537
 51
355.8564434980664
  0
ARC
  5
95
330
2
100
AcDbEntity
  8
0
100
AcDbCircle
 10
993.544305208432
 20
1218.867832064362
 30
0.0
 40
2.377635233366011
100
AcDbArc
 50
256.0051875284115
 51
274.7026462088927
  0
ARC
  5
96
330
2
100
AcDbEntity
  8
0
100
AcDbCircle
 10
982.5493544461906
 20
1218.04876454346
 30
0.0
 40
9.789806632843919
100
AcDbArc
 50
359.1170580287282
 51
0.0
  0
ARC
  5
97
330
2
100
AcDbEntity
  8
0
100
AcDbCircle
 10
982.5493544461906
 20
1218.04876454346
 30
0.0
 40
9.745006632843919
100
AcDbArc
 50
358.9261000392259
 51
0.0
  0
ARC
  5
98
330
2
100
AcDbEntity
  8
0
 62
     7
100
AcDbCircle
 10
988.714630929418
 20
1212.713681889209
 30
0.0
 40
6.839616637119664
100
AcDbArc
 50
61.16456129044763
 51
61.90260550448101
  0
ARC
  5
99
330
2
100
AcDbEntity
  8
0
 62
     7
100
AcDbCircle
 10
997.5619518008407
 20
1218.275844110987
 30
0.0
 40
6.839616637119737
100
AcDbArc
 50
173.2242006730485
 51
181.9026055044881
  0
ARC
  5
9A
330
2
100
AcDbEntity
  8
0
 62
     7
100
AcDbCircle
 10
996.7767325382483
 20
1218.369139478342
 30
0.0
 40
6.048874380808655
100
AcDbArc
 50
163.9948124715967
 51
173.2242006730197
  0
ARC
  5
9B
330
2
100
AcDbEntity
  8
0
 62
     7
100
AcDbCircle
 10
987.0409939416544
 20
1210.269016728031
 30
0.0
 40
9.789806632845255
100
AcDbArc
 50
60.00000000000315
 51
66.77579932696223
  0
ARC
  5
9C
330
2
100
AcDbEntity
  8
0
 62
     7
100
AcDbCircle
 10
996.0242729325836
 20
1210.269016728032
 30
0.0
 40
9.789806632843927
100
AcDbArc
 50
114.3148105519377
 51
119.9999999999968
  0
ARC
  5
9D
330
2
100
AcDbEntity
  8
0
 62
     7
100
AcDbCircle
 10
1000.515912428049
 20
1218.048764543459
 30
0.0
 40
9.789806632844939
100
AcDbArc
 50
184.0992559760026
 51
186.0535392856679
  0
ARC
  5
9E
330
2
100
AcDbEntity
  8
0
 62
     7
100
AcDbCircle
 10
996.0393981018203
 20
1217.516890112414
 30
0.0
 40
5.281805864951134
100
AcDbArc
 50
190.6994093466183
 51
196.0051875284032
  0
ARC
  5
9F
330
2
100
AcDbEntity
  8
0
100
AcDbCircle
 10
988.3213175810997
 20
1223.156767630182
 30
0.0
 40
6.794816637119589
100
AcDbArc
 50
293.2242006730378
 51
301.9026055044844
  0
ARC
  5
A0
330
2
100
AcDbEntity
  8
0
100
AcDbCircle
 10
988.3213175810997
 20
1223.156767630182
 30
0.0
 40
6.839616637119594
100
AcDbArc
 50
293.2242006730378
 51
301.9026055044844
  0
ARC
  5
A1
330
2
100
AcDbEntity
  8
0
100
AcDbCircle
 10
996.0242729325853
 20
1225.828512358889
 30
0.0
 40
9.745006632846902
100
AcDbArc
 50
240.0000000000031
 51
240.9213409166678
  0
ARC
  5
A2
330
2
100
AcDbEntity
  8
0
100
AcDbCircle
 10
996.0242729325853
 20
1225.828512358889
 30
0.0
 40
9.789806632846904
100
AcDbArc
 50
240.0000000000031
 51
240.6896992310578
  0
POLYLINE
  5
A3
330
2
100
AcDbEntity
  8
0
 62
     7
100
AcDb2dPolyline
 66
     1
 10
0.0
 20
0.0
 30
0.0
 70
     1
 40
0.3143448000000253
 41
0.3143448000000253
  0
VERTEX
  5
34F
330
A3
100
AcDbEntity
  8
0
 62
     7
100
AcDbVertex
100
AcDb2dVertex
 10
991.3305546371194
 20
1218.04876454346
 30
0.0
 42
1.0
  0
VERTEX
  5
350
330
A3
100
AcDbEntity
  8
0
 62
     7
100
AcDbVertex
100
AcDb2dVertex
 10
991.7347122371197
 20
1218.04876454346
 30
0.0
 42
1.0
  0
SEQEND
  5
351
330
A3
100
AcDbEntity
  8
0
 62
     7
  0
ARC
  5
A4
330
2
100
AcDbEntity
  8
0
 62
     7
100
AcDbCircle
 10
1000.515912428049
 20
1218.048764543459
 30
0.0
 40
9.789806632844939
100
AcDbArc
 50
180.0
 51
180.8005246427306
  0
ARC
  5
A5
330
2
100
AcDbEntity
  8
0
100
AcDbCircle
 10
987.0409939416546
 20
1225.828512358888
 30
0.0
 40
9.745006632844916
100
AcDbArc
 50
299.9999999999968
 51
306.7757993269558
  0
ARC
  5
A6
330
2
100
AcDbEntity
  8
0
100
AcDbCircle
 10
987.0409939416546
 20
1225.828512358888
 30
0.0
 40
9.78980663284492
100
AcDbArc
 50
299.9999999999968
 51
306.7757993269558
  0
ARC
  5
A7
330
2
100
AcDbEntity
  8
0
100
AcDbCircle
 10
996.0242729325853
 20
1225.828512358889
 30
0.0
 40
9.789806632846904
100
AcDbArc
 50
244.4867715734778
 51
246.7757993269622
  0
ARC
  5
A8
330
2
100
AcDbEntity
  8
0
100
AcDbCircle
 10
996.0242729325853
 20
1225.828512358889
 30
0.0
 40
9.745006632846902
100
AcDbArc
 50
244.5635176768618
 51
246.7757993269622
  0
ARC
  5
A9
330
2
100
AcDbEntity
  8
0
100
AcDbCircle
 10
987.0258687724192
 20
1217.516890112414
 30
0.0
 40
5.259405864950456
100
AcDbArc
 50
343.9948124715967
 51
348.9010980423771
  0
ARC
  5
AA
330
2
100
AcDbEntity
  8
0
100
AcDbCircle
 10
987.0258687724192
 20
1217.516890112414
 30
0.0
 40
5.281805864950458
100
AcDbArc
 50
343.9948124715967
 51
348.8521063160967
  0
ARC
  5
AB
330
2
100
AcDbEntity
  8
0
100
AcDbCircle
 10
987.0258687724176
 20
1218.580638974505
 30
0.0
 40
5.259405864951991
100
AcDbArc
 50
6.77579932695134
 51
16.00518752840323
  0
ARC
  5
AC
330
2
100
AcDbEntity
  8
0
100
AcDbCircle
 10
987.0258687724176
 20
1218.580638974505
 30
0.0
 40
5.281805864951994
100
AcDbArc
 50
6.77579932695134
 51
16.00518752840323
  0
ARC
  5
AD
330
2
100
AcDbEntity
  8
0
 62
     9
100
AcDbCircle
 10
991.5326334371194
 20
1215.528382809783
 30
0.0
 40
0.2689535900643291
100
AcDbArc
 50
214.7026462088926
 51
270.0
  0
ARC
  5
AE
330
2
100
AcDbEntity
  8
0
 62
     7
100
AcDbCircle
 10
991.5326334371194
 20
1215.528382809783
 30
0.0
 40
0.2689535900643426
100
AcDbArc
 50
270.0
 51
325.2973537911074
  0
ARC
  5
AF
330
2
100
AcDbEntity
  8
0
 62
     7
100
AcDbCircle
 10
991.5326334371194
 20
1215.528382809783
 30
0.0
 40
0.2913535900643444
100
AcDbArc
 50
270.0
 51
325.2973537911074
  0
ARC
  5
B0
330
2
100
AcDbEntity
  8
0
 62
     7
100
AcDbCircle
 10
991.5326334371194
 20
1215.528382809783
 30
0.0
 40
0.2913535900643309
100
AcDbArc
 50
214.7026462088926
 51
270.0
  0
ARC
  5
B1
330
2
100
AcDbEntity
  8
0
 62
     7
100
AcDbCircle
 10
993.2478026032919
 20
1216.716139445878
 30
0.0
 40
2.377635233365937
100
AcDbArc
 50
196.0051875284032
 51
214.7026462088926
  0
ARC
  5
B2
330
2
100
AcDbEntity
  8
0
100
AcDbCircle
 10
989.8174642709468
 20
1216.716139445878
 30
0.0
 40
2.37763523336586
100
AcDbArc
 50
325.2973537911074
 51
343.9948124715967
  0
ARC
  5
B3
330
2
100
AcDbEntity
  8
0
 62
     7
100
AcDbCircle
 10
993.7153480457178
 20
1216.788573676621
 30
0.0
 40
0.2689535900643208
100
AcDbArc
 50
329.9999999999832
 51
25.29735379110814
  0
ARC
  5
B4
330
2
100
AcDbEntity
  8
0
 62
     7
100
AcDbCircle
 10
993.7153480457178
 20
1216.788573676621
 30
0.0
 40
0.2913535900643478
100
AcDbArc
 50
274.7026462088927
 51
330.0000000000084
  0
ARC
  5
B5
330
2
100
AcDbEntity
  8
0
 62
     7
100
AcDbCircle
 10
991.82913604226
 20
1215.897071924976
 30
0.0
 40
2.37763523336562
100
AcDbArc
 50
25.29735379110814
 51
43.9948124715968
  0
ARC
  5
B6
330
2
100
AcDbEntity
  8
0
 62
     7
100
AcDbCircle
 10
993.7153480457178
 20
1216.788573676621
 30
0.0
 40
0.2913535900643227
100
AcDbArc
 50
329.9999999999832
 51
25.29735379110814
  0
ARC
  5
B7
330
2
100
AcDbEntity
  8
0
 62
     7
100
AcDbCircle
 10
993.7153480457178
 20
1219.308955410298
 30
0.0
 40
0.2689535900643424
100
AcDbArc
 50
334.7026462088919
 51
29.99999999999153
  0
ARC
  5
B8
330
2
100
AcDbEntity
  8
0
100
AcDbCircle
 10
991.8291360422596
 20
1220.200457161944
 30
0.0
 40
2.377635233365913
100
AcDbArc
 50
316.0051875284032
 51
334.7026462088919
  0
ARC
  5
B9
330
2
100
AcDbEntity
  8
0
 62
     7
100
AcDbCircle
 10
993.7153480457178
 20
1219.308955410298
 30
0.0
 40
0.2913535900643442
100
AcDbArc
 50
334.7026462088919
 51
29.99999999999153
  0
ARC
  5
BA
330
2
100
AcDbEntity
  8
0
 62
     7
100
AcDbCircle
 10
993.7153480457178
 20
1219.308955410298
 30
0.0
 40
0.291353590064302
100
AcDbArc
 50
29.99999999999153
 51
85.29735379110721
  0
ARC
  5
BB
330
2
100
AcDbEntity
  8
0
100
AcDbCircle
 10
989.8174642709468
 20
1219.381389641041
 30
0.0
 40
2.377635233365939
100
AcDbArc
 50
16.00518752840323
 51
34.70264620889264
  0
ARC
  5
BC
330
2
100
AcDbEntity
  8
0
 62
     7
100
AcDbCircle
 10
993.2478026032915
 20
1219.381389641041
 30
0.0
 40
2.377635233365707
100
AcDbArc
 50
145.2973537911073
 51
163.9948124715967
  0
ARC
  5
BD
330
2
100
AcDbEntity
  8
0
100
AcDbCircle
 10
993.3253990005603
 20
1222.217674447491
 30
0.0
 40
5.259405864950459
100
AcDbArc
 50
223.9948124715967
 51
233.2242006730442
  0
ARC
  5
BE
330
2
100
AcDbEntity
  8
0
100
AcDbCircle
 10
993.3253990005603
 20
1222.217674447491
 30
0.0
 40
5.281805864950461
100
AcDbArc
 50
223.9948124715967
 51
233.2242006730442
  0
ARC
  5
BF
330
2
100
AcDbEntity
  8
0
 62
     7
100
AcDbCircle
 10
989.3499188285208
 20
1219.308955410298
 30
0.0
 40
0.2689535900643496
100
AcDbArc
 50
94.70264620889279
 51
150.0000000000084
  0
ARC
  5
C0
330
2
100
AcDbEntity
  8
0
 62
     7
100
AcDbCircle
 10
989.3499188285208
 20
1219.308955410298
 30
0.0
 40
0.2689535900643336
100
AcDbArc
 50
149.9999999999833
 51
205.2973537911019
  0
ARC
  5
C1
330
2
100
AcDbEntity
  8
0
 62
     7
100
AcDbCircle
 10
989.3499188285208
 20
1219.308955410298
 30
0.0
 40
0.2913535900643354
100
AcDbArc
 50
149.9999999999833
 51
205.2973537911019
  0
ARC
  5
C2
330
2
100
AcDbEntity
  8
0
 62
     7
100
AcDbCircle
 10
989.3499188285208
 20
1219.308955410298
 30
0.0
 40
0.2913535900643515
100
AcDbArc
 50
94.70264620889279
 51
150.0000000000084
  0
ARC
  5
C3
330
2
100
AcDbEntity
  8
0
 62
     7
100
AcDbCircle
 10
989.5209616658066
 20
1217.229697022557
 30
0.0
 40
2.377635233365821
100
AcDbArc
 50
76.00518752841153
 51
94.70264620889279
  0
ARC
  5
C4
330
2
100
AcDbEntity
  8
0
100
AcDbCircle
 10
991.2361308319793
 20
1220.200457161944
 30
0.0
 40
2.377635233365837
100
AcDbArc
 50
205.2973537911081
 51
223.9948124715967
  0
ARC
  5
C5
330
2
100
AcDbEntity
  8
0
 62
     7
100
AcDbCircle
 10
993.3253990005617
 20
1213.879854639427
 30
0.0
 40
5.281805864952159
100
AcDbArc
 50
130.7431265331659
 51
136.0051875284031
  0
ARC
  5
C6
330
2
100
AcDbEntity
  8
0
 62
     7
100
AcDbCircle
 10
989.3499188285208
 20
1216.788573676621
 30
0.0
 40
0.2689535900643587
100
AcDbArc
 50
154.7026462088918
 51
209.9999999999915
  0
ARC
  5
C7
330
2
100
AcDbEntity
  8
0
 62
     7
100
AcDbCircle
 10
989.3499188285208
 20
1216.788573676621
 30
0.0
 40
0.2689535900643121
100
AcDbArc
 50
209.9999999999915
 51
265.2973537911072
  0
ARC
  5
C8
330
2
100
AcDbEntity
  8
0
 62
     7
100
AcDbCircle
 10
989.3499188285208
 20
1216.788573676621
 30
0.0
 40
0.2913535900643138
100
AcDbArc
 50
209.9999999999915
 51
265.2973537911072
  0
ARC
  5
C9
330
2
100
AcDbEntity
  8
0
 62
     7
100
AcDbCircle
 10
989.3499188285208
 20
1216.788573676621
 30
0.0
 40
0.2913535900643605
100
AcDbArc
 50
154.7026462088918
 51
209.9999999999915
  0
ARC
  5
CA
330
2
100
AcDbEntity
  8
0
100
AcDbCircle
 10
989.5209616658066
 20
1218.867832064362
 30
0.0
 40
2.377635233365681
100
AcDbArc
 50
265.2973537911072
 51
283.9948124715884
  0
ARC
  5
CB
330
2
100
AcDbEntity
  8
0
 62
     7
100
AcDbCircle
 10
991.2361308319793
 20
1215.897071924975
 30
0.0
 40
2.377635233365956
100
AcDbArc
 50
136.0051875284031
 51
154.7026462088918
  0
ARC
  5
CC
330
2
100
AcDbEntity
  8
0
100
AcDbCircle
 10
996.0242729325836
 20
1225.828512358887
 30
0.0
 40
9.745006632843965
100
AcDbArc
 50
233.2242006730442
 51
240.0000000000031
  0
ARC
  5
CD
330
2
100
AcDbEntity
  8
0
100
AcDbCircle
 10
996.0242729325836
 20
1225.828512358887
 30
0.0
 40
9.789806632843973
100
AcDbArc
 50
233.2242006730442
 51
240.0000000000031
  0
ARC
  5
CE
330
2
100
AcDbEntity
  8
0
100
AcDbCircle
 10
988.6331310542113
 20
1222.430100117559
 30
0.0
 40
6.026474380808886
100
AcDbArc
 50
283.9948124715884
 51
293.2242006730378
  0
ARC
  5
CF
330
2
100
AcDbEntity
  8
0
100
AcDbCircle
 10
988.6331310542113
 20
1222.430100117559
 30
0.0
 40
6.048874380808887
100
AcDbArc
 50
283.9948124715884
 51
293.2242006730378
  0
ARC
  5
D0
330
2
100
AcDbEntity
  8
0
 62
     7
100
AcDbCircle
 10
988.8186343358599
 20
1214.411729070474
 30
0.0
 40
5.281805864950976
100
AcDbArc
 50
66.77579932696223
 51
76.00518752839741
  0
ARC
  5
D1
330
2
100
AcDbEntity
  8
0
 62
     7
100
AcDbCircle
 10
996.024272932585
 20
1210.26901672803
 30
0.0
 40
9.78980663284655
100
AcDbArc
 50
119.9999999999968
 51
125.735727627278
  0
ARC
  5
D2
330
2
100
AcDbEntity
  8
0
 62
     7
100
AcDbCircle
 10
502.116189570757
 20
767.7230657691485
 30
0.0
 40
0.2689535900642352
100
AcDbArc
 50
90.0
 51
145.2973537911073
  0
ARC
  5
D3
330
2
100
AcDbEntity
  8
0
 62
     7
100
AcDbCircle
 10
502.116189570757
 20
767.7230657691485
 30
0.0
 40
0.2913535900642342
100
AcDbArc
 50
90.0
 51
145.2973537911073
  0
ARC
  5
D4
330
2
100
AcDbEntity
  8
0
 62
     7
100
AcDbCircle
 10
502.116189570757
 20
767.7230657691485
 30
0.0
 40
0.2689535900643075
100
AcDbArc
 50
34.70264620889264
 51
90.0
  0
ARC
  5
D5
330
2
100
AcDbEntity
  8
0
 62
     7
100
AcDbCircle
 10
502.116189570757
 20
767.7230657691485
 30
0.0
 40
0.2913535900643065
100
AcDbArc
 50
34.70264620889264
 51
90.0
  0
ARC
  5
D6
330
2
100
AcDbEntity
  8
0
 62
     7
100
AcDbCircle
 10
504.2989041793552
 20
766.4628749023103
 30
0.0
 40
0.268953590064266
100
AcDbArc
 50
29.99999999999153
 51
85.29735379110721
  0
ARC
  5
D7
330
2
100
AcDbEntity
  8
0
100
AcDbCircle
 10
493.1329105798266
 20
765.2026840354717
 30
0.0
 40
9.745006632845456
100
AcDbArc
 50
0.0
 51
6.775799326966636
  0
ARC
  5
D8
330
2
100
AcDbEntity
  8
0
100
AcDbCircle
 10
493.1329105798266
 20
765.2026840354717
 30
0.0
 40
9.789806632845452
100
AcDbArc
 50
0.0
 51
6.775799326966636
  0
ARC
  5
D9
330
2
100
AcDbEntity
  8
0
 62
     7
100
AcDbCircle
 10
499.2981870630557
 20
759.8676013812227
 30
0.0
 40
6.839616637118796
100
AcDbArc
 50
53.70491482373714
 51
56.2079984048124
  0
ARC
  5
DA
330
2
100
AcDbEntity
  8
0
 62
     7
100
AcDbCircle
 10
504.8301886720158
 20
761.565648562487
 30
0.0
 40
5.281805864949715
100
AcDbArc
 50
103.994812471599
 51
109.8781563158204
  0
ARC
  5
DB
330
2
100
AcDbEntity
  8
0
100
AcDbCircle
 10
500.3234240073155
 20
769.3715939395033
 30
0.0
 40
5.259405864950523
100
AcDbArc
 50
306.7757993269586
 51
316.0051875283981
  0
ARC
  5
DC
330
2
100
AcDbEntity
  8
0
100
AcDbCircle
 10
500.3234240073155
 20
769.3715939395033
 30
0.0
 40
5.281805864950516
100
AcDbArc
 50
306.7757993269586
 51
316.0051875283981
  0
ARC
  5
DD
330
2
100
AcDbEntity
  8
0
 62
     7
100
AcDbCircle
 10
504.1278613420693
 20
764.3836165145696
 30
0.0
 40
2.37763523336567
100
AcDbArc
 50
85.29735379110721
 51
103.9948124715884
  0
ARC
  5
DE
330
2
100
AcDbEntity
  8
0
 62
     7
100
AcDbCircle
 10
499.7715928525366
 20
760.5009735264903
 30
0.0
 40
6.048874380808096
100
AcDbArc
 50
43.9948124715968
 51
48.9856956146913
  0
ARC
  5
DF
330
2
100
AcDbEntity
  8
0
 62
     7
100
AcDbCircle
 10
504.2989041793551
 20
763.9424931686337
 30
0.0
 40
0.2689535900643119
100
AcDbArc
 50
274.7026462088855
 51
329.9999999999922
  0
ARC
  5
E0
330
2
100
AcDbEntity
  8
0
100
AcDbCircle
 10
504.8301886720159
 20
768.8397195084585
 30
0.0
 40
5.259405864951124
100
AcDbArc
 50
246.7757993269688
 51
256.0051875284009
  0
ARC
  5
E1
330
2
100
AcDbEntity
  8
0
100
AcDbCircle
 10
504.8301886720159
 20
768.8397195084585
 30
0.0
 40
5.281805864951121
100
AcDbArc
 50
246.7757993269688
 51
256.0051875284009
  0
ARC
  5
E2
330
2
100
AcDbEntity
  8
0
100
AcDbCircle
 10
493.1329105798294
 20
765.2026840354722
 30
0.0
 40
9.745006632842683
100
AcDbArc
 50
354.438360417566
 51
355.7143093420556
  0
ARC
  5
E3
330
2
100
AcDbEntity
  8
0
100
AcDbCircle
 10
493.1329105798294
 20
765.2026840354722
 30
0.0
 40
9.78980663284268
100
AcDbArc
 50
354.3048887523529
 51
355.8564434980659
  0
ARC
  5
E4
330
2
100
AcDbEntity
  8
0
100
AcDbCircle
 10
504.1278613420694
 20
766.0217515563742
 30
0.0
 40
2.37763523336571
100
AcDbArc
 50
256.0051875284009
 51
274.7026462088927
  0
ARC
  5
E5
330
2
100
AcDbEntity
  8
0
100
AcDbCircle
 10
493.1329105798294
 20
765.2026840354722
 30
0.0
 40
9.78980663284268
100
AcDbArc
 50
359.1170580287136
 51
0.0
  0
ARC
  5
E6
330
2
100
AcDbEntity
  8
0
100
AcDbCircle
 10
493.1329105798294
 20
765.2026840354722
 30
0.0
 40
9.745006632842683
100
AcDbArc
 50
358.9261000392402
 51
0.0
  0
ARC
  5
E7
330
2
100
AcDbEntity
  8
0
 62
     7
100
AcDbCircle
 10
499.2981870630557
 20
759.8676013812227
 30
0.0
 40
6.839616637118796
100
AcDbArc
 50
61.16456129044061
 51
61.90260550447415
  0
ARC
  5
E8
330
2
100
AcDbEntity
  8
0
 62
     7
100
AcDbCircle
 10
508.1455079344774
 20
765.4297636029994
 30
0.0
 40
6.83961663711887
100
AcDbArc
 50
173.2242006730333
 51
181.9026055044739
  0
ARC
  5
E9
330
2
100
AcDbEntity
  8
0
 62
     7
100
AcDbCircle
 10
507.3602886718852
 20
765.5230589703543
 30
0.0
 40
6.048874380807887
100
AcDbArc
 50
163.9948124715927
 51
173.2242006730333
  0
ARC
  5
EA
330
2
100
AcDbEntity
  8
0
 62
     7
100
AcDbCircle
 10
497.6245500752925
 20
757.4229362200445
 30
0.0
 40
9.789806632844012
100
AcDbArc
 50
60.00000000000218
 51
66.7757993269689
  0
ARC
  5
EB
330
2
100
AcDbEntity
  8
0
 62
     7
100
AcDbCircle
 10
506.6078290662207
 20
757.4229362200457
 30
0.0
 40
9.789806632842687
100
AcDbArc
 50
114.3148105519377
 51
119.9999999999977
  0
ARC
  5
EC
330
2
100
AcDbEntity
  8
0
 62
     7
100
AcDbCircle
 10
511.0994685616855
 20
765.202684035472
 30
0.0
 40
9.789806632843699
100
AcDbArc
 50
184.0992559760026
 51
186.0535392856824
  0
ARC
  5
ED
330
2
100
AcDbEntity
  8
0
 62
     7
100
AcDbCircle
 10
506.6229542354573
 20
764.6708096044266
 30
0.0
 40
5.281805864950463
100
AcDbArc
 50
190.699409346621
 51
196.0051875284071
  0
ARC
  5
EE
330
2
100
AcDbEntity
  8
0
100
AcDbCircle
 10
498.9048737147377
 20
770.3106871221941
 30
0.0
 40
6.794816637118728
100
AcDbArc
 50
293.2242006730435
 51
301.9026055044783
  0
ARC
  5
EF
330
2
100
AcDbEntity
  8
0
100
AcDbCircle
 10
498.9048737147377
 20
770.3106871221941
 30
0.0
 40
6.839616637118727
100
AcDbArc
 50
293.2242006730435
 51
301.9026055044783
  0
ARC
  5
F0
330
2
100
AcDbEntity
  8
0
100
AcDbCircle
 10
506.6078290662223
 20
772.9824318509009
 30
0.0
 40
9.745006632845663
100
AcDbArc
 50
240.0000000000021
 51
240.9213409166678
  0
ARC
  5
F1
330
2
100
AcDbEntity
  8
0
100
AcDbCircle
 10
506.6078290662223
 20
772.9824318509009
 30
0.0
 40
9.789806632845664
100
AcDbArc
 50
240.0000000000021
 51
240.6896992310641
  0
POLYLINE
  5
F2
330
2
100
AcDbEntity
  8
0
 62
     7
100
AcDb2dPolyline
 66
     1
 10
0.0
 20
0.0
 30
0.0
 70
     1
 40
0.3143447999999854
 41
0.3143447999999854
  0
VERTEX
  5
352
330
F2
100
AcDbEntity
  8
0
 62
     7
100
AcDbVertex
100
AcDb2dVertex
 10
501.9141107707569
 20
765.2026840354721
 30
0.0
 42
1.0
  0
VERTEX
  5
353
330
F2
100
AcDbEntity
  8
0
 62
     7
100
AcDbVertex
100
AcDb2dVertex
 10
502.3182683707569
 20
765.2026840354721
 30
0.0
 42
1.0
  0
SEQEND
  5
354
330
F2
100
AcDbEntity
  8
0
 62
     7
  0
ARC
  5
F3
330
2
100
AcDbEntity
  8
0
 62
     7
100
AcDbCircle
 10
511.0994685616855
 20
765.202684035472
 30
0.0
 40
9.789806632843699
100
AcDbArc
 50
180.0
 51
180.8005246427161
  0
ARC
  5
F4
330
2
100
AcDbEntity
  8
0
100
AcDbCircle
 10
497.6245500752926
 20
772.9824318508991
 30
0.0
 40
9.745006632843679
100
AcDbArc
 50
299.9999999999979
 51
306.7757993269645
  0
ARC
  5
F5
330
2
100
AcDbEntity
  8
0
100
AcDbCircle
 10
497.6245500752926
 20
772.9824318508991
 30
0.0
 40
9.789806632843678
100
AcDbArc
 50
299.9999999999979
 51
306.7757993269645
  0
ARC
  5
F6
330
2
100
AcDbEntity
  8
0
100
AcDbCircle
 10
506.6078290662223
 20
772.9824318509009
 30
0.0
 40
9.789806632845664
100
AcDbArc
 50
244.4867715734715
 51
246.7757993269688
  0
ARC
  5
F7
330
2
100
AcDbEntity
  8
0
100
AcDbCircle
 10
506.6078290662223
 20
772.9824318509009
 30
0.0
 40
9.745006632845663
100
AcDbArc
 50
244.5635176768622
 51
246.7757993269688
  0
ARC
  5
F8
330
2
100
AcDbEntity
  8
0
100
AcDbCircle
 10
497.6094249060571
 20
764.6708096044266
 30
0.0
 40
5.259405864949789
100
AcDbArc
 50
343.9948124715927
 51
348.9010980423771
  0
ARC
  5
F9
330
2
100
AcDbEntity
  8
0
100
AcDbCircle
 10
497.6094249060571
 20
764.6708096044266
 30
0.0
 40
5.281805864949787
100
AcDbArc
 50
343.9948124715927
 51
348.8521063160967
  0
ARC
  5
FA
330
2
100
AcDbEntity
  8
0
100
AcDbCircle
 10
497.6094249060556
 20
765.7345584665172
 30
0.0
 40
5.259405864951324
100
AcDbArc
 50
6.775799326966636
 51
16.00518752840724
  0
ARC
  5
FB
330
2
100
AcDbEntity
  8
0
100
AcDbCircle
 10
497.6094249060556
 20
765.7345584665172
 30
0.0
 40
5.281805864951325
100
AcDbArc
 50
6.775799326966636
 51
16.00518752840724
  0
ARC
  5
FC
330
2
100
AcDbEntity
  8
0
 62
     9
100
AcDbCircle
 10
502.1161895707568
 20
762.6823023017955
 30
0.0
 40
0.268953590064295
100
AcDbArc
 50
214.7026462088926
 51
269.9999999999927
  0
ARC
  5
FD
330
2
100
AcDbEntity
  8
0
 62
     7
100
AcDbCircle
 10
502.1161895707568
 20
762.6823023017955
 30
0.0
 40
0.2689535900643085
100
AcDbArc
 50
270.0
 51
325.2973537911074
  0
ARC
  5
FE
330
2
100
AcDbEntity
  8
0
 62
     7
100
AcDbCircle
 10
502.1161895707568
 20
762.6823023017955
 30
0.0
 40
0.2913535900643074
100
AcDbArc
 50
270.0
 51
325.2973537911074
  0
ARC
  5
FF
330
2
100
AcDbEntity
  8
0
 62
     7
100
AcDbCircle
 10
502.1161895707568
 20
762.6823023017955
 30
0.0
 40
0.2913535900642939
100
AcDbArc
 50
214.7026462088926
 51
269.9999999999927
  0
ARC
  5
100
330
2
100
AcDbEntity
  8
0
 62
     7
100
AcDbCircle
 10
503.8313587369294
 20
763.8700589378903
 30
0.0
 40
2.377635233365635
100
AcDbArc
 50
196.0051875284071
 51
214.7026462088926
  0
ARC
  5
101
330
2
100
AcDbEntity
  8
0
100
AcDbCircle
 10
500.4010204045846
 20
763.8700589378903
 30
0.0
 40
2.377635233365559
100
AcDbArc
 50
325.2973537911074
 51
343.9948124715927
  0
ARC
  5
102
330
2
100
AcDbEntity
  8
0
 62
     7
100
AcDbCircle
 10
504.2989041793552
 20
763.9424931686337
 30
0.0
 40
0.2689535900642867
100
AcDbArc
 50
329.9999999999922
 51
25.29735379109499
  0
ARC
  5
103
330
2
100
AcDbEntity
  8
0
 62
     7
100
AcDbCircle
 10
504.2989041793551
 20
763.9424931686337
 30
0.0
 40
0.2913535900643108
100
AcDbArc
 50
274.7026462088855
 51
329.9999999999922
  0
ARC
  5
104
330
2
100
AcDbEntity
  8
0
 62
     7
100
AcDbCircle
 10
502.4126921758973
 20
763.0509914169882
 30
0.0
 40
2.37763523336532
100
AcDbArc
 50
25.29735379110814
 51
43.9948124715968
  0
ARC
  5
105
330
2
100
AcDbEntity
  8
0
 62
     7
100
AcDbCircle
 10
504.2989041793552
 20
763.9424931686337
 30
0.0
 40
0.2913535900642857
100
AcDbArc
 50
329.9999999999922
 51
25.29735379109499
  0
ARC
  5
106
330
2
100
AcDbEntity
  8
0
 62
     7
100
AcDbCircle
 10
504.2989041793551
 20
766.4628749023101
 30
0.0
 40
0.2689535900643083
100
AcDbArc
 50
334.7026462088919
 51
30.00000000000774
  0
ARC
  5
107
330
2
100
AcDbEntity
  8
0
100
AcDbCircle
 10
502.4126921758972
 20
767.3543766539558
 30
0.0
 40
2.377635233365611
100
AcDbArc
 50
316.0051875284032
 51
334.7026462088887
  0
ARC
  5
108
330
2
100
AcDbEntity
  8
0
 62
     7
100
AcDbCircle
 10
504.2989041793551
 20
766.4628749023101
 30
0.0
 40
0.2913535900643072
100
AcDbArc
 50
334.7026462088919
 51
30.00000000000774
  0
ARC
  5
109
330
2
100
AcDbEntity
  8
0
 62
     7
100
AcDbCircle
 10
504.2989041793552
 20
766.4628749023103
 30
0.0
 40
0.291353590064265
100
AcDbArc
 50
29.99999999999153
 51
85.29735379110721
  0
ARC
  5
10A
330
2
100
AcDbEntity
  8
0
100
AcDbCircle
 10
500.4010204045846
 20
766.5353091330537
 30
0.0
 40
2.377635233365638
100
AcDbArc
 50
16.00518752840724
 51
34.70264620889264
  0
ARC
  5
10B
330
2
100
AcDbEntity
  8
0
 62
     7
100
AcDbCircle
 10
503.831358736929
 20
766.5353091330536
 30
0.0
 40
2.377635233365405
100
AcDbArc
 50
145.2973537911032
 51
163.9948124715927
  0
ARC
  5
10C
330
2
100
AcDbEntity
  8
0
100
AcDbCircle
 10
503.9089551341978
 20
769.371593939503
 30
0.0
 40
5.259405864949791
100
AcDbArc
 50
223.9948124716018
 51
233.2242006730413
  0
ARC
  5
10D
330
2
100
AcDbEntity
  8
0
100
AcDbCircle
 10
503.9089551341978
 20
769.371593939503
 30
0.0
 40
5.281805864949792
100
AcDbArc
 50
223.9948124716018
 51
233.2242006730413
  0
ARC
  5
10E
330
2
100
AcDbEntity
  8
0
 62
     7
100
AcDbCircle
 10
499.9334749621588
 20
766.4628749023103
 30
0.0
 40
0.2689535900643154
100
AcDbArc
 50
94.7026462089
 51
150.0000000000084
  0
ARC
  5
10F
330
2
100
AcDbEntity
  8
0
 62
     7
100
AcDbCircle
 10
499.9334749621588
 20
766.4628749023101
 30
0.0
 40
0.2689535900642994
100
AcDbArc
 50
149.9999999999922
 51
205.297353791095
  0
ARC
  5
110
330
2
100
AcDbEntity
  8
0
 62
     7
100
AcDbCircle
 10
499.9334749621588
 20
766.4628749023101
 30
0.0
 40
0.2913535900642985
100
AcDbArc
 50
149.9999999999922
 51
205.297353791095
  0
ARC
  5
111
330
2
100
AcDbEntity
  8
0
 62
     7
100
AcDbCircle
 10
499.9334749621588
 20
766.4628749023103
 30
0.0
 40
0.2913535900643145
100
AcDbArc
 50
94.7026462089
 51
150.0000000000084
  0
ARC
  5
112
330
2
100
AcDbEntity
  8
0
 62
     7
100
AcDbCircle
 10
500.1045177994443
 20
764.38361651457
 30
0.0
 40
2.377635233365519
100
AcDbArc
 50
76.00518752840095
 51
94.70264620889279
  0
ARC
  5
113
330
2
100
AcDbEntity
  8
0
100
AcDbCircle
 10
501.8196869656167
 20
767.3543766539558
 30
0.0
 40
2.377635233365535
100
AcDbArc
 50
205.2973537911081
 51
223.9948124715967
  0
ARC
  5
114
330
2
100
AcDbEntity
  8
0
 62
     7
100
AcDbCircle
 10
503.908955134199
 20
761.0337741314399
 30
0.0
 40
5.28180586495149
100
AcDbArc
 50
130.7431265331754
 51
136.0051875283981
  0
ARC
  5
115
330
2
100
AcDbEntity
  8
0
 62
     7
100
AcDbCircle
 10
499.9334749621588
 20
763.9424931686337
 30
0.0
 40
0.2689535900643245
100
AcDbArc
 50
154.7026462088887
 51
209.9999999999915
  0
ARC
  5
116
330
2
100
AcDbEntity
  8
0
 62
     7
100
AcDbCircle
 10
499.9334749621588
 20
763.9424931686337
 30
0.0
 40
0.2689535900642779
100
AcDbArc
 50
209.9999999999951
 51
265.2973537911072
  0
ARC
  5
117
330
2
100
AcDbEntity
  8
0
 62
     7
100
AcDbCircle
 10
499.9334749621588
 20
763.9424931686337
 30
0.0
 40
0.2913535900642769
100
AcDbArc
 50
209.9999999999951
 51
265.2973537911072
  0
ARC
  5
118
330
2
100
AcDbEntity
  8
0
 62
     7
100
AcDbCircle
 10
499.9334749621588
 20
763.9424931686337
 30
0.0
 40
0.2913535900643235
100
AcDbArc
 50
154.7026462088887
 51
209.9999999999915
  0
ARC
  5
119
330
2
100
AcDbEntity
  8
0
100
AcDbCircle
 10
500.1045177994445
 20
766.021751556374
 30
0.0
 40
2.377635233365379
100
AcDbArc
 50
265.2973537911072
 51
283.9948124715955
  0
ARC
  5
11A
330
2
100
AcDbEntity
  8
0
 62
     7
100
AcDbCircle
 10
501.8196869656168
 20
763.0509914169882
 30
0.0
 40
2.377635233365654
100
AcDbArc
 50
136.0051875284031
 51
154.7026462088887
  0
ARC
  5
11B
330
2
100
AcDbEntity
  8
0
100
AcDbCircle
 10
506.6078290662207
 20
772.9824318508985
 30
0.0
 40
9.745006632842732
100
AcDbArc
 50
233.2242006730355
 51
240.0000000000021
  0
ARC
  5
11C
330
2
100
AcDbEntity
  8
0
100
AcDbCircle
 10
506.6078290662207
 20
772.9824318508985
 30
0.0
 40
9.789806632842733
100
AcDbArc
 50
233.2242006730355
 51
240.0000000000021
  0
ARC
  5
11D
330
2
100
AcDbEntity
  8
0
100
AcDbCircle
 10
499.2166871878488
 20
769.5840196095712
 30
0.0
 40
6.026474380808122
100
AcDbArc
 50
283.9948124715955
 51
293.2242006730311
  0
ARC
  5
11E
330
2
100
AcDbEntity
  8
0
100
AcDbCircle
 10
499.2166871878488
 20
769.5840196095712
 30
0.0
 40
6.048874380808119
100
AcDbArc
 50
283.9948124715955
 51
293.2242006730311
  0
ARC
  5
11F
330
2
100
AcDbEntity
  8
0
 62
     7
100
AcDbCircle
 10
499.402190469498
 20
761.5656485624864
 30
0.0
 40
5.281805864950309
100
AcDbArc
 50
66.77579932695649
 51
76.00518752840095
  0
ARC
  5
120
330
2
100
AcDbEntity
  8
0
 62
     7
100
AcDbCircle
 10
506.6078290662217
 20
757.4229362200432
 30
0.0
 40
9.789806632845307
100
AcDbArc
 50
119.9999999999977
 51
125.7357276272636
  0
ARC
  5
121
330
2
100
AcDbEntity
  8
0
 62
     7
100
AcDbCircle
 10
348.8765779696318
 20
1219.775500472015
 30
0.0
 40
0.2689535900642693
100
AcDbArc
 50
90.0
 51
145.2973537911114
  0
ARC
  5
122
330
2
100
AcDbEntity
  8
0
 62
     7
100
AcDbCircle
 10
348.8765779696318
 20
1219.775500472015
 30
0.0
 40
0.2913535900642711
100
AcDbArc
 50
90.0
 51
145.2973537911114
  0
ARC
  5
123
330
2
100
AcDbEntity
  8
0
 62
     7
100
AcDbCircle
 10
348.8765779696318
 20
1219.775500472015
 30
0.0
 40
0.2689535900643416
100
AcDbArc
 50
34.70264620889264
 51
90.0
  0
ARC
  5
124
330
2
100
AcDbEntity
  8
0
 62
     7
100
AcDbCircle
 10
348.8765779696318
 20
1219.775500472015
 30
0.0
 40
0.2913535900643434
100
AcDbArc
 50
34.70264620889264
 51
90.0
  0
ARC
  5
125
330
2
100
AcDbEntity
  8
0
 62
     7
100
AcDbCircle
 10
351.0592925782303
 20
1218.515309605177
 30
0.0
 40
0.2689535900643001
100
AcDbArc
 50
29.99999999999153
 51
85.29735379110721
  0
ARC
  5
126
330
2
100
AcDbEntity
  8
0
100
AcDbCircle
 10
339.8932989787003
 20
1217.255118738338
 30
0.0
 40
9.745006632846692
100
AcDbArc
 50
0.0
 51
6.77579932695134
  0
ARC
  5
127
330
2
100
AcDbEntity
  8
0
100
AcDbCircle
 10
339.8932989787003
 20
1217.255118738338
 30
0.0
 40
9.789806632846694
100
AcDbArc
 50
0.0
 51
6.77579932695134
  0
ARC
  5
128
330
2
100
AcDbEntity
  8
0
 62
     7
100
AcDbCircle
 10
346.0585754619302
 20
1211.920036084088
 30
0.0
 40
6.839616637119664
100
AcDbArc
 50
53.70491482373714
 51
56.20799840480636
  0
ARC
  5
129
330
2
100
AcDbEntity
  8
0
 62
     7
100
AcDbCircle
 10
351.590577070891
 20
1213.618083265353
 30
0.0
 40
5.281805864950387
100
AcDbArc
 50
103.9948124715955
 51
109.8781563158204
  0
ARC
  5
12A
330
2
100
AcDbEntity
  8
0
100
AcDbCircle
 10
347.0838124061902
 20
1221.42402864237
 30
0.0
 40
5.25940586495119
100
AcDbArc
 50
306.7757993269558
 51
316.0051875284032
  0
ARC
  5
12B
330
2
100
AcDbEntity
  8
0
100
AcDbCircle
 10
347.0838124061902
 20
1221.42402864237
 30
0.0
 40
5.281805864951186
100
AcDbArc
 50
306.7757993269558
 51
316.0051875284032
  0
ARC
  5
12C
330
2
100
AcDbEntity
  8
0
 62
     7
100
AcDbCircle
 10
350.8882497409445
 20
1216.436051217436
 30
0.0
 40
2.377635233365971
100
AcDbArc
 50
85.29735379110721
 51
103.9948124715955
  0
ARC
  5
12D
330
2
100
AcDbEntity
  8
0
 62
     7
100
AcDbCircle
 10
346.5319812514112
 20
1212.553408229356
 30
0.0
 40
6.048874380808864
100
AcDbArc
 50
43.9948124715968
 51
48.98569561470084
  0
ARC
  5
12E
330
2
100
AcDbEntity
  8
0
 62
     7
100
AcDbCircle
 10
351.0592925782302
 20
1215.9949278715
 30
0.0
 40
0.268953590064346
100
AcDbArc
 50
274.7026462088927
 51
330.0000000000084
  0
ARC
  5
12F
330
2
100
AcDbEntity
  8
0
100
AcDbCircle
 10
351.5905770708912
 20
1220.892154211325
 30
0.0
 40
5.259405864951792
100
AcDbArc
 50
246.7757993269622
 51
256.0051875284044
  0
ARC
  5
130
330
2
100
AcDbEntity
  8
0
100
AcDbCircle
 10
351.5905770708912
 20
1220.892154211325
 30
0.0
 40
5.281805864951793
100
AcDbArc
 50
246.7757993269622
 51
256.0051875284044
  0
ARC
  5
131
330
2
100
AcDbEntity
  8
0
100
AcDbCircle
 10
339.8932989787031
 20
1217.255118738338
 30
0.0
 40
9.745006632843919
100
AcDbArc
 50
354.4383604175524
 51
355.7143093420706
  0
ARC
  5
132
330
2
100
AcDbEntity
  8
0
100
AcDbCircle
 10
339.8932989787031
 20
1217.255118738338
 30
0.0
 40
9.789806632843919
100
AcDbArc
 50
354.3048887523537
 51
355.8564434980664
  0
ARC
  5
133
330
2
100
AcDbEntity
  8
0
100
AcDbCircle
 10
350.8882497409446
 20
1218.074186259241
 30
0.0
 40
2.377635233366011
100
AcDbArc
 50
256.0051875284044
 51
274.7026462088927
  0
ARC
  5
134
330
2
100
AcDbEntity
  8
0
100
AcDbCircle
 10
339.8932989787031
 20
1217.255118738338
 30
0.0
 40
9.789806632843919
100
AcDbArc
 50
359.1170580287282
 51
0.0
  0
ARC
  5
135
330
2
100
AcDbEntity
  8
0
100
AcDbCircle
 10
339.8932989787031
 20
1217.255118738338
 30
0.0
 40
9.745006632843919
100
AcDbArc
 50
358.9261000392259
 51
0.0
  0
ARC
  5
136
330
2
100
AcDbEntity
  8
0
 62
     7
100
AcDbCircle
 10
346.0585754619302
 20
1211.920036084088
 30
0.0
 40
6.839616637119664
100
AcDbArc
 50
61.16456129044763
 51
61.9026055044746
  0
ARC
  5
137
330
2
100
AcDbEntity
  8
0
 62
     7
100
AcDbCircle
 10
354.9058963333531
 20
1217.482198305865
 30
0.0
 40
6.839616637119737
100
AcDbArc
 50
173.2242006730485
 51
181.9026055044881
  0
ARC
  5
138
330
2
100
AcDbEntity
  8
0
 62
     7
100
AcDbCircle
 10
354.1206770707607
 20
1217.57549367322
 30
0.0
 40
6.048874380808655
100
AcDbArc
 50
163.9948124715947
 51
173.2242006730197
  0
ARC
  5
139
330
2
100
AcDbEntity
  8
0
 62
     7
100
AcDbCircle
 10
344.3849384741668
 20
1209.47537092291
 30
0.0
 40
9.789806632845255
100
AcDbArc
 50
60.00000000000945
 51
66.77579932696223
  0
ARC
  5
13A
330
2
100
AcDbEntity
  8
0
 62
     7
100
AcDbCircle
 10
353.3682174650961
 20
1209.475370922911
 30
0.0
 40
9.789806632843927
100
AcDbArc
 50
114.3148105519443
 51
119.9999999999905
  0
ARC
  5
13B
330
2
100
AcDbEntity
  8
0
 62
     7
100
AcDbCircle
 10
357.8598569605615
 20
1217.255118738338
 30
0.0
 40
9.789806632844939
100
AcDbArc
 50
184.0992559760021
 51
186.0535392856672
  0
ARC
  5
13C
330
2
100
AcDbEntity
  8
0
 62
     7
100
AcDbCircle
 10
353.3833426343327
 20
1216.723244307293
 30
0.0
 40
5.281805864951134
100
AcDbArc
 50
190.6994093466197
 51
196.0051875284052
  0
ARC
  5
13D
330
2
100
AcDbEntity
  8
0
100
AcDbCircle
 10
345.6652621136122
 20
1222.363121825061
 30
0.0
 40
6.794816637119589
100
AcDbArc
 50
293.2242006730378
 51
301.9026055044783
  0
ARC
  5
13E
330
2
100
AcDbEntity
  8
0
100
AcDbCircle
 10
345.6652621136122
 20
1222.363121825061
 30
0.0
 40
6.839616637119594
100
AcDbArc
 50
293.2242006730378
 51
301.9026055044783
  0
ARC
  5
13F
330
2
100
AcDbEntity
  8
0
100
AcDbCircle
 10
353.3682174650977
 20
1225.034866553768
 30
0.0
 40
9.745006632846902
100
AcDbArc
 50
240.0000000000031
 51
240.9213409166615
  0
ARC
  5
140
330
2
100
AcDbEntity
  8
0
100
AcDbCircle
 10
353.3682174650977
 20
1225.034866553768
 30
0.0
 40
9.789806632846904
100
AcDbArc
 50
240.0000000000031
 51
240.6896992310641
  0
POLYLINE
  5
141
330
2
100
AcDbEntity
  8
0
 62
     7
100
AcDb2dPolyline
 66
     1
 10
0.0
 20
0.0
 30
0.0
 70
     1
 40
0.3143448000000253
 41
0.3143448000000253
  0
VERTEX
  5
355
330
141
100
AcDbEntity
  8
0
 62
     7
100
AcDbVertex
100
AcDb2dVertex
 10
348.6744991696318
 20
1217.255118738338
 30
0.0
 42
1.0
  0
VERTEX
  5
356
330
141
100
AcDbEntity
  8
0
 62
     7
100
AcDbVertex
100
AcDb2dVertex
 10
349.0786567696318
 20
1217.255118738338
 30
0.0
 42
1.0
  0
SEQEND
  5
357
330
141
100
AcDbEntity
  8
0
 62
     7
  0
ARC
  5
142
330
2
100
AcDbEntity
  8
0
 62
     7
100
AcDbCircle
 10
357.8598569605615
 20
1217.255118738338
 30
0.0
 40
9.789806632844939
100
AcDbArc
 50
180.0
 51
180.8005246427306
  0
ARC
  5
143
330
2
100
AcDbEntity
  8
0
100
AcDbCircle
 10
344.384938474167
 20
1225.034866553766
 30
0.0
 40
9.745006632844916
100
AcDbArc
 50
299.9999999999905
 51
306.7757993269558
  0
ARC
  5
144
330
2
100
AcDbEntity
  8
0
100
AcDbCircle
 10
344.384938474167
 20
1225.034866553766
 30
0.0
 40
9.78980663284492
100
AcDbArc
 50
299.9999999999905
 51
306.7757993269558
  0
ARC
  5
145
330
2
100
AcDbEntity
  8
0
100
AcDbCircle
 10
353.3682174650977
 20
1225.034866553768
 30
0.0
 40
9.789806632846904
100
AcDbArc
 50
244.4867715734712
 51
246.7757993269622
  0
ARC
  5
146
330
2
100
AcDbEntity
  8
0
100
AcDbCircle
 10
353.3682174650977
 20
1225.034866553768
 30
0.0
 40
9.745006632846902
100
AcDbArc
 50
244.5635176768618
 51
246.7757993269622
  0
ARC
  5
147
330
2
100
AcDbEntity
  8
0
100
AcDbCircle
 10
344.3698133049315
 20
1216.723244307292
 30
0.0
 40
5.259405864950456
100
AcDbArc
 50
343.9948124715947
 51
348.9010980423785
  0
ARC
  5
148
330
2
100
AcDbEntity
  8
0
100
AcDbCircle
 10
344.3698133049315
 20
1216.723244307292
 30
0.0
 40
5.281805864950458
100
AcDbArc
 50
343.9948124715947
 51
348.8521063160981
  0
ARC
  5
149
330
2
100
AcDbEntity
  8
0
100
AcDbCircle
 10
344.3698133049299
 20
1217.786993169383
 30
0.0
 40
5.259405864951991
100
AcDbArc
 50
6.77579932695134
 51
16.00518752840524
  0
ARC
  5
14A
330
2
100
AcDbEntity
  8
0
100
AcDbCircle
 10
344.3698133049299
 20
1217.786993169383
 30
0.0
 40
5.281805864951994
100
AcDbArc
 50
6.77579932695134
 51
16.00518752840524
  0
ARC
  5
14B
330
2
100
AcDbEntity
  8
0
 62
     9
100
AcDbCircle
 10
348.8765779696318
 20
1214.734737004661
 30
0.0
 40
0.2689535900643291
100
AcDbArc
 50
214.7026462088926
 51
269.9999999999927
  0
ARC
  5
14C
330
2
100
AcDbEntity
  8
0
 62
     7
100
AcDbCircle
 10
348.8765779696318
 20
1214.734737004661
 30
0.0
 40
0.2689535900643426
100
AcDbArc
 50
270.0
 51
325.2973537911074
  0
ARC
  5
14D
330
2
100
AcDbEntity
  8
0
 62
     7
100
AcDbCircle
 10
348.8765779696318
 20
1214.734737004661
 30
0.0
 40
0.2913535900643444
100
AcDbArc
 50
270.0
 51
325.2973537911074
  0
ARC
  5
14E
330
2
100
AcDbEntity
  8
0
 62
     7
100
AcDbCircle
 10
348.8765779696318
 20
1214.734737004661
 30
0.0
 40
0.2913535900643309
100
AcDbArc
 50
214.7026462088926
 51
269.9999999999927
  0
ARC
  5
14F
330
2
100
AcDbEntity
  8
0
 62
     7
100
AcDbCircle
 10
350.5917471358044
 20
1215.922493640756
 30
0.0
 40
2.377635233365937
100
AcDbArc
 50
196.0051875284052
 51
214.7026462088884
  0
ARC
  5
150
330
2
100
AcDbEntity
  8
0
100
AcDbCircle
 10
347.1614088034592
 20
1215.922493640756
 30
0.0
 40
2.37763523336586
100
AcDbArc
 50
325.2973537911074
 51
343.9948124715947
  0
ARC
  5
151
330
2
100
AcDbEntity
  8
0
 62
     7
100
AcDbCircle
 10
351.0592925782303
 20
1215.9949278715
 30
0.0
 40
0.2689535900643208
100
AcDbArc
 50
329.9999999999832
 51
25.29735379110503
  0
ARC
  5
152
330
2
100
AcDbEntity
  8
0
 62
     7
100
AcDbCircle
 10
351.0592925782302
 20
1215.9949278715
 30
0.0
 40
0.2913535900643478
100
AcDbArc
 50
274.7026462088927
 51
330.0000000000084
  0
ARC
  5
153
330
2
100
AcDbEntity
  8
0
 62
     7
100
AcDbCircle
 10
349.1730805747723
 20
1215.103426119854
 30
0.0
 40
2.37763523336562
100
AcDbArc
 50
25.29735379110503
 51
43.9948124715968
  0
ARC
  5
154
330
2
100
AcDbEntity
  8
0
 62
     7
100
AcDbCircle
 10
351.0592925782303
 20
1215.9949278715
 30
0.0
 40
0.2913535900643227
100
AcDbArc
 50
329.9999999999832
 51
25.29735379110503
  0
ARC
  5
155
330
2
100
AcDbEntity
  8
0
 62
     7
100
AcDbCircle
 10
351.0592925782302
 20
1218.515309605176
 30
0.0
 40
0.2689535900643424
100
AcDbArc
 50
334.7026462088948
 51
29.99999999999153
  0
ARC
  5
156
330
2
100
AcDbEntity
  8
0
100
AcDbCircle
 10
349.173080574772
 20
1219.406811356822
 30
0.0
 40
2.377635233365913
100
AcDbArc
 50
316.0051875284032
 51
334.7026462088919
  0
ARC
  5
157
330
2
100
AcDbEntity
  8
0
 62
     7
100
AcDbCircle
 10
351.0592925782302
 20
1218.515309605176
 30
0.0
 40
0.2913535900643442
100
AcDbArc
 50
334.7026462088948
 51
29.99999999999153
  0
ARC
  5
158
330
2
100
AcDbEntity
  8
0
 62
     7
100
AcDbCircle
 10
351.0592925782303
 20
1218.515309605177
 30
0.0
 40
0.291353590064302
100
AcDbArc
 50
29.99999999999153
 51
85.29735379110721
  0
ARC
  5
159
330
2
100
AcDbEntity
  8
0
100
AcDbCircle
 10
347.1614088034592
 20
1218.58774383592
 30
0.0
 40
2.377635233365939
100
AcDbArc
 50
16.00518752840524
 51
34.70264620888851
  0
ARC
  5
15A
330
2
100
AcDbEntity
  8
0
 62
     7
100
AcDbCircle
 10
350.5917471358042
 20
1218.58774383592
 30
0.0
 40
2.377635233365707
100
AcDbArc
 50
145.2973537911073
 51
163.9948124715947
  0
ARC
  5
15B
330
2
100
AcDbEntity
  8
0
100
AcDbCircle
 10
350.6693435330729
 20
1221.42402864237
 30
0.0
 40
5.259405864950459
100
AcDbArc
 50
223.9948124715967
 51
233.2242006730442
  0
ARC
  5
15C
330
2
100
AcDbEntity
  8
0
100
AcDbCircle
 10
350.6693435330729
 20
1221.42402864237
 30
0.0
 40
5.281805864950461
100
AcDbArc
 50
223.9948124715967
 51
233.2242006730442
  0
ARC
  5
15D
330
2
100
AcDbEntity
  8
0
 62
     7
100
AcDbCircle
 10
346.6938633610334
 20
1218.515309605177
 30
0.0
 40
0.2689535900643496
100
AcDbArc
 50
94.7026462089
 51
150.0000000000084
  0
ARC
  5
15E
330
2
100
AcDbEntity
  8
0
 62
     7
100
AcDbCircle
 10
346.6938633610333
 20
1218.515309605176
 30
0.0
 40
0.2689535900643336
100
AcDbArc
 50
149.9999999999833
 51
205.297353791105
  0
ARC
  5
15F
330
2
100
AcDbEntity
  8
0
 62
     7
100
AcDbCircle
 10
346.6938633610333
 20
1218.515309605176
 30
0.0
 40
0.2913535900643354
100
AcDbArc
 50
149.9999999999833
 51
205.297353791105
  0
ARC
  5
160
330
2
100
AcDbEntity
  8
0
 62
     7
100
AcDbCircle
 10
346.6938633610334
 20
1218.515309605177
 30
0.0
 40
0.2913535900643515
100
AcDbArc
 50
94.7026462089
 51
150.0000000000084
  0
ARC
  5
161
330
2
100
AcDbEntity
  8
0
 62
     7
100
AcDbCircle
 10
346.864906198319
 20
1216.436051217436
 30
0.0
 40
2.377635233365821
100
AcDbArc
 50
76.00518752840446
 51
94.70264620889279
  0
ARC
  5
162
330
2
100
AcDbEntity
  8
0
100
AcDbCircle
 10
348.5800753644915
 20
1219.406811356822
 30
0.0
 40
2.377635233365837
100
AcDbArc
 50
205.297353791105
 51
223.9948124715967
  0
ARC
  5
163
330
2
100
AcDbEntity
  8
0
 62
     7
100
AcDbCircle
 10
350.6693435330741
 20
1213.086208834305
 30
0.0
 40
5.281805864952159
100
AcDbArc
 50
130.7431265331659
 51
136.0051875284031
  0
ARC
  5
164
330
2
100
AcDbEntity
  8
0
 62
     7
100
AcDbCircle
 10
346.6938633610333
 20
1215.9949278715
 30
0.0
 40
0.2689535900643587
100
AcDbArc
 50
154.7026462088918
 51
209.9999999999915
  0
ARC
  5
165
330
2
100
AcDbEntity
  8
0
 62
     7
100
AcDbCircle
 10
346.6938633610333
 20
1215.9949278715
 30
0.0
 40
0.2689535900643121
100
AcDbArc
 50
209.9999999999915
 51
265.2973537911072
  0
ARC
  5
166
330
2
100
AcDbEntity
  8
0
 62
     7
100
AcDbCircle
 10
346.6938633610333
 20
1215.9949278715
 30
0.0
 40
0.2913535900643138
100
AcDbArc
 50
209.9999999999915
 51
265.2973537911072
  0
ARC
  5
167
330
2
100
AcDbEntity
  8
0
 62
     7
100
AcDbCircle
 10
346.6938633610333
 20
1215.9949278715
 30
0.0
 40
0.2913535900643605
100
AcDbArc
 50
154.7026462088918
 51
209.9999999999915
  0
ARC
  5
168
330
2
100
AcDbEntity
  8
0
100
AcDbCircle
 10
346.8649061983191
 20
1218.07418625924
 30
0.0
 40
2.377635233365681
100
AcDbArc
 50
265.2973537911072
 51
283.9948124715955
  0
ARC
  5
169
330
2
100
AcDbEntity
  8
0
 62
     7
100
AcDbCircle
 10
348.5800753644917
 20
1215.103426119854
 30
0.0
 40
2.377635233365956
100
AcDbArc
 50
136.0051875284031
 51
154.7026462088918
  0
ARC
  5
16A
330
2
100
AcDbEntity
  8
0
100
AcDbCircle
 10
353.3682174650961
 20
1225.034866553765
 30
0.0
 40
9.745006632843965
100
AcDbArc
 50
233.2242006730442
 51
240.0000000000094
  0
ARC
  5
16B
330
2
100
AcDbEntity
  8
0
100
AcDbCircle
 10
353.3682174650961
 20
1225.034866553765
 30
0.0
 40
9.789806632843973
100
AcDbArc
 50
233.2242006730442
 51
240.0000000000094
  0
ARC
  5
16C
330
2
100
AcDbEntity
  8
0
100
AcDbCircle
 10
345.9770755867233
 20
1221.636454312438
 30
0.0
 40
6.026474380808886
100
AcDbArc
 50
283.9948124715955
 51
293.2242006730311
  0
ARC
  5
16D
330
2
100
AcDbEntity
  8
0
100
AcDbCircle
 10
345.9770755867233
 20
1221.636454312438
 30
0.0
 40
6.048874380808887
100
AcDbArc
 50
283.9948124715955
 51
293.2242006730311
  0
ARC
  5
16E
330
2
100
AcDbEntity
  8
0
 62
     7
100
AcDbCircle
 10
346.1625788683725
 20
1213.618083265352
 30
0.0
 40
5.281805864950976
100
AcDbArc
 50
66.77579932696223
 51
76.00518752840446
  0
ARC
  5
16F
330
2
100
AcDbEntity
  8
0
 62
     7
100
AcDbCircle
 10
353.3682174650973
 20
1209.475370922909
 30
0.0
 40
9.78980663284655
100
AcDbArc
 50
119.9999999999905
 51
125.735727627278
  0
MTEXT
  5
170
330
2
100
AcDbEntity
  8
0
100
AcDbMText
 10
361.7968229382938
 20
1356.750202096813
 30
0.0
 40
15.0
 41
0.0
 46
0.0
 71
     5
 72
     5
  1
\A1;300
 73
     1
 44
1.0
1001
ACAD
1000
MTEXTBEGIN
1070
    73
1070
     1
1070
    44
1040
1.0
1070
    74
1070
     0
1000
MTEXTEND
  0
INSERT
  5
171
330
2
100
AcDbEntity
  8
0
100
AcDbBlockReference
  2
YAZ1
 10
511.7968229382936
 20
1341.750202096813
 30
0.0
 41
10.0
 42
10.0
 43
10.0
  0
INSERT
  5
172
330
2
100
AcDbEntity
  8
0
100
AcDbBlockReference
  2
YAZ1
 10
211.7968229382938
 20
1341.750202096813
 30
0.0
 41
10.0
 42
10.0
 43
10.0
 50
180.0
  0
LINE
  5
173
330
2
100
AcDbEntity
  8
0
100
AcDbLine
 10
221.7968229382938
 20
1341.750202096813
 30
0.0
 11
501.7968229382938
 21
1341.750202096813
 31
0.0
  0
LINE
  5
174
330
2
100
AcDbEntity
  8
0
100
AcDbLine
 10
511.7968229382936
 20
1235.70497333646
 30
0.0
 11
511.7968229382936
 21
1350.750202096813
 31
0.0
  0
LINE
  5
175
330
2
100
AcDbEntity
  8
0
100
AcDbLine
 10
211.7968229382938
 20
1234.490404202231
 30
0.0
 11
211.7968229382938
 21
1350.750202096813
 31
0.0
  0
MTEXT
  5
176
330
2
100
AcDbEntity
  8
0
100
AcDbMText
 10
515.8214450874123
 20
916.4663583123253
 30
0.0
 40
15.0
 41
0.0
 46
0.0
 71
     5
 72
     5
  1
\A1;300
 73
     1
 44
1.0
1001
ACAD
1000
MTEXTBEGIN
1070
    73
1070
     1
1070
    44
1040
1.0
1070
    74
1070
     0
1000
MTEXTEND
  0
INSERT
  5
177
330
2
100
AcDbEntity
  8
0
100
AcDbBlockReference
  2
YAZ1
 10
365.8214450874123
 20
901.4663583123253
 30
0.0
 41
10.0
 42
10.0
 43
10.0
 50
180.0
  0
INSERT
  5
178
330
2
100
AcDbEntity
  8
0
100
AcDbBlockReference
  2
YAZ1
 10
665.8214450874123
 20
901.4663583123253
 30
0.0
 41
10.0
 42
10.0
 43
10.0
  0
LINE
  5
179
330
2
100
AcDbEntity
  8
0
100
AcDbLine
 10
655.8214450874125
 20
901.4663583123253
 30
0.0
 11
375.8214450874123
 21
901.4663583123253
 31
0.0
  0
LINE
  5
17A
330
2
100
AcDbEntity
  8
0
100
AcDbLine
 10
365.8214450874123
 20
787.6190762862092
 30
0.0
 11
365.8214450874123
 21
910.4663583123253
 31
0.0
  0
LINE
  5
17B
330
2
100
AcDbEntity
  8
0
100
AcDbLine
 10
665.8214450874123
 20
788.5062883832429
 30
0.0
 11
665.8214450874123
 21
910.4663583123253
 31
0.0
  0
MTEXT
  5
17C
330
2
100
AcDbEntity
  8
0
100
AcDbMText
 10
1004.452725204664
 20
1356.750202096813
 30
0.0
 40
15.0
 41
0.0
 46
0.0
 71
     5
 72
     5
  1
\A1;300
 73
     1
 44
1.0
1001
ACAD
1000
MTEXTBEGIN
1070
    73
1070
     1
1070
    44
1040
1.0
1070
    74
1070
     0
1000
MTEXTEND
  0
INSERT
  5
17D
330
2
100
AcDbEntity
  8
0
100
AcDbBlockReference
  2
YAZ1
 10
1154.452725204659
 20
1341.750202096813
 30
0.0
 41
10.0
 42
10.0
 43
10.0
  0
INSERT
  5
17E
330
2
100
AcDbEntity
  8
0
100
AcDbBlockReference
  2
YAZ1
 10
854.4527252046696
 20
1341.750202096813
 30
0.0
 41
10.0
 42
10.0
 43
10.0
 50
180.0
  0
LINE
  5
17F
330
2
100
AcDbEntity
  8
0
100
AcDbLine
 10
864.4527252046696
 20
1341.750202096813
 30
0.0
 11
1144.452725204659
 21
1341.750202096813
 31
0.0
  0
LINE
  5
180
330
2
100
AcDbEntity
  8
0
100
AcDbLine
 10
1154.452725204659
 20
1244.071799544961
 30
0.0
 11
1154.452725204659
 21
1350.750202096813
 31
0.0
  0
LINE
  5
181
330
2
100
AcDbEntity
  8
0
100
AcDbLine
 10
854.4527252046696
 20
1244.632823497766
 30
0.0
 11
854.4527252046696
 21
1350.750202096813
 31
0.0
  0
LINE
  5
182
330
2
100
AcDbEntity
  8
0
100
AcDbLine
 10
645.8214450874123
 20
838.4026840354723
 30
0.0
 11
645.8214450874123
 21
769.4026840354722
 31
0.0
  0
LINE
  5
183
330
2
100
AcDbEntity
  8
0
100
AcDbLine
 10
661.8214450874123
 20
838.4026840354723
 30
0.0
 11
661.8214450874123
 21
769.4026840354722
 31
0.0
  0
LINE
  5
184
330
2
100
AcDbEntity
  8
0
100
AcDbLine
 10
385.8214450874123
 20
769.4026840354722
 30
0.0
 11
385.8214450874123
 21
838.4026840354723
 31
0.0
  0
LINE
  5
185
330
2
100
AcDbEntity
  8
0
100
AcDbLine
 10
369.8214450874123
 20
838.4026840354723
 30
0.0
 11
369.8214450874123
 21
769.4026840354722
 31
0.0
  0
ARC
  5
186
330
2
100
AcDbEntity
  8
0
100
AcDbCircle
 10
663.8214450874125
 20
803.0166830991429
 30
0.0
 40
2.0
100
AcDbArc
 50
0.0
 51
69.44395478041577
  0
LINE
  5
187
330
2
100
AcDbEntity
  8
0
100
AcDbLine
 10
664.5236919705892
 20
804.889341454281
 30
0.0
 11
661.8214450874123
 21
805.9026840354722
 31
0.0
  0
LINE
  5
188
330
2
100
AcDbEntity
  8
0
100
AcDbLine
 10
670.8214450874123
 20
821.9026840354722
 30
0.0
 11
639.9278620312117
 21
821.9026840354722
 31
0.0
  0
LINE
  5
189
330
2
100
AcDbEntity
  8
0
100
AcDbLine
 10
661.8214450874123
 20
838.4026840354723
 30
0.0
 11
660.8214450874124
 21
839.4026840354722
 31
0.0
  0
LINE
  5
18A
330
2
100
AcDbEntity
  8
0
100
AcDbLine
 10
646.8214450874125
 20
839.4026840354722
 30
0.0
 11
645.8214450874123
 21
838.4026840354723
 31
0.0
  0
LINE
  5
18B
330
2
100
AcDbEntity
  8
0
100
AcDbLine
 10
646.8214450874125
 20
839.4026840354722
 30
0.0
 11
660.8214450874124
 21
839.4026840354722
 31
0.0
  0
LINE
  5
18C
330
2
100
AcDbEntity
  8
0
100
AcDbLine
 10
626.5738963034282
 20
800.902684035471
 30
0.0
 11
616.5738963034267
 21
798.4026840354709
 31
0.0
  0
LINE
  5
18D
330
2
100
AcDbEntity
  8
0
100
AcDbLine
 10
626.5738963034282
 20
800.9026840354712
 30
0.0
 11
645.8214450874123
 21
800.9026840354717
 31
0.0
  0
LINE
  5
18E
330
2
100
AcDbEntity
  8
0
100
AcDbLine
 10
405.0689938713964
 20
800.4026840354711
 30
0.0
 11
415.068993871398
 21
798.4026840354709
 31
0.0
  0
LINE
  5
18F
330
2
100
AcDbEntity
  8
0
100
AcDbLine
 10
405.0689938713964
 20
800.4026840354711
 30
0.0
 11
385.8214450874123
 21
800.4026840354718
 31
0.0
  0
LINE
  5
190
330
2
100
AcDbEntity
  8
0
100
AcDbLine
 10
384.8214450874123
 20
839.4026840354722
 30
0.0
 11
385.8214450874123
 21
838.4026840354723
 31
0.0
  0
ARC
  5
191
330
2
100
AcDbEntity
  8
0
100
AcDbCircle
 10
367.8214450874123
 20
803.0166830991429
 30
0.0
 40
2.0
100
AcDbArc
 50
110.5560452195842
 51
180.0
  0
LINE
  5
192
330
2
100
AcDbEntity
  8
0
100
AcDbLine
 10
367.1191982042357
 20
804.889341454281
 30
0.0
 11
369.8214450874123
 21
805.9026840354722
 31
0.0
  0
LINE
  5
193
330
2
100
AcDbEntity
  8
0
100
AcDbLine
 10
369.8214450874123
 20
838.4026840354723
 30
0.0
 11
370.8214450874125
 21
839.4026840354722
 31
0.0
  0
LINE
  5
194
330
2
100
AcDbEntity
  8
0
100
AcDbLine
 10
384.8214450874123
 20
839.4026840354722
 30
0.0
 11
370.8214450874125
 21
839.4026840354722
 31
0.0
  0
LINE
  5
195
330
2
100
AcDbEntity
  8
0
100
AcDbLine
 10
360.8214450874123
 20
821.9026840354722
 30
0.0
 11
391.7150281436129
 21
821.9026840354722
 31
0.0
  0
LINE
  5
196
330
2
100
AcDbEntity
  8
0
100
AcDbLine
 10
430.7260523650815
 20
798.4026840354701
 30
0.0
 11
415.068993871398
 21
798.4026840354709
 31
0.0
  0
LINE
  5
197
330
2
100
AcDbEntity
  8
0
100
AcDbLine
 10
616.5738963033978
 20
798.4026840354649
 30
0.0
 11
415.0689938713981
 21
798.4026840354709
 31
0.0
  0
LINE
  5
198
330
2
100
AcDbEntity
  8
0
100
AcDbLine
 10
664.5236919705892
 20
733.9160266166633
 30
0.0
 11
661.8214450874123
 21
732.9026840354722
 31
0.0
  0
ARC
  5
199
330
2
100
AcDbEntity
  8
0
100
AcDbCircle
 10
663.8214450874125
 20
735.7886849718014
 30
0.0
 40
2.0
100
AcDbArc
 50
290.5560452195842
 51
0.0
  0
LINE
  5
19A
330
2
100
AcDbEntity
  8
0
100
AcDbLine
 10
670.8214450874123
 20
716.9026840354722
 30
0.0
 11
639.9278620312117
 21
716.9026840354722
 31
0.0
  0
LINE
  5
19B
330
2
100
AcDbEntity
  8
0
100
AcDbLine
 10
665.8214450874123
 20
735.7886849718014
 30
0.0
 11
665.8214450874123
 21
803.0166830991428
 31
0.0
  0
LINE
  5
19C
330
2
100
AcDbEntity
  8
0
100
AcDbLine
 10
661.8214450874123
 20
700.4026840354722
 30
0.0
 11
660.8214450874124
 21
699.4026840354722
 31
0.0
  0
LINE
  5
19D
330
2
100
AcDbEntity
  8
0
100
AcDbLine
 10
646.8214450874125
 20
699.4026840354722
 30
0.0
 11
645.8214450874123
 21
700.4026840354722
 31
0.0
  0
LINE
  5
19E
330
2
100
AcDbEntity
  8
0
100
AcDbLine
 10
646.8214450874125
 20
699.4026840354722
 30
0.0
 11
660.8214450874124
 21
699.4026840354722
 31
0.0
  0
LINE
  5
19F
330
2
100
AcDbEntity
  8
0
100
AcDbLine
 10
661.8214450874123
 20
700.4026840354722
 30
0.0
 11
661.8214450874123
 21
769.4026840354722
 31
0.0
  0
LINE
  5
1A0
330
2
100
AcDbEntity
  8
0
100
AcDbLine
 10
645.8214450874123
 20
700.4026840354722
 30
0.0
 11
645.8214450874123
 21
769.4026840354722
 31
0.0
  0
LINE
  5
1A1
330
2
100
AcDbEntity
  8
0
100
AcDbLine
 10
626.5738963034282
 20
737.9026840354732
 30
0.0
 11
616.5738963034267
 21
740.4026840354736
 31
0.0
  0
TEXT
  5
1A2
330
2
100
AcDbEntity
  8
0
100
AcDbText
 10
535.8530918438495
 20
777.4526840354723
 30
0.0
 40
1.399999999999999
  1
25
 41
0.9264705882352547
  7
SMP-SET
 72
     5
 11
537.9530918438494
 21
777.4526840354723
 31
0.0
100
AcDbText
  0
TEXT
  5
1A4
330
2
100
AcDbEntity
  8
0
100
AcDbText
 10
535.8530918438495
 20
775.7026840354723
 30
0.0
 40
1.399999999999999
  1
32
 41
0.9264705882352545
  7
SMP-SET
 72
     5
 11
537.9530918438494
 21
775.7026840354723
 31
0.0
100
AcDbText
  0
TEXT
  5
1A5
330
2
100
AcDbEntity
  8
0
100
AcDbText
 10
535.8530918438495
 20
770.4526840354723
 30
0.0
 40
1.399999999999999
  1
65
 41
0.9264705882352547
  7
SMP-SET
 72
     5
 11
537.9530918438494
 21
770.4526840354723
 31
0.0
100
AcDbText
  0
TEXT
  5
1A6
330
2
100
AcDbEntity
  8
0
100
AcDbText
 10
535.8530918438495
 20
772.2026840354723
 30
0.0
 40
1.399999999999999
  1
50
 41
0.9264705882352547
  7
SMP-SET
 72
     5
 11
537.9530918438494
 21
772.2026840354723
 31
0.0
100
AcDbText
  0
TEXT
  5
1A7
330
2
100
AcDbEntity
  8
0
100
AcDbText
 10
535.8530918438495
 20
773.9526840354723
 30
0.0
 40
1.399999999999999
  1
40
 41
0.9264705882352545
  7
SMP-SET
 72
     5
 11
537.9530918438494
 21
773.9526840354723
 31
0.0
100
AcDbText
  0
TEXT
  5
1A8
330
2
100
AcDbEntity
  8
0
100
AcDbText
 10
534.8030918438495
 20
763.4526840354721
 30
0.0
 40
1.399999999999999
  1
150
 41
0.9449999999999596
  7
SMP-SET
 72
     5
 11
537.9530918438494
 21
763.4526840354721
 31
0.0
100
AcDbText
  0
TEXT
  5
1A9
330
2
100
AcDbEntity
  8
0
100
AcDbText
 10
534.8030918438495
 20
765.2026840354722
 30
0.0
 40
1.399999999999999
  1
125
 41
0.9449999999999597
  7
SMP-SET
 72
     5
 11
537.9530918438494
 21
765.2026840354722
 31
0.0
100
AcDbText
  0
TEXT
  5
1AA
330
2
100
AcDbEntity
  8
0
100
AcDbText
 10
534.8030918438495
 20
766.9526840354722
 30
0.0
 40
1.399999999999999
  1
100
 41
0.9449999999999596
  7
SMP-SET
 72
     5
 11
537.9530918438494
 21
766.9526840354722
 31
0.0
100
AcDbText
  0
TEXT
  5
1AB
330
2
100
AcDbEntity
  8
0
100
AcDbText
 10
534.8030918438495
 20
758.202684035472
 30
0.0
 40
1.399999999999999
  1
300
 41
0.8749999999999628
  7
SMP-SET
 72
     5
 11
537.9530918438494
 21
758.202684035472
 31
0.0
100
AcDbText
  0
TEXT
  5
1AC
330
2
100
AcDbEntity
  8
0
100
AcDbText
 10
534.8030918438495
 20
759.952684035472
 30
0.0
 40
1.399999999999999
  1
250
 41
0.8749999999999628
  7
SMP-SET
 72
     5
 11
537.9530918438494
 21
759.952684035472
 31
0.0
100
AcDbText
  0
TEXT
  5
1AD
330
2
100
AcDbEntity
  8
0
100
AcDbText
 10
534.8030918438495
 20
761.702684035472
 30
0.0
 40
1.399999999999999
  1
200
 41
0.8749999999999628
  7
SMP-SET
 72
     5
 11
537.9530918438494
 21
761.702684035472
 31
0.0
100
AcDbText
  0
TEXT
  5
1AE
330
2
100
AcDbEntity
  8
0
100
AcDbText
 10
535.8530918438495
 20
768.7026840354723
 30
0.0
 40
1.399999999999999
  1
80
 41
0.9264705882352545
  7
SMP-SET
 72
     5
 11
537.9530918438494
 21
768.7026840354723
 31
0.0
100
AcDbText
  0
LINE
  5
1AF
330
2
100
AcDbEntity
  8
0
100
AcDbLine
 10
532.5364345394193
 20
778.5026840354722
 30
0.0
 11
532.5364345394193
 21
760.3026840354722
 31
0.0
  0
TEXT
  5
1B0
330
2
100
AcDbEntity
  8
0
100
AcDbText
 10
509.1955311366793
 20
779.8947202027641
 30
0.0
 40
2.099999999999999
  1
3
  7
SMP-SET
100
AcDbText
  0
TEXT
  5
1B1
330
2
100
AcDbEntity
  8
0
100
AcDbText
 10
526.6955311366793
 20
779.8947202027641
 30
0.0
 40
2.099999999999999
  1
8
  7
SMP-SET
100
AcDbText
  0
TEXT
  5
1B2
330
2
100
AcDbEntity
  8
0
100
AcDbText
 10
519.6955311366791
 20
779.8947202027641
 30
0.0
 40
2.099999999999999
  1
6
  7
SMP-SET
100
AcDbText
  0
TEXT
  5
1B3
330
2
100
AcDbEntity
  8
0
100
AcDbText
 10
523.1955311366792
 20
779.8947202027641
 30
0.0
 40
2.099999999999999
  1
7
  7
SMP-SET
100
AcDbText
  0
TEXT
  5
1B4
330
2
100
AcDbEntity
  8
0
100
AcDbText
 10
530.1955311366793
 20
779.8947202027641
 30
0.0
 40
2.099999999999999
  1
9
  7
SMP-SET
100
AcDbText
  0
TEXT
  5
1B5
330
2
100
AcDbEntity
  8
0
100
AcDbText
 10
512.6955311366791
 20
779.8947202027641
 30
0.0
 40
2.099999999999999
  1
4
  7
SMP-SET
100
AcDbText
  0
TEXT
  5
1B6
330
2
100
AcDbEntity
  8
0
100
AcDbText
 10
516.1955311366791
 20
779.8947202027641
 30
0.0
 40
2.099999999999999
  1
5
  7
SMP-SET
100
AcDbText
  0
TEXT
  5
1B7
330
2
100
AcDbEntity
  8
0
100
AcDbText
 10
535.8530918438495
 20
779.2026840354723
 30
0.0
 40
1.399999999999999
  1
20
 41
0.9264705882352545
  7
SMP-SET
 72
     5
 11
537.9530918438494
 21
779.2026840354723
 31
0.0
100
AcDbText
  0
LINE
  5
1B8
330
2
100
AcDbEntity
  8
0
100
AcDbLine
 10
497.5364345394194
 20
760.3026840354722
 30
0.0
 11
497.5364345394194
 21
778.5026840354722
 31
0.0
  0
TEXT
  5
1B9
330
2
100
AcDbEntity
  8
0
100
AcDbText
 10
491.9364345394193
 20
762.4026840354722
 30
0.0
 40
3.5
  1
KW
 41
0.6146341463414619
  7
SMP-SET
 72
     5
 11
496.1364345394193
 21
762.4026840354722
 31
0.0
100
AcDbText
  0
TEXT
  5
1BA
330
2
100
AcDbEntity
  8
0
100
AcDbText
 10
491.9364345394193
 20
772.9026840354722
 30
0.0
 40
3.5
  1
MF
 41
0.6810810810810793
  7
SMP-SET
 72
     5
 11
496.1364345394193
 21
772.9026840354722
 31
0.0
100
AcDbText
  0
TEXT
  5
1BB
330
2
100
AcDbEntity
  8
0
100
AcDbText
 10
505.6955311366793
 20
779.8947202027641
 30
0.0
 40
2.099999999999999
  1
2
  7
SMP-SET
100
AcDbText
  0
TEXT
  5
1BC
330
2
100
AcDbEntity
  8
0
100
AcDbText
 10
498.6955311366791
 20
779.8947202027641
 30
0.0
 40
2.099999999999999
  1
0
  7
SMP-SET
100
AcDbText
  0
TEXT
  5
1BD
330
2
100
AcDbEntity
  8
0
100
AcDbText
 10
502.1955311366792
 20
779.8947202027641
 30
0.0
 40
2.099999999999999
  1
1
  7
SMP-SET
100
AcDbText
  0
LINE
  5
1BE
330
2
100
AcDbEntity
  8
0
100
AcDbLine
 10
497.5364345394194
 20
778.5026840354722
 30
0.0
 11
532.5364345394193
 21
778.5026840354722
 31
0.0
  0
LINE
  5
1BF
330
2
100
AcDbEntity
  8
0
100
AcDbLine
 10
490.5364345394192
 20
783.4026840354722
 30
0.0
 11
539.5364345394193
 21
783.4026840354722
 31
0.0
  0
TEXT
  5
1C0
330
2
100
AcDbEntity
  8
0
100
AcDbText
 10
505.9364345394193
 20
763.4526840354721
 30
0.0
 40
3.5
  1
KURASHIKI KAKO CO.,LTD.
 41
0.3700906344410875
  7
SMP-SET
 72
     5
 11
530.4364345394193
 21
763.4526840354721
 31
0.0
100
AcDbText
  0
LINE
  5
1C1
330
2
100
AcDbEntity
  8
0
100
AcDbLine
 10
532.5364345394193
 20
760.3026840354722
 30
0.0
 11
497.5364345394194
 21
760.3026840354721
 31
0.0
  0
TEXT
  5
1C2
330
2
100
AcDbEntity
  8
0
 48
3.0
100
AcDbText
 10
499.3564345394194
 20
770.1026840354723
 30
0.0
 40
5.599999999999998
  1
KURAFLEX
 41
0.7499999999999992
  7
SMP-SET
 72
     5
 11
530.1564345394194
 21
770.1026840354723
 31
0.0
100
AcDbText
  0
TEXT
  5
1C3
330
2
100
AcDbEntity
  8
0
 48
3.0
100
AcDbText
 10
499.9164345394192
 20
770.1026840354723
 30
0.0
 40
5.599999999999998
  1
KURAFLEX
 41
0.7500000000000005
  7
SMP-SET
 72
     5
 11
530.7164345394193
 21
770.1026840354723
 31
0.0
100
AcDbText
  0
TEXT
  5
1C4
330
2
100
AcDbEntity
  8
0
 48
3.0
100
AcDbText
 10
499.6364345394193
 20
769.822684035472
 30
0.0
 40
5.599999999999998
  1
KURAFLEX
 41
0.7500000000000005
  7
SMP-SET
 72
     5
 11
530.4364345394193
 21
769.822684035472
 31
0.0
100
AcDbText
  0
TEXT
  5
1C5
330
2
100
AcDbEntity
  8
0
 48
3.0
100
AcDbText
 10
499.6364345394193
 20
770.3826840354722
 30
0.0
 40
5.599999999999998
  1
KURAFLEX
 41
0.7500000000000005
  7
SMP-SET
 72
     5
 11
530.4364345394193
 21
770.3826840354722
 31
0.0
100
AcDbText
  0
TEXT
  5
1C6
330
2
100
AcDbEntity
  8
0
 48
3.0
100
AcDbText
 10
499.4264345394193
 20
770.1026840354723
 30
0.0
 40
5.599999999999998
  1
KURAFLEX
 41
0.7500000000000019
  7
SMP-SET
 72
     5
 11
530.2264345394194
 21
770.1026840354723
 31
0.0
100
AcDbText
  0
TEXT
  5
1C7
330
2
100
AcDbEntity
  8
0
 48
3.0
100
AcDbText
 10
499.8464345394193
 20
770.1026840354723
 30
0.0
 40
5.599999999999998
  1
KURAFLEX
 41
0.7500000000000019
  7
SMP-SET
 72
     5
 11
530.6464345394194
 21
770.1026840354723
 31
0.0
100
AcDbText
  0
TEXT
  5
1C8
330
2
100
AcDbEntity
  8
0
 48
3.0
100
AcDbText
 10
499.6364345394193
 20
769.8926840354722
 30
0.0
 40
5.599999999999998
  1
KURAFLEX
 41
0.7500000000000005
  7
SMP-SET
 72
     5
 11
530.4364345394193
 21
769.8926840354722
 31
0.0
100
AcDbText
  0
TEXT
  5
1C9
330
2
100
AcDbEntity
  8
0
 48
3.0
100
AcDbText
 10
499.6364345394193
 20
770.3126840354721
 30
0.0
 40
5.599999999999998
  1
KURAFLEX
 41
0.7500000000000005
  7
SMP-SET
 72
     5
 11
530.4364345394193
 21
770.3126840354721
 31
0.0
100
AcDbText
  0
TEXT
  5
1CA
330
2
100
AcDbEntity
  8
0
 48
3.0
100
AcDbText
 10
499.4964345394193
 20
770.1026840354723
 30
0.0
 40
5.599999999999998
  1
KURAFLEX
 41
0.7500000000000005
  7
SMP-SET
 72
     5
 11
530.2964345394193
 21
770.1026840354723
 31
0.0
100
AcDbText
  0
TEXT
  5
1CB
330
2
100
AcDbEntity
  8
0
 48
3.0
100
AcDbText
 10
499.7764345394194
 20
770.1026840354723
 30
0.0
 40
5.599999999999998
  1
KURAFLEX
 41
0.7499999999999978
  7
SMP-SET
 72
     5
 11
530.5764345394193
 21
770.1026840354723
 31
0.0
100
AcDbText
  0
TEXT
  5
1CC
330
2
100
AcDbEntity
  8
0
 48
3.0
100
AcDbText
 10
499.6364345394193
 20
769.9626840354723
 30
0.0
 40
5.599999999999998
  1
KURAFLEX
 41
0.7500000000000005
  7
SMP-SET
 72
     5
 11
530.4364345394193
 21
769.9626840354723
 31
0.0
100
AcDbText
  0
TEXT
  5
1CD
330
2
100
AcDbEntity
  8
0
 48
3.0
100
AcDbText
 10
499.6364345394193
 20
770.242684035472
 30
0.0
 40
5.599999999999998
  1
KURAFLEX
 41
0.7500000000000005
  7
SMP-SET
 72
     5
 11
530.4364345394193
 21
770.242684035472
 31
0.0
100
AcDbText
  0
TEXT
  5
1CE
330
2
100
AcDbEntity
  8
0
 48
3.0
100
AcDbText
 10
499.6364345394193
 20
770.0326840354722
 30
0.0
 40
5.599999999999998
  1
KURAFLEX
 41
0.7500000000000005
  7
SMP-SET
 72
     5
 11
530.4364345394193
 21
770.0326840354722
 31
0.0
100
AcDbText
  0
TEXT
  5
1CF
330
2
100
AcDbEntity
  8
0
 48
3.0
100
AcDbText
 10
499.6364345394193
 20
770.1726840354722
 30
0.0
 40
5.599999999999998
  1
KURAFLEX
 41
0.7500000000000005
  7
SMP-SET
 72
     5
 11
530.4364345394193
 21
770.1726840354722
 31
0.0
100
AcDbText
  0
TEXT
  5
1D0
330
2
100
AcDbEntity
  8
0
 48
3.0
100
AcDbText
 10
499.5664345394193
 20
770.1026840354723
 30
0.0
 40
5.599999999999998
  1
KURAFLEX
 41
0.7499999999999965
  7
SMP-SET
 72
     5
 11
530.3664345394191
 21
770.1026840354723
 31
0.0
100
AcDbText
  0
TEXT
  5
1D1
330
2
100
AcDbEntity
  8
0
 48
3.0
100
AcDbText
 10
499.7064345394193
 20
770.1026840354723
 30
0.0
 40
5.599999999999998
  1
KURAFLEX
 41
0.7499999999999992
  7
SMP-SET
 72
     5
 11
530.5064345394193
 21
770.1026840354723
 31
0.0
100
AcDbText
  0
TEXT
  5
1D2
330
2
100
AcDbEntity
  8
0
 48
3.0
100
AcDbText
 10
499.6364345394193
 20
770.1026840354723
 30
0.0
 40
5.599999999999998
  1
KURAFLEX
 41
0.7500000000000005
  7
SMP-SET
 72
     5
 11
530.4364345394193
 21
770.1026840354723
 31
0.0
100
AcDbText
  0
LINE
  5
1D3
330
2
100
AcDbEntity
  8
0
100
AcDbLine
 10
539.5364345394193
 20
755.4026840354723
 30
0.0
 11
490.5364345394192
 21
755.4026840354723
 31
0.0
  0
TEXT
  5
1D4
330
2
100
AcDbEntity
  8
0
100
AcDbText
 10
518.6683358149653
 20
757.1169477137345
 30
0.0
 40
1.75
  1
H
  7
SMP-SET
100
AcDbText
  0
TEXT
  5
1D5
330
2
100
AcDbEntity
  8
0
100
AcDbText
 10
521.4683358149653
 20
757.1169477137345
 30
0.0
 40
1.75
  1
I
  7
SMP-SET
100
AcDbText
  0
TEXT
  5
1D6
330
2
100
AcDbEntity
  8
0
100
AcDbText
 10
527.0683358149653
 20
757.1169477137345
 30
0.0
 40
1.75
  1
K
  7
SMP-SET
100
AcDbText
  0
TEXT
  5
1D7
330
2
100
AcDbEntity
  8
0
100
AcDbText
 10
524.2683358149653
 20
757.1169477137345
 30
0.0
 40
1.75
  1
J
  7
SMP-SET
100
AcDbText
  0
TEXT
  5
1D8
330
2
100
AcDbEntity
  8
0
100
AcDbText
 10
529.8683358149652
 20
757.1169477137345
 30
0.0
 40
1.75
  1
L
  7
SMP-SET
100
AcDbText
  0
TEXT
  5
1D9
330
2
100
AcDbEntity
  8
0
100
AcDbText
 10
504.6683358149651
 20
757.1169477137345
 30
0.0
 40
1.75
  1
C
  7
SMP-SET
100
AcDbText
  0
TEXT
  5
1DA
330
2
100
AcDbEntity
  8
0
100
AcDbText
 10
507.4683358149653
 20
757.1169477137345
 30
0.0
 40
1.75
  1
D
  7
SMP-SET
100
AcDbText
  0
TEXT
  5
1DB
330
2
100
AcDbEntity
  8
0
100
AcDbText
 10
513.0683358149651
 20
757.1169477137345
 30
0.0
 40
1.75
  1
F
  7
SMP-SET
100
AcDbText
  0
TEXT
  5
1DC
330
2
100
AcDbEntity
  8
0
100
AcDbText
 10
510.2683358149652
 20
757.1169477137345
 30
0.0
 40
1.75
  1
E
  7
SMP-SET
100
AcDbText
  0
TEXT
  5
1DD
330
2
100
AcDbEntity
  8
0
100
AcDbText
 10
499.0683358149651
 20
757.1169477137345
 30
0.0
 40
1.75
  1
A
  7
SMP-SET
100
AcDbText
  0
TEXT
  5
1DE
330
2
100
AcDbEntity
  8
0
100
AcDbText
 10
501.8683358149653
 20
757.1169477137345
 30
0.0
 40
1.75
  1
B
  7
SMP-SET
100
AcDbText
  0
TEXT
  5
1DF
330
2
100
AcDbEntity
  8
0
100
AcDbText
 10
515.8683358149652
 20
757.1169477137345
 30
0.0
 40
1.75
  1
G
  7
SMP-SET
100
AcDbText
  0
LINE
  5
1E0
330
2
100
AcDbEntity
  8
0
100
AcDbLine
 10
490.5364345394192
 20
755.4026840354723
 30
0.0
 11
490.5364345394192
 21
783.4026840354722
 31
0.0
  0
LINE
  5
1E1
330
2
100
AcDbEntity
  8
0
100
AcDbLine
 10
539.5364345394193
 20
783.4026840354722
 30
0.0
 11
539.5364345394193
 21
755.4026840354723
 31
0.0
  0
LINE
  5
1E2
330
2
100
AcDbEntity
  8
0
100
AcDbLine
 10
616.5738963033978
 20
740.4026840354794
 30
0.0
 11
415.0689938713981
 21
740.4026840354736
 31
0.0
  0
LINE
  5
1E3
330
2
100
AcDbEntity
  8
0
100
AcDbLine
 10
405.0689938713964
 20
738.4026840354732
 30
0.0
 11
415.068993871398
 21
740.4026840354736
 31
0.0
  0
LINE
  5
1E4
330
2
100
AcDbEntity
  8
0
100
AcDbLine
 10
367.1191982042357
 20
733.9160266166633
 30
0.0
 11
369.8214450874123
 21
732.9026840354722
 31
0.0
  0
ARC
  5
1E5
330
2
100
AcDbEntity
  8
0
100
AcDbCircle
 10
367.8214450874123
 20
735.7886849718014
 30
0.0
 40
2.0
100
AcDbArc
 50
180.0
 51
249.4439547804157
  0
LINE
  5
1E6
330
2
100
AcDbEntity
  8
0
100
AcDbLine
 10
405.0689938713964
 20
738.4026840354732
 30
0.0
 11
385.8214450874123
 21
738.4026840354727
 31
0.0
  0
LINE
  5
1E7
330
2
100
AcDbEntity
  8
0
100
AcDbLine
 10
360.8214450874123
 20
716.9026840354722
 30
0.0
 11
391.7150281436129
 21
716.9026840354722
 31
0.0
  0
LINE
  5
1E8
330
2
100
AcDbEntity
  8
0
100
AcDbLine
 10
365.8214450874123
 20
735.7886849718014
 30
0.0
 11
365.8214450874123
 21
803.0166830991428
 31
0.0
  0
LINE
  5
1E9
330
2
100
AcDbEntity
  8
0
100
AcDbLine
 10
430.7260523650815
 20
740.4026840354744
 30
0.0
 11
415.068993871398
 21
740.4026840354736
 31
0.0
  0
LINE
  5
1EA
330
2
100
AcDbEntity
  8
0
100
AcDbLine
 10
384.8214450874123
 20
699.4026840354722
 30
0.0
 11
385.8214450874123
 21
700.4026840354722
 31
0.0
  0
LINE
  5
1EB
330
2
100
AcDbEntity
  8
0
100
AcDbLine
 10
369.8214450874123
 20
700.4026840354722
 30
0.0
 11
370.8214450874125
 21
699.4026840354722
 31
0.0
  0
LINE
  5
1EC
330
2
100
AcDbEntity
  8
0
100
AcDbLine
 10
384.8214450874123
 20
699.4026840354722
 30
0.0
 11
370.8214450874125
 21
699.4026840354722
 31
0.0
  0
LINE
  5
1ED
330
2
100
AcDbEntity
  8
0
100
AcDbLine
 10
369.8214450874123
 20
700.4026840354722
 30
0.0
 11
369.8214450874123
 21
769.4026840354722
 31
0.0
  0
LINE
  5
1EE
330
2
100
AcDbEntity
  8
0
100
AcDbLine
 10
385.8214450874123
 20
769.4026840354722
 30
0.0
 11
385.8214450874123
 21
700.4026840354721
 31
0.0
  0
LINE
  5
1EF
330
2
100
AcDbEntity
  8
0
100
AcDbLine
 10
670.8214450874123
 20
769.4026840354722
 30
0.0
 11
360.8214450874123
 21
769.4026840354722
 31
0.0
  0
LINE
  5
1F0
330
2
100
AcDbEntity
  8
0
100
AcDbLine
 10
626.5738963034282
 20
737.9026840354732
 30
0.0
 11
645.8214450874123
 21
737.9026840354725
 31
0.0
  0
LINE
  5
1F1
330
2
100
AcDbEntity
  8
0
100
AcDbLine
 10
1810.296255134768
 20
1254.232470247804
 30
0.0
 11
1807.594008251591
 21
1255.245812828996
 31
0.0
  0
ARC
  5
1F2
330
2
100
AcDbEntity
  8
0
100
AcDbCircle
 10
1809.594008251591
 20
1252.359811892667
 30
0.0
 40
2.0
100
AcDbArc
 50
0.0
 51
69.44395478041044
  0
LINE
  5
1F3
330
2
100
AcDbEntity
  8
0
100
AcDbLine
 10
1772.346459467607
 20
1249.745812828995
 30
0.0
 11
1791.594008251591
 21
1249.745812828995
 31
0.0
  0
LINE
  5
1F4
330
2
100
AcDbEntity
  8
0
100
AcDbLine
 10
1772.346459467607
 20
1249.745812828995
 30
0.0
 11
1762.346459467605
 21
1247.745812828994
 31
0.0
  0
LINE
  5
1F5
330
2
100
AcDbEntity
  8
0
100
AcDbLine
 10
1656.49861552926
 20
1247.745812828993
 30
0.0
 11
1560.841557035575
 21
1247.745812828994
 31
0.0
  0
LINE
  5
1F6
330
2
100
AcDbEntity
  8
0
100
AcDbLine
 10
1550.841557035575
 20
1249.745812828995
 30
0.0
 11
1531.594008251591
 21
1249.745812828995
 31
0.0
  0
ARC
  5
1F7
330
2
100
AcDbEntity
  8
0
100
AcDbCircle
 10
1513.594008251591
 20
1252.359811892667
 30
0.0
 40
2.0
100
AcDbArc
 50
110.5560452195895
 51
180.0
  0
LINE
  5
1F8
330
2
100
AcDbEntity
  8
0
100
AcDbLine
 10
1512.891761368414
 20
1254.232470247804
 30
0.0
 11
1515.594008251591
 21
1255.245812828996
 31
0.0
  0
LINE
  5
1F9
330
2
100
AcDbEntity
  8
0
100
AcDbLine
 10
1550.841557035575
 20
1249.745812828995
 30
0.0
 11
1560.841557035575
 21
1247.745812828994
 31
0.0
  0
LINE
  5
1FA
330
2
100
AcDbEntity
  8
0
100
AcDbLine
 10
1762.346459467576
 20
1247.745812828989
 30
0.0
 11
1560.841557035577
 21
1247.745812828994
 31
0.0
  0
LINE
  5
1FB
330
2
100
AcDbEntity
  8
0
100
AcDbLine
 10
1807.594008251591
 20
1289.245812828996
 30
0.0
 11
1806.594008251591
 21
1290.245812828996
 31
0.0
  0
LINE
  5
1FC
330
2
100
AcDbEntity
  8
0
100
AcDbLine
 10
1792.59400825159
 20
1290.245812828996
 30
0.0
 11
1791.594008251591
 21
1289.245812828996
 31
0.0
  0
LINE
  5
1FD
330
2
100
AcDbEntity
  8
0
100
AcDbLine
 10
1792.59400825159
 20
1290.245812828996
 30
0.0
 11
1806.594008251591
 21
1290.245812828996
 31
0.0
  0
LINE
  5
1FE
330
2
100
AcDbEntity
  8
0
100
AcDbLine
 10
1791.594008251591
 20
1289.245812828996
 30
0.0
 11
1791.594008251591
 21
1222.745812828996
 31
0.0
  0
LINE
  5
1FF
330
2
100
AcDbEntity
  8
0
100
AcDbLine
 10
1807.594008251591
 20
1289.245812828996
 30
0.0
 11
1807.594008251591
 21
1222.745812828996
 31
0.0
  0
LINE
  5
200
330
2
100
AcDbEntity
  8
0
100
AcDbLine
 10
1816.594008251591
 20
1272.745812828996
 30
0.0
 11
1785.700425195391
 21
1272.745812828996
 31
0.0
  0
LINE
  5
201
330
2
100
AcDbEntity
  8
0
100
AcDbLine
 10
1530.594008251591
 20
1290.245812828996
 30
0.0
 11
1531.594008251591
 21
1289.245812828996
 31
0.0
  0
LINE
  5
202
330
2
100
AcDbEntity
  8
0
100
AcDbLine
 10
1531.594008251591
 20
1289.245812828996
 30
0.0
 11
1531.594008251591
 21
1222.745812828996
 31
0.0
  0
LINE
  5
203
330
2
100
AcDbEntity
  8
0
100
AcDbLine
 10
1515.594008251591
 20
1289.245812828996
 30
0.0
 11
1516.594008251591
 21
1290.245812828996
 31
0.0
  0
LINE
  5
204
330
2
100
AcDbEntity
  8
0
100
AcDbLine
 10
1515.594008251591
 20
1289.245812828996
 30
0.0
 11
1515.594008251591
 21
1222.745812828996
 31
0.0
  0
LINE
  5
205
330
2
100
AcDbEntity
  8
0
100
AcDbLine
 10
1530.594008251591
 20
1290.245812828996
 30
0.0
 11
1516.594008251591
 21
1290.245812828996
 31
0.0
  0
LINE
  5
206
330
2
100
AcDbEntity
  8
0
100
AcDbLine
 10
1506.594008251591
 20
1272.745812828996
 30
0.0
 11
1537.487591307791
 21
1272.745812828996
 31
0.0
  0
TEXT
  5
207
330
2
100
AcDbEntity
  8
0
100
AcDbText
 10
1684.043548429389
 20
1228.812998965609
 30
0.0
 40
1.399999999999999
  1
32
 41
0.926470588235656
  7
SMP-SET
 72
     5
 11
1686.14354842939
 21
1228.812998965609
 31
0.0
100
AcDbText
  0
TEXT
  5
208
330
2
100
AcDbEntity
  8
0
100
AcDbText
 10
1684.043548429389
 20
1230.562998965609
 30
0.0
 40
1.399999999999999
  1
25
 41
0.926470588235656
  7
SMP-SET
 72
     5
 11
1686.14354842939
 21
1230.562998965609
 31
0.0
100
AcDbText
  0
TEXT
  5
209
330
2
100
AcDbEntity
  8
0
100
AcDbText
 10
1684.043548429389
 20
1232.312998965609
 30
0.0
 40
1.399999999999999
  1
20
 41
0.926470588235656
  7
SMP-SET
 72
     5
 11
1686.14354842939
 21
1232.312998965609
 31
0.0
100
AcDbText
  0
TEXT
  5
20A
330
2
100
AcDbEntity
  8
0
100
AcDbText
 10
1684.043548429389
 20
1225.312998965609
 30
0.0
 40
1.399999999999999
  1
50
 41
0.926470588235656
  7
SMP-SET
 72
     5
 11
1686.14354842939
 21
1225.312998965609
 31
0.0
100
AcDbText
  0
TEXT
  5
20B
330
2
100
AcDbEntity
  8
0
100
AcDbText
 10
1684.043548429389
 20
1223.562998965609
 30
0.0
 40
1.399999999999999
  1
65
 41
0.926470588235656
  7
SMP-SET
 72
     5
 11
1686.14354842939
 21
1223.562998965609
 31
0.0
100
AcDbText
  0
TEXT
  5
20C
330
2
100
AcDbEntity
  8
0
100
AcDbText
 10
1684.043548429389
 20
1227.062998965609
 30
0.0
 40
1.399999999999999
  1
40
 41
0.926470588235656
  7
SMP-SET
 72
     5
 11
1686.14354842939
 21
1227.062998965609
 31
0.0
100
AcDbText
  0
TEXT
  5
20D
330
2
100
AcDbEntity
  8
0
100
AcDbText
 10
1682.993548429389
 20
1220.062998965609
 30
0.0
 40
1.399999999999999
  1
100
 41
0.945000000000301
  7
SMP-SET
 72
     5
 11
1686.14354842939
 21
1220.062998965609
 31
0.0
100
AcDbText
  0
TEXT
  5
20E
330
2
100
AcDbEntity
  8
0
100
AcDbText
 10
1682.993548429389
 20
1218.312998965609
 30
0.0
 40
1.399999999999999
  1
125
 41
0.945000000000301
  7
SMP-SET
 72
     5
 11
1686.14354842939
 21
1218.312998965609
 31
0.0
100
AcDbText
  0
TEXT
  5
20F
330
2
100
AcDbEntity
  8
0
100
AcDbText
 10
1682.993548429389
 20
1214.812998965609
 30
0.0
 40
1.399999999999999
  1
200
 41
0.8750000000002785
  7
SMP-SET
 72
     5
 11
1686.14354842939
 21
1214.812998965609
 31
0.0
100
AcDbText
  0
TEXT
  5
210
330
2
100
AcDbEntity
  8
0
100
AcDbText
 10
1682.993548429389
 20
1213.062998965609
 30
0.0
 40
1.399999999999999
  1
250
 41
0.8750000000002787
  7
SMP-SET
 72
     5
 11
1686.14354842939
 21
1213.062998965609
 31
0.0
100
AcDbText
  0
TEXT
  5
211
330
2
100
AcDbEntity
  8
0
100
AcDbText
 10
1682.993548429389
 20
1211.312998965609
 30
0.0
 40
1.399999999999999
  1
300
 41
0.8750000000002785
  7
SMP-SET
 72
     5
 11
1686.14354842939
 21
1211.312998965609
 31
0.0
100
AcDbText
  0
TEXT
  5
212
330
2
100
AcDbEntity
  8
0
100
AcDbText
 10
1682.993548429389
 20
1216.562998965609
 30
0.0
 40
1.399999999999999
  1
150
 41
0.945000000000301
  7
SMP-SET
 72
     5
 11
1686.14354842939
 21
1216.562998965609
 31
0.0
100
AcDbText
  0
LINE
  5
213
330
2
100
AcDbEntity
  8
0
100
AcDbLine
 10
1680.726891124959
 20
1231.612998965609
 30
0.0
 11
1680.726891124959
 21
1213.412998965609
 31
0.0
  0
TEXT
  5
214
330
2
100
AcDbEntity
  8
0
100
AcDbText
 10
1684.043548429389
 20
1221.812998965609
 30
0.0
 40
1.399999999999999
  1
80
 41
0.926470588235656
  7
SMP-SET
 72
     5
 11
1686.14354842939
 21
1221.812998965609
 31
0.0
100
AcDbText
  0
TEXT
  5
215
330
2
100
AcDbEntity
  8
0
100
AcDbText
 10
1664.385987722219
 20
1233.005035132901
 30
0.0
 40
2.099999999999999
  1
5
  7
SMP-SET
100
AcDbText
  0
TEXT
  5
216
330
2
100
AcDbEntity
  8
0
100
AcDbText
 10
1660.885987722219
 20
1233.005035132901
 30
0.0
 40
2.099999999999999
  1
4
  7
SMP-SET
100
AcDbText
  0
TEXT
  5
217
330
2
100
AcDbEntity
  8
0
100
AcDbText
 10
1678.385987722219
 20
1233.005035132901
 30
0.0
 40
2.099999999999999
  1
9
  7
SMP-SET
100
AcDbText
  0
TEXT
  5
218
330
2
100
AcDbEntity
  8
0
100
AcDbText
 10
1671.385987722219
 20
1233.005035132901
 30
0.0
 40
2.099999999999999
  1
7
  7
SMP-SET
100
AcDbText
  0
TEXT
  5
219
330
2
100
AcDbEntity
  8
0
100
AcDbText
 10
1667.885987722219
 20
1233.005035132901
 30
0.0
 40
2.099999999999999
  1
6
  7
SMP-SET
100
AcDbText
  0
TEXT
  5
21A
330
2
100
AcDbEntity
  8
0
100
AcDbText
 10
1674.885987722219
 20
1233.005035132901
 30
0.0
 40
2.099999999999999
  1
8
  7
SMP-SET
100
AcDbText
  0
LINE
  5
21B
330
2
100
AcDbEntity
  8
0
100
AcDbLine
 10
1645.726891124959
 20
1213.412998965609
 30
0.0
 11
1645.726891124959
 21
1231.612998965609
 31
0.0
  0
TEXT
  5
21C
330
2
100
AcDbEntity
  8
0
100
AcDbText
 10
1640.12689112496
 20
1226.012998965609
 30
0.0
 40
3.5
  1
MF
 41
0.681081081080941
  7
SMP-SET
 72
     5
 11
1644.326891124959
 21
1226.012998965609
 31
0.0
100
AcDbText
  0
TEXT
  5
21D
330
2
100
AcDbEntity
  8
0
100
AcDbText
 10
1640.12689112496
 20
1215.512998965609
 30
0.0
 40
3.5
  1
KW
 41
0.614634146341337
  7
SMP-SET
 72
     5
 11
1644.326891124959
 21
1215.512998965609
 31
0.0
100
AcDbText
  0
TEXT
  5
21E
330
2
100
AcDbEntity
  8
0
100
AcDbText
 10
1650.385987722219
 20
1233.005035132901
 30
0.0
 40
2.099999999999999
  1
1
  7
SMP-SET
100
AcDbText
  0
TEXT
  5
21F
330
2
100
AcDbEntity
  8
0
100
AcDbText
 10
1646.885987722219
 20
1233.005035132901
 30
0.0
 40
2.099999999999999
  1
0
  7
SMP-SET
100
AcDbText
  0
TEXT
  5
220
330
2
100
AcDbEntity
  8
0
100
AcDbText
 10
1653.885987722219
 20
1233.005035132901
 30
0.0
 40
2.099999999999999
  1
2
  7
SMP-SET
100
AcDbText
  0
TEXT
  5
221
330
2
100
AcDbEntity
  8
0
 48
3.0
100
AcDbText
 10
1647.826891124959
 20
1223.212998965609
 30
0.0
 40
5.599999999999998
  1
KURAFLEX
 41
0.7499999999999992
  7
SMP-SET
 72
     5
 11
1678.626891124959
 21
1223.212998965609
 31
0.0
100
AcDbText
  0
TEXT
  5
222
330
2
100
AcDbEntity
  8
0
 48
3.0
100
AcDbText
 10
1647.896891124959
 20
1223.212998965609
 30
0.0
 40
5.599999999999998
  1
KURAFLEX
 41
0.7499999999999992
  7
SMP-SET
 72
     5
 11
1678.696891124959
 21
1223.212998965609
 31
0.0
100
AcDbText
  0
TEXT
  5
223
330
2
100
AcDbEntity
  8
0
 48
3.0
100
AcDbText
 10
1647.756891124959
 20
1223.212998965609
 30
0.0
 40
5.599999999999998
  1
KURAFLEX
 41
0.7499999999999992
  7
SMP-SET
 72
     5
 11
1678.556891124959
 21
1223.212998965609
 31
0.0
100
AcDbText
  0
TEXT
  5
224
330
2
100
AcDbEntity
  8
0
 48
3.0
100
AcDbText
 10
1647.826891124959
 20
1223.282998965609
 30
0.0
 40
5.599999999999998
  1
KURAFLEX
 41
0.7499999999999992
  7
SMP-SET
 72
     5
 11
1678.626891124959
 21
1223.282998965609
 31
0.0
100
AcDbText
  0
TEXT
  5
225
330
2
100
AcDbEntity
  8
0
 48
3.0
100
AcDbText
 10
1647.826891124959
 20
1223.142998965609
 30
0.0
 40
5.599999999999998
  1
KURAFLEX
 41
0.7499999999999992
  7
SMP-SET
 72
     5
 11
1678.626891124959
 21
1223.142998965609
 31
0.0
100
AcDbText
  0
TEXT
  5
226
330
2
100
AcDbEntity
  8
0
 48
3.0
100
AcDbText
 10
1647.826891124959
 20
1223.352998965609
 30
0.0
 40
5.599999999999998
  1
KURAFLEX
 41
0.7499999999999992
  7
SMP-SET
 72
     5
 11
1678.626891124959
 21
1223.352998965609
 31
0.0
100
AcDbText
  0
TEXT
  5
227
330
2
100
AcDbEntity
  8
0
 48
3.0
100
AcDbText
 10
1647.826891124959
 20
1223.072998965609
 30
0.0
 40
5.599999999999998
  1
KURAFLEX
 41
0.7499999999999992
  7
SMP-SET
 72
     5
 11
1678.626891124959
 21
1223.072998965609
 31
0.0
100
AcDbText
  0
TEXT
  5
228
330
2
100
AcDbEntity
  8
0
 48
3.0
100
AcDbText
 10
1647.966891124959
 20
1223.212998965609
 30
0.0
 40
5.599999999999998
  1
KURAFLEX
 41
0.7499999999999992
  7
SMP-SET
 72
     5
 11
1678.766891124959
 21
1223.212998965609
 31
0.0
100
AcDbText
  0
TEXT
  5
229
330
2
100
AcDbEntity
  8
0
 48
3.0
100
AcDbText
 10
1647.686891124959
 20
1223.212998965609
 30
0.0
 40
5.599999999999998
  1
KURAFLEX
 41
0.7499999999999992
  7
SMP-SET
 72
     5
 11
1678.486891124959
 21
1223.212998965609
 31
0.0
100
AcDbText
  0
TEXT
  5
22A
330
2
100
AcDbEntity
  8
0
 48
3.0
100
AcDbText
 10
1647.826891124959
 20
1223.422998965609
 30
0.0
 40
5.599999999999998
  1
KURAFLEX
 41
0.7499999999999992
  7
SMP-SET
 72
     5
 11
1678.626891124959
 21
1223.422998965609
 31
0.0
100
AcDbText
  0
TEXT
  5
22B
330
2
100
AcDbEntity
  8
0
 48
3.0
100
AcDbText
 10
1647.826891124959
 20
1223.002998965609
 30
0.0
 40
5.599999999999998
  1
KURAFLEX
 41
0.7499999999999992
  7
SMP-SET
 72
     5
 11
1678.626891124959
 21
1223.002998965609
 31
0.0
100
AcDbText
  0
TEXT
  5
22C
330
2
100
AcDbEntity
  8
0
 48
3.0
100
AcDbText
 10
1648.036891124959
 20
1223.212998965609
 30
0.0
 40
5.599999999999998
  1
KURAFLEX
 41
0.7500000000000214
  7
SMP-SET
 72
     5
 11
1678.83689112496
 21
1223.212998965609
 31
0.0
100
AcDbText
  0
TEXT
  5
22D
330
2
100
AcDbEntity
  8
0
 48
3.0
100
AcDbText
 10
1647.616891124959
 20
1223.212998965609
 30
0.0
 40
5.599999999999998
  1
KURAFLEX
 41
0.7500000000000047
  7
SMP-SET
 72
     5
 11
1678.416891124959
 21
1223.212998965609
 31
0.0
100
AcDbText
  0
TEXT
  5
22E
330
2
100
AcDbEntity
  8
0
 48
3.0
100
AcDbText
 10
1647.826891124959
 20
1223.492998965609
 30
0.0
 40
5.599999999999998
  1
KURAFLEX
 41
0.7499999999999992
  7
SMP-SET
 72
     5
 11
1678.626891124959
 21
1223.492998965609
 31
0.0
100
AcDbText
  0
TEXT
  5
22F
330
2
100
AcDbEntity
  8
0
 48
3.0
100
AcDbText
 10
1647.826891124959
 20
1222.932998965609
 30
0.0
 40
5.599999999999998
  1
KURAFLEX
 41
0.7499999999999992
  7
SMP-SET
 72
     5
 11
1678.626891124959
 21
1222.932998965609
 31
0.0
100
AcDbText
  0
TEXT
  5
230
330
2
100
AcDbEntity
  8
0
 48
3.0
100
AcDbText
 10
1648.106891124959
 20
1223.212998965609
 30
0.0
 40
5.599999999999998
  1
KURAFLEX
 41
0.7500000000000047
  7
SMP-SET
 72
     5
 11
1678.906891124959
 21
1223.212998965609
 31
0.0
100
AcDbText
  0
TEXT
  5
231
330
2
100
AcDbEntity
  8
0
 48
3.0
100
AcDbText
 10
1647.546891124959
 20
1223.212998965609
 30
0.0
 40
5.599999999999998
  1
KURAFLEX
 41
0.7499999999999992
  7
SMP-SET
 72
     5
 11
1678.346891124959
 21
1223.212998965609
 31
0.0
100
AcDbText
  0
LINE
  5
232
330
2
100
AcDbEntity
  8
0
100
AcDbLine
 10
1680.726891124959
 20
1213.412998965609
 30
0.0
 11
1645.726891124959
 21
1213.412998965609
 31
0.0
  0
TEXT
  5
233
330
2
100
AcDbEntity
  8
0
100
AcDbText
 10
1654.126891124959
 20
1216.562998965609
 30
0.0
 40
3.5
  1
KURASHIKI KAKO CO.,LTD.
 41
0.3700906344410875
  7
SMP-SET
 72
     5
 11
1678.626891124959
 21
1216.562998965609
 31
0.0
100
AcDbText
  0
LINE
  5
234
330
2
100
AcDbEntity
  8
0
100
AcDbLine
 10
1638.726891124959
 20
1236.512998965609
 30
0.0
 11
1687.726891124959
 21
1236.512998965609
 31
0.0
  0
LINE
  5
235
330
2
100
AcDbEntity
  8
0
100
AcDbLine
 10
1645.726891124959
 20
1231.612998965609
 30
0.0
 11
1680.726891124959
 21
1231.612998965609
 31
0.0
  0
TEXT
  5
236
330
2
100
AcDbEntity
  8
0
100
AcDbText
 10
1657.385987722219
 20
1233.005035132901
 30
0.0
 40
2.099999999999999
  1
3
  7
SMP-SET
100
AcDbText
  0
LINE
  5
237
330
2
100
AcDbEntity
  8
0
100
AcDbLine
 10
1687.726891124959
 20
1208.512998965609
 30
0.0
 11
1638.726891124959
 21
1208.512998965609
 31
0.0
  0
LINE
  5
238
330
2
100
AcDbEntity
  8
0
100
AcDbLine
 10
1687.726891124959
 20
1236.512998965609
 30
0.0
 11
1687.726891124959
 21
1208.512998965609
 31
0.0
  0
LINE
  5
239
330
2
100
AcDbEntity
  8
0
100
AcDbLine
 10
1638.726891124959
 20
1208.512998965609
 30
0.0
 11
1638.726891124959
 21
1236.512998965609
 31
0.0
  0
TEXT
  5
23A
330
2
100
AcDbEntity
  8
0
100
AcDbText
 10
1664.058792400505
 20
1210.227262643871
 30
0.0
 40
1.75
  1
G
  7
SMP-SET
100
AcDbText
  0
TEXT
  5
23B
330
2
100
AcDbEntity
  8
0
100
AcDbText
 10
1650.058792400505
 20
1210.227262643871
 30
0.0
 40
1.75
  1
B
  7
SMP-SET
100
AcDbText
  0
TEXT
  5
23C
330
2
100
AcDbEntity
  8
0
100
AcDbText
 10
1647.258792400505
 20
1210.227262643871
 30
0.0
 40
1.75
  1
A
  7
SMP-SET
100
AcDbText
  0
TEXT
  5
23D
330
2
100
AcDbEntity
  8
0
100
AcDbText
 10
1658.458792400505
 20
1210.227262643871
 30
0.0
 40
1.75
  1
E
  7
SMP-SET
100
AcDbText
  0
TEXT
  5
23E
330
2
100
AcDbEntity
  8
0
100
AcDbText
 10
1661.258792400505
 20
1210.227262643871
 30
0.0
 40
1.75
  1
F
  7
SMP-SET
100
AcDbText
  0
TEXT
  5
23F
330
2
100
AcDbEntity
  8
0
100
AcDbText
 10
1655.658792400505
 20
1210.227262643871
 30
0.0
 40
1.75
  1
D
  7
SMP-SET
100
AcDbText
  0
TEXT
  5
240
330
2
100
AcDbEntity
  8
0
100
AcDbText
 10
1652.858792400505
 20
1210.227262643871
 30
0.0
 40
1.75
  1
C
  7
SMP-SET
100
AcDbText
  0
TEXT
  5
241
330
2
100
AcDbEntity
  8
0
100
AcDbText
 10
1678.058792400505
 20
1210.227262643871
 30
0.0
 40
1.75
  1
L
  7
SMP-SET
100
AcDbText
  0
TEXT
  5
242
330
2
100
AcDbEntity
  8
0
100
AcDbText
 10
1672.458792400505
 20
1210.227262643871
 30
0.0
 40
1.75
  1
J
  7
SMP-SET
100
AcDbText
  0
TEXT
  5
243
330
2
100
AcDbEntity
  8
0
100
AcDbText
 10
1675.258792400505
 20
1210.227262643871
 30
0.0
 40
1.75
  1
K
  7
SMP-SET
100
AcDbText
  0
TEXT
  5
244
330
2
100
AcDbEntity
  8
0
100
AcDbText
 10
1669.658792400505
 20
1210.227262643871
 30
0.0
 40
1.75
  1
I
  7
SMP-SET
100
AcDbText
  0
TEXT
  5
245
330
2
100
AcDbEntity
  8
0
100
AcDbText
 10
1666.858792400505
 20
1210.227262643871
 30
0.0
 40
1.75
  1
H
  7
SMP-SET
100
AcDbText
  0
ARC
  5
246
330
2
100
AcDbEntity
  8
0
100
AcDbCircle
 10
1809.594008251591
 20
1193.131813765325
 30
0.0
 40
2.0
100
AcDbArc
 50
290.5560452195895
 51
0.0
  0
LINE
  5
247
330
2
100
AcDbEntity
  8
0
100
AcDbLine
 10
1810.296255134768
 20
1191.259155410187
 30
0.0
 11
1807.594008251591
 21
1190.245812828996
 31
0.0
  0
LINE
  5
248
330
2
100
AcDbEntity
  8
0
100
AcDbLine
 10
1816.594008251591
 20
1172.745812828996
 30
0.0
 11
1785.700425195391
 21
1172.745812828996
 31
0.0
  0
LINE
  5
249
330
2
100
AcDbEntity
  8
0
100
AcDbLine
 10
1811.594008251591
 20
1193.131813765325
 30
0.0
 11
1811.594008251591
 21
1252.359811892667
 31
0.0
  0
LINE
  5
24A
330
2
100
AcDbEntity
  8
0
100
AcDbLine
 10
1807.594008251591
 20
1156.245812828996
 30
0.0
 11
1806.594008251591
 21
1155.245812828996
 31
0.0
  0
LINE
  5
24B
330
2
100
AcDbEntity
  8
0
100
AcDbLine
 10
1792.59400825159
 20
1155.245812828996
 30
0.0
 11
1791.594008251591
 21
1156.245812828996
 31
0.0
  0
LINE
  5
24C
330
2
100
AcDbEntity
  8
0
100
AcDbLine
 10
1792.59400825159
 20
1155.245812828996
 30
0.0
 11
1806.594008251591
 21
1155.245812828996
 31
0.0
  0
LINE
  5
24D
330
2
100
AcDbEntity
  8
0
100
AcDbLine
 10
1807.594008251591
 20
1156.245812828996
 30
0.0
 11
1807.594008251591
 21
1222.745812828996
 31
0.0
  0
LINE
  5
24E
330
2
100
AcDbEntity
  8
0
100
AcDbLine
 10
1791.594008251591
 20
1156.245812828996
 30
0.0
 11
1791.594008251591
 21
1222.745812828996
 31
0.0
  0
LINE
  5
24F
330
2
100
AcDbEntity
  8
0
100
AcDbLine
 10
1772.346459467607
 20
1195.745812828997
 30
0.0
 11
1762.346459467605
 21
1197.745812828997
 31
0.0
  0
LINE
  5
250
330
2
100
AcDbEntity
  8
0
100
AcDbLine
 10
1762.346459467576
 20
1197.745812829003
 30
0.0
 11
1560.841557035577
 21
1197.745812828997
 31
0.0
  0
LINE
  5
251
330
2
100
AcDbEntity
  8
0
100
AcDbLine
 10
1550.841557035575
 20
1195.745812828997
 30
0.0
 11
1560.841557035575
 21
1197.745812828997
 31
0.0
  0
LINE
  5
252
330
2
100
AcDbEntity
  8
0
100
AcDbLine
 10
1512.891761368414
 20
1191.259155410187
 30
0.0
 11
1515.594008251591
 21
1190.245812828996
 31
0.0
  0
ARC
  5
253
330
2
100
AcDbEntity
  8
0
100
AcDbCircle
 10
1513.594008251591
 20
1193.131813765325
 30
0.0
 40
2.0
100
AcDbArc
 50
180.0
 51
249.4439547804104
  0
LINE
  5
254
330
2
100
AcDbEntity
  8
0
100
AcDbLine
 10
1550.841557035575
 20
1195.745812828997
 30
0.0
 11
1531.594008251591
 21
1195.745812828996
 31
0.0
  0
LINE
  5
255
330
2
100
AcDbEntity
  8
0
100
AcDbLine
 10
1506.594008251591
 20
1172.745812828996
 30
0.0
 11
1537.487591307791
 21
1172.745812828996
 31
0.0
  0
LINE
  5
256
330
2
100
AcDbEntity
  8
0
100
AcDbLine
 10
1511.594008251591
 20
1193.131813765325
 30
0.0
 11
1511.594008251591
 21
1252.359811892667
 31
0.0
  0
LINE
  5
257
330
2
100
AcDbEntity
  8
0
100
AcDbLine
 10
1656.49861552926
 20
1197.745812828998
 30
0.0
 11
1560.841557035575
 21
1197.745812828997
 31
0.0
  0
LINE
  5
258
330
2
100
AcDbEntity
  8
0
100
AcDbLine
 10
1530.594008251591
 20
1155.245812828996
 30
0.0
 11
1531.594008251591
 21
1156.245812828996
 31
0.0
  0
LINE
  5
259
330
2
100
AcDbEntity
  8
0
100
AcDbLine
 10
1515.594008251591
 20
1156.245812828996
 30
0.0
 11
1516.594008251591
 21
1155.245812828996
 31
0.0
  0
LINE
  5
25A
330
2
100
AcDbEntity
  8
0
100
AcDbLine
 10
1530.594008251591
 20
1155.245812828996
 30
0.0
 11
1516.594008251591
 21
1155.245812828996
 31
0.0
  0
LINE
  5
25B
330
2
100
AcDbEntity
  8
0
100
AcDbLine
 10
1531.594008251591
 20
1156.245812828996
 30
0.0
 11
1531.594008251591
 21
1222.745812828996
 31
0.0
  0
LINE
  5
25C
330
2
100
AcDbEntity
  8
0
100
AcDbLine
 10
1515.594008251591
 20
1156.245812828996
 30
0.0
 11
1515.594008251591
 21
1222.745812828996
 31
0.0
  0
LINE
  5
25D
330
2
100
AcDbEntity
  8
0
100
AcDbLine
 10
1816.594008251591
 20
1222.745812828996
 30
0.0
 11
1506.594008251591
 21
1222.745812828996
 31
0.0
  0
LINE
  5
25E
330
2
100
AcDbEntity
  8
0
100
AcDbLine
 10
1772.346459467607
 20
1195.745812828997
 30
0.0
 11
1791.594008251591
 21
1195.745812828996
 31
0.0
  0
LINE
  5
25F
330
2
100
AcDbEntity
  8
0
100
AcDbLine
 10
235.7968229382938
 20
1222.745812828996
 30
0.0
 11
235.7968229382938
 21
1272.745812828996
 31
0.0
  0
LINE
  5
260
330
2
100
AcDbEntity
  8
0
100
AcDbLine
 10
221.7968229382938
 20
1222.745812828996
 30
0.0
 11
221.7968229382938
 21
1272.745812828996
 31
0.0
  0
LINE
  5
261
330
2
100
AcDbEntity
  8
0
100
AcDbLine
 10
501.7968229382938
 20
1248.745812828996
 30
0.0
 11
507.7968229382938
 21
1248.745812828996
 31
0.0
  0
LINE
  5
262
330
2
100
AcDbEntity
  8
0
100
AcDbLine
 10
501.7968229382938
 20
1222.745812828996
 30
0.0
 11
501.7968229382938
 21
1272.745812828996
 31
0.0
  0
LINE
  5
263
330
2
100
AcDbEntity
  8
0
100
AcDbLine
 10
487.7968229382938
 20
1222.745812828996
 30
0.0
 11
487.7968229382938
 21
1272.745812828996
 31
0.0
  0
LINE
  5
264
330
2
100
AcDbEntity
  8
0
100
AcDbLine
 10
510.4990698214704
 20
1247.732470247805
 30
0.0
 11
507.7968229382938
 21
1248.745812828996
 31
0.0
  0
LINE
  5
265
330
2
100
AcDbEntity
  8
0
100
AcDbLine
 10
501.7968229382938
 20
1248.745812828996
 30
0.0
 11
507.7968229382938
 21
1248.745812828996
 31
0.0
  0
ARC
  5
266
330
2
100
AcDbEntity
  8
0
100
AcDbCircle
 10
509.7968229382938
 20
1245.859811892667
 30
0.0
 40
2.0
100
AcDbArc
 50
0.0
 51
69.44395478041349
  0
LINE
  5
267
330
2
100
AcDbEntity
  8
0
100
AcDbLine
 10
466.5492741543096
 20
1245.245812828995
 30
0.0
 11
456.5492741543081
 21
1241.745812828995
 31
0.0
  0
LINE
  5
268
330
2
100
AcDbEntity
  8
0
100
AcDbLine
 10
466.5492741543096
 20
1245.245812828995
 30
0.0
 11
487.7968229382938
 21
1245.245812828996
 31
0.0
  0
LINE
  5
269
330
2
100
AcDbEntity
  8
0
100
AcDbLine
 10
482.7968229382938
 20
1260.245812828996
 30
0.0
 11
506.7968229382938
 21
1260.245812828996
 31
0.0
  0
LINE
  5
26A
330
2
100
AcDbEntity
  8
0
100
AcDbLine
 10
487.7968229382938
 20
1272.745812828996
 30
0.0
 11
501.7968229382938
 21
1272.745812828996
 31
0.0
  0
LINE
  5
26B
330
2
100
AcDbEntity
  8
0
100
AcDbLine
 10
267.0443717223065
 20
1241.745812828989
 30
0.0
 11
456.5492741543081
 21
1241.745812828995
 31
0.0
  0
LINE
  5
26C
330
2
100
AcDbEntity
  8
0
100
AcDbLine
 10
257.0443717222779
 20
1245.745812828995
 30
0.0
 11
267.0443717222795
 21
1241.745812828995
 31
0.0
  0
LINE
  5
26D
330
2
100
AcDbEntity
  8
0
100
AcDbLine
 10
257.0443717222781
 20
1245.745812828995
 30
0.0
 11
235.7968229382939
 21
1245.745812828996
 31
0.0
  0
LINE
  5
26E
330
2
100
AcDbEntity
  8
0
100
AcDbLine
 10
213.0945760551171
 20
1247.732470247805
 30
0.0
 11
215.7968229382938
 21
1248.745812828996
 31
0.0
  0
LINE
  5
26F
330
2
100
AcDbEntity
  8
0
100
AcDbLine
 10
221.7968229382938
 20
1248.745812828996
 30
0.0
 11
215.7968229382938
 21
1248.745812828996
 31
0.0
  0
ARC
  5
270
330
2
100
AcDbEntity
  8
0
100
AcDbCircle
 10
213.7968229382938
 20
1245.859811892667
 30
0.0
 40
2.0
100
AcDbArc
 50
110.5560452195865
 51
180.0
  0
LINE
  5
271
330
2
100
AcDbEntity
  8
0
100
AcDbLine
 10
240.7968229382938
 20
1260.245812828996
 30
0.0
 11
216.7968229382939
 21
1260.245812828996
 31
0.0
  0
LINE
  5
272
330
2
100
AcDbEntity
  8
0
100
AcDbLine
 10
235.7968229382938
 20
1272.745812828996
 30
0.0
 11
221.7968229382938
 21
1272.745812828996
 31
0.0
  0
TEXT
  5
273
330
2
100
AcDbEntity
  8
0
100
AcDbText
 10
382.6134802427238
 20
1227.755118738338
 30
0.0
 40
1.399999999999999
  1
32
 41
0.9264705882353801
  7
SMP-SET
 72
     5
 11
384.713480242724
 21
1227.755118738338
 31
0.0
100
AcDbText
  0
TEXT
  5
274
330
2
100
AcDbEntity
  8
0
100
AcDbText
 10
382.6134802427238
 20
1229.505118738338
 30
0.0
 40
1.399999999999999
  1
25
 41
0.9264705882353801
  7
SMP-SET
 72
     5
 11
384.713480242724
 21
1229.505118738338
 31
0.0
100
AcDbText
  0
TEXT
  5
275
330
2
100
AcDbEntity
  8
0
100
AcDbText
 10
382.6134802427238
 20
1231.255118738338
 30
0.0
 40
1.399999999999999
  1
20
 41
0.9264705882353801
  7
SMP-SET
 72
     5
 11
384.713480242724
 21
1231.255118738338
 31
0.0
100
AcDbText
  0
TEXT
  5
276
330
2
100
AcDbEntity
  8
0
100
AcDbText
 10
382.6134802427238
 20
1224.255118738338
 30
0.0
 40
1.399999999999999
  1
50
 41
0.9264705882353801
  7
SMP-SET
 72
     5
 11
384.713480242724
 21
1224.255118738338
 31
0.0
100
AcDbText
  0
TEXT
  5
277
330
2
100
AcDbEntity
  8
0
100
AcDbText
 10
382.6134802427238
 20
1222.505118738338
 30
0.0
 40
1.399999999999999
  1
65
 41
0.9264705882353801
  7
SMP-SET
 72
     5
 11
384.713480242724
 21
1222.505118738338
 31
0.0
100
AcDbText
  0
TEXT
  5
278
330
2
100
AcDbEntity
  8
0
100
AcDbText
 10
382.6134802427238
 20
1226.005118738338
 30
0.0
 40
1.399999999999999
  1
40
 41
0.9264705882353801
  7
SMP-SET
 72
     5
 11
384.713480242724
 21
1226.005118738338
 31
0.0
100
AcDbText
  0
TEXT
  5
279
330
2
100
AcDbEntity
  8
0
100
AcDbText
 10
381.563480242724
 20
1219.005118738338
 30
0.0
 40
1.399999999999999
  1
100
 41
0.9450000000000112
  7
SMP-SET
 72
     5
 11
384.713480242724
 21
1219.005118738338
 31
0.0
100
AcDbText
  0
TEXT
  5
27A
330
2
100
AcDbEntity
  8
0
100
AcDbText
 10
381.563480242724
 20
1217.255118738338
 30
0.0
 40
1.399999999999999
  1
125
 41
0.9450000000000112
  7
SMP-SET
 72
     5
 11
384.713480242724
 21
1217.255118738338
 31
0.0
100
AcDbText
  0
TEXT
  5
27B
330
2
100
AcDbEntity
  8
0
100
AcDbText
 10
381.563480242724
 20
1213.755118738338
 30
0.0
 40
1.399999999999999
  1
200
 41
0.8750000000000099
  7
SMP-SET
 72
     5
 11
384.713480242724
 21
1213.755118738338
 31
0.0
100
AcDbText
  0
TEXT
  5
27C
330
2
100
AcDbEntity
  8
0
100
AcDbText
 10
381.563480242724
 20
1212.005118738338
 30
0.0
 40
1.399999999999999
  1
250
 41
0.8750000000000103
  7
SMP-SET
 72
     5
 11
384.713480242724
 21
1212.005118738338
 31
0.0
100
AcDbText
  0
TEXT
  5
27D
330
2
100
AcDbEntity
  8
0
100
AcDbText
 10
381.563480242724
 20
1210.255118738338
 30
0.0
 40
1.399999999999999
  1
300
 41
0.8750000000000101
  7
SMP-SET
 72
     5
 11
384.713480242724
 21
1210.255118738338
 31
0.0
100
AcDbText
  0
TEXT
  5
27E
330
2
100
AcDbEntity
  8
0
100
AcDbText
 10
381.563480242724
 20
1215.505118738338
 30
0.0
 40
1.399999999999999
  1
150
 41
0.9450000000000112
  7
SMP-SET
 72
     5
 11
384.713480242724
 21
1215.505118738338
 31
0.0
100
AcDbText
  0
LINE
  5
27F
330
2
100
AcDbEntity
  8
0
100
AcDbLine
 10
379.2968229382938
 20
1230.555118738338
 30
0.0
 11
379.2968229382938
 21
1212.355118738338
 31
0.0
  0
TEXT
  5
280
330
2
100
AcDbEntity
  8
0
100
AcDbText
 10
382.6134802427238
 20
1220.755118738338
 30
0.0
 40
1.399999999999999
  1
80
 41
0.9264705882353801
  7
SMP-SET
 72
     5
 11
384.713480242724
 21
1220.755118738338
 31
0.0
100
AcDbText
  0
TEXT
  5
281
330
2
100
AcDbEntity
  8
0
100
AcDbText
 10
362.9559195355537
 20
1231.94715490563
 30
0.0
 40
2.099999999999999
  1
5
  7
SMP-SET
100
AcDbText
  0
TEXT
  5
282
330
2
100
AcDbEntity
  8
0
100
AcDbText
 10
359.4559195355537
 20
1231.94715490563
 30
0.0
 40
2.099999999999999
  1
4
  7
SMP-SET
100
AcDbText
  0
TEXT
  5
283
330
2
100
AcDbEntity
  8
0
100
AcDbText
 10
376.9559195355538
 20
1231.94715490563
 30
0.0
 40
2.099999999999999
  1
9
  7
SMP-SET
100
AcDbText
  0
TEXT
  5
284
330
2
100
AcDbEntity
  8
0
100
AcDbText
 10
369.9559195355537
 20
1231.94715490563
 30
0.0
 40
2.099999999999999
  1
7
  7
SMP-SET
100
AcDbText
  0
TEXT
  5
285
330
2
100
AcDbEntity
  8
0
100
AcDbText
 10
366.4559195355538
 20
1231.94715490563
 30
0.0
 40
2.099999999999999
  1
6
  7
SMP-SET
100
AcDbText
  0
TEXT
  5
286
330
2
100
AcDbEntity
  8
0
100
AcDbText
 10
373.4559195355537
 20
1231.94715490563
 30
0.0
 40
2.099999999999999
  1
8
  7
SMP-SET
100
AcDbText
  0
LINE
  5
287
330
2
100
AcDbEntity
  8
0
100
AcDbLine
 10
344.2968229382938
 20
1212.355118738338
 30
0.0
 11
344.2968229382938
 21
1230.555118738338
 31
0.0
  0
TEXT
  5
288
330
2
100
AcDbEntity
  8
0
100
AcDbText
 10
338.6968229382938
 20
1224.955118738338
 30
0.0
 40
3.5
  1
MF
 41
0.6810810810810791
  7
SMP-SET
 72
     5
 11
342.8968229382938
 21
1224.955118738338
 31
0.0
100
AcDbText
  0
TEXT
  5
289
330
2
100
AcDbEntity
  8
0
100
AcDbText
 10
338.6968229382938
 20
1214.455118738338
 30
0.0
 40
3.5
  1
KW
 41
0.6146341463414619
  7
SMP-SET
 72
     5
 11
342.8968229382938
 21
1214.455118738338
 31
0.0
100
AcDbText
  0
TEXT
  5
28A
330
2
100
AcDbEntity
  8
0
100
AcDbText
 10
348.9559195355537
 20
1231.94715490563
 30
0.0
 40
2.099999999999999
  1
1
  7
SMP-SET
100
AcDbText
  0
TEXT
  5
28B
330
2
100
AcDbEntity
  8
0
100
AcDbText
 10
345.4559195355538
 20
1231.94715490563
 30
0.0
 40
2.099999999999999
  1
0
  7
SMP-SET
100
AcDbText
  0
TEXT
  5
28C
330
2
100
AcDbEntity
  8
0
100
AcDbText
 10
352.4559195355537
 20
1231.94715490563
 30
0.0
 40
2.099999999999999
  1
2
  7
SMP-SET
100
AcDbText
  0
TEXT
  5
28D
330
2
100
AcDbEntity
  8
0
 48
3.0
100
AcDbText
 10
346.3968229382938
 20
1222.155118738338
 30
0.0
 40
5.599999999999998
  1
KURAFLEX
 41
0.7500000000000006
  7
SMP-SET
 72
     5
 11
377.1968229382939
 21
1222.155118738338
 31
0.0
100
AcDbText
  0
TEXT
  5
28E
330
2
100
AcDbEntity
  8
0
 48
3.0
100
AcDbText
 10
346.4668229382938
 20
1222.155118738338
 30
0.0
 40
5.599999999999998
  1
KURAFLEX
 41
0.7500000000000006
  7
SMP-SET
 72
     5
 11
377.2668229382938
 21
1222.155118738338
 31
0.0
100
AcDbText
  0
TEXT
  5
28F
330
2
100
AcDbEntity
  8
0
 48
3.0
100
AcDbText
 10
346.3268229382939
 20
1222.155118738338
 30
0.0
 40
5.599999999999998
  1
KURAFLEX
 41
0.7500000000000006
  7
SMP-SET
 72
     5
 11
377.1268229382938
 21
1222.155118738338
 31
0.0
100
AcDbText
  0
TEXT
  5
290
330
2
100
AcDbEntity
  8
0
 48
3.0
100
AcDbText
 10
346.3968229382938
 20
1222.225118738338
 30
0.0
 40
5.599999999999998
  1
KURAFLEX
 41
0.7500000000000006
  7
SMP-SET
 72
     5
 11
377.1968229382939
 21
1222.225118738338
 31
0.0
100
AcDbText
  0
TEXT
  5
291
330
2
100
AcDbEntity
  8
0
 48
3.0
100
AcDbText
 10
346.3968229382938
 20
1222.085118738338
 30
0.0
 40
5.599999999999998
  1
KURAFLEX
 41
0.7500000000000006
  7
SMP-SET
 72
     5
 11
377.1968229382939
 21
1222.085118738338
 31
0.0
100
AcDbText
  0
TEXT
  5
292
330
2
100
AcDbEntity
  8
0
 48
3.0
100
AcDbText
 10
346.3968229382938
 20
1222.295118738338
 30
0.0
 40
5.599999999999998
  1
KURAFLEX
 41
0.7500000000000006
  7
SMP-SET
 72
     5
 11
377.1968229382939
 21
1222.295118738338
 31
0.0
100
AcDbText
  0
TEXT
  5
293
330
2
100
AcDbEntity
  8
0
 48
3.0
100
AcDbText
 10
346.3968229382938
 20
1222.015118738338
 30
0.0
 40
5.599999999999998
  1
KURAFLEX
 41
0.7500000000000006
  7
SMP-SET
 72
     5
 11
377.1968229382939
 21
1222.015118738338
 31
0.0
100
AcDbText
  0
TEXT
  5
294
330
2
100
AcDbEntity
  8
0
 48
3.0
100
AcDbText
 10
346.5368229382938
 20
1222.155118738338
 30
0.0
 40
5.599999999999998
  1
KURAFLEX
 41
0.7500000000000006
  7
SMP-SET
 72
     5
 11
377.3368229382938
 21
1222.155118738338
 31
0.0
100
AcDbText
  0
TEXT
  5
295
330
2
100
AcDbEntity
  8
0
 48
3.0
100
AcDbText
 10
346.2568229382938
 20
1222.155118738338
 30
0.0
 40
5.599999999999998
  1
KURAFLEX
 41
0.7500000000000006
  7
SMP-SET
 72
     5
 11
377.0568229382939
 21
1222.155118738338
 31
0.0
100
AcDbText
  0
TEXT
  5
296
330
2
100
AcDbEntity
  8
0
 48
3.0
100
AcDbText
 10
346.3968229382938
 20
1222.365118738338
 30
0.0
 40
5.599999999999998
  1
KURAFLEX
 41
0.7500000000000006
  7
SMP-SET
 72
     5
 11
377.1968229382939
 21
1222.365118738338
 31
0.0
100
AcDbText
  0
TEXT
  5
297
330
2
100
AcDbEntity
  8
0
 48
3.0
100
AcDbText
 10
346.3968229382938
 20
1221.945118738338
 30
0.0
 40
5.599999999999998
  1
KURAFLEX
 41
0.7500000000000006
  7
SMP-SET
 72
     5
 11
377.1968229382939
 21
1221.945118738338
 31
0.0
100
AcDbText
  0
TEXT
  5
298
330
2
100
AcDbEntity
  8
0
 48
3.0
100
AcDbText
 10
346.6068229382938
 20
1222.155118738338
 30
0.0
 40
5.599999999999998
  1
KURAFLEX
 41
0.7500000000000005
  7
SMP-SET
 72
     5
 11
377.4068229382938
 21
1222.155118738338
 31
0.0
100
AcDbText
  0
TEXT
  5
299
330
2
100
AcDbEntity
  8
0
 48
3.0
100
AcDbText
 10
346.1868229382939
 20
1222.155118738338
 30
0.0
 40
5.599999999999998
  1
KURAFLEX
 41
0.7499999999999992
  7
SMP-SET
 72
     5
 11
376.9868229382938
 21
1222.155118738338
 31
0.0
100
AcDbText
  0
TEXT
  5
29A
330
2
100
AcDbEntity
  8
0
 48
3.0
100
AcDbText
 10
346.3968229382938
 20
1222.435118738338
 30
0.0
 40
5.599999999999998
  1
KURAFLEX
 41
0.7500000000000006
  7
SMP-SET
 72
     5
 11
377.1968229382939
 21
1222.435118738338
 31
0.0
100
AcDbText
  0
TEXT
  5
29B
330
2
100
AcDbEntity
  8
0
 48
3.0
100
AcDbText
 10
346.3968229382938
 20
1221.875118738338
 30
0.0
 40
5.599999999999998
  1
KURAFLEX
 41
0.7500000000000006
  7
SMP-SET
 72
     5
 11
377.1968229382939
 21
1221.875118738338
 31
0.0
100
AcDbText
  0
TEXT
  5
29C
330
2
100
AcDbEntity
  8
0
 48
3.0
100
AcDbText
 10
346.6768229382938
 20
1222.155118738338
 30
0.0
 40
5.599999999999998
  1
KURAFLEX
 41
0.7500000000000005
  7
SMP-SET
 72
     5
 11
377.4768229382938
 21
1222.155118738338
 31
0.0
100
AcDbText
  0
TEXT
  5
29D
330
2
100
AcDbEntity
  8
0
 48
3.0
100
AcDbText
 10
346.1168229382939
 20
1222.155118738338
 30
0.0
 40
5.599999999999998
  1
KURAFLEX
 41
0.7499999999999992
  7
SMP-SET
 72
     5
 11
376.9168229382938
 21
1222.155118738338
 31
0.0
100
AcDbText
  0
LINE
  5
29E
330
2
100
AcDbEntity
  8
0
100
AcDbLine
 10
379.2968229382938
 20
1212.355118738338
 30
0.0
 11
344.2968229382938
 21
1212.355118738338
 31
0.0
  0
TEXT
  5
29F
330
2
100
AcDbEntity
  8
0
100
AcDbText
 10
352.6968229382938
 20
1215.505118738338
 30
0.0
 40
3.5
  1
KURASHIKI KAKO CO.,LTD.
 41
0.3700906344410875
  7
SMP-SET
 72
     5
 11
377.1968229382939
 21
1215.505118738338
 31
0.0
100
AcDbText
  0
LINE
  5
2A0
330
2
100
AcDbEntity
  8
0
100
AcDbLine
 10
337.2968229382938
 20
1235.455118738338
 30
0.0
 11
386.2968229382938
 21
1235.455118738338
 31
0.0
  0
LINE
  5
2A1
330
2
100
AcDbEntity
  8
0
100
AcDbLine
 10
344.2968229382938
 20
1230.555118738338
 30
0.0
 11
379.2968229382938
 21
1230.555118738338
 31
0.0
  0
TEXT
  5
2A2
330
2
100
AcDbEntity
  8
0
100
AcDbText
 10
355.9559195355538
 20
1231.94715490563
 30
0.0
 40
2.099999999999999
  1
3
  7
SMP-SET
100
AcDbText
  0
LINE
  5
2A3
330
2
100
AcDbEntity
  8
0
100
AcDbLine
 10
386.2968229382938
 20
1207.455118738338
 30
0.0
 11
337.2968229382938
 21
1207.455118738338
 31
0.0
  0
LINE
  5
2A4
330
2
100
AcDbEntity
  8
0
100
AcDbLine
 10
386.2968229382938
 20
1235.455118738338
 30
0.0
 11
386.2968229382938
 21
1207.455118738338
 31
0.0
  0
LINE
  5
2A5
330
2
100
AcDbEntity
  8
0
100
AcDbLine
 10
337.2968229382938
 20
1207.455118738338
 30
0.0
 11
337.2968229382938
 21
1235.455118738338
 31
0.0
  0
TEXT
  5
2A6
330
2
100
AcDbEntity
  8
0
100
AcDbText
 10
362.6287242138398
 20
1209.1693824166
 30
0.0
 40
1.75
  1
G
  7
SMP-SET
100
AcDbText
  0
TEXT
  5
2A7
330
2
100
AcDbEntity
  8
0
100
AcDbText
 10
348.6287242138398
 20
1209.1693824166
 30
0.0
 40
1.75
  1
B
  7
SMP-SET
100
AcDbText
  0
TEXT
  5
2A8
330
2
100
AcDbEntity
  8
0
100
AcDbText
 10
345.8287242138398
 20
1209.1693824166
 30
0.0
 40
1.75
  1
A
  7
SMP-SET
100
AcDbText
  0
TEXT
  5
2A9
330
2
100
AcDbEntity
  8
0
100
AcDbText
 10
357.0287242138398
 20
1209.1693824166
 30
0.0
 40
1.75
  1
E
  7
SMP-SET
100
AcDbText
  0
TEXT
  5
2AA
330
2
100
AcDbEntity
  8
0
100
AcDbText
 10
359.8287242138397
 20
1209.1693824166
 30
0.0
 40
1.75
  1
F
  7
SMP-SET
100
AcDbText
  0
TEXT
  5
2AB
330
2
100
AcDbEntity
  8
0
100
AcDbText
 10
354.2287242138398
 20
1209.1693824166
 30
0.0
 40
1.75
  1
D
  7
SMP-SET
100
AcDbText
  0
TEXT
  5
2AC
330
2
100
AcDbEntity
  8
0
100
AcDbText
 10
351.4287242138398
 20
1209.1693824166
 30
0.0
 40
1.75
  1
C
  7
SMP-SET
100
AcDbText
  0
TEXT
  5
2AD
330
2
100
AcDbEntity
  8
0
100
AcDbText
 10
376.6287242138397
 20
1209.1693824166
 30
0.0
 40
1.75
  1
L
  7
SMP-SET
100
AcDbText
  0
TEXT
  5
2AE
330
2
100
AcDbEntity
  8
0
100
AcDbText
 10
371.0287242138398
 20
1209.1693824166
 30
0.0
 40
1.75
  1
J
  7
SMP-SET
100
AcDbText
  0
TEXT
  5
2AF
330
2
100
AcDbEntity
  8
0
100
AcDbText
 10
373.8287242138397
 20
1209.1693824166
 30
0.0
 40
1.75
  1
K
  7
SMP-SET
100
AcDbText
  0
TEXT
  5
2B0
330
2
100
AcDbEntity
  8
0
100
AcDbText
 10
368.2287242138398
 20
1209.1693824166
 30
0.0
 40
1.75
  1
I
  7
SMP-SET
100
AcDbText
  0
TEXT
  5
2B1
330
2
100
AcDbEntity
  8
0
100
AcDbText
 10
365.4287242138398
 20
1209.1693824166
 30
0.0
 40
1.75
  1
H
  7
SMP-SET
100
AcDbText
  0
ARC
  5
2B2
330
2
100
AcDbEntity
  8
0
100
AcDbCircle
 10
509.7968229382938
 20
1199.631813765326
 30
0.0
 40
2.0
100
AcDbArc
 50
290.5560452195865
 51
0.0
  0
LINE
  5
2B3
330
2
100
AcDbEntity
  8
0
100
AcDbLine
 10
466.5492741543096
 20
1200.245812828998
 30
0.0
 11
487.7968229382938
 21
1200.245812828997
 31
0.0
  0
LINE
  5
2B4
330
2
100
AcDbEntity
  8
0
100
AcDbLine
 10
501.7968229382938
 20
1196.745812828996
 30
0.0
 11
507.7968229382938
 21
1196.745812828996
 31
0.0
  0
LINE
  5
2B5
330
2
100
AcDbEntity
  8
0
100
AcDbLine
 10
487.7968229382938
 20
1172.745812828996
 30
0.0
 11
501.7968229382938
 21
1172.745812828996
 31
0.0
  0
LINE
  5
2B6
330
2
100
AcDbEntity
  8
0
100
AcDbLine
 10
482.7968229382938
 20
1185.245812828996
 30
0.0
 11
506.7968229382938
 21
1185.245812828996
 31
0.0
  0
LINE
  5
2B7
330
2
100
AcDbEntity
  8
0
100
AcDbLine
 10
501.7968229382938
 20
1222.745812828996
 30
0.0
 11
501.7968229382938
 21
1172.745812828996
 31
0.0
  0
LINE
  5
2B8
330
2
100
AcDbEntity
  8
0
100
AcDbLine
 10
487.7968229382938
 20
1222.745812828996
 30
0.0
 11
487.7968229382938
 21
1172.745812828996
 31
0.0
  0
LINE
  5
2B9
330
2
100
AcDbEntity
  8
0
100
AcDbLine
 10
510.4990698214704
 20
1197.759155410188
 30
0.0
 11
507.7968229382938
 21
1196.745812828996
 31
0.0
  0
LINE
  5
2BA
330
2
100
AcDbEntity
  8
0
100
AcDbLine
 10
466.5492741543096
 20
1200.245812828998
 30
0.0
 11
456.5492741543081
 21
1203.745812828998
 31
0.0
  0
LINE
  5
2BB
330
2
100
AcDbEntity
  8
0
100
AcDbLine
 10
511.7968229382937
 20
1245.859811892667
 30
0.0
 11
511.7968229382937
 21
1199.631813765326
 31
0.0
  0
LINE
  5
2BC
330
2
100
AcDbEntity
  8
0
100
AcDbLine
 10
257.0443717222779
 20
1199.745812828997
 30
0.0
 11
267.0443717222795
 21
1203.745812828998
 31
0.0
  0
ARC
  5
2BD
330
2
100
AcDbEntity
  8
0
100
AcDbCircle
 10
213.7968229382938
 20
1199.631813765326
 30
0.0
 40
2.0
100
AcDbArc
 50
180.0
 51
249.4439547804134
  0
LINE
  5
2BE
330
2
100
AcDbEntity
  8
0
100
AcDbLine
 10
257.0443717222781
 20
1199.745812828997
 30
0.0
 11
235.7968229382939
 21
1199.745812828997
 31
0.0
  0
LINE
  5
2BF
330
2
100
AcDbEntity
  8
0
100
AcDbLine
 10
221.7968229382938
 20
1196.745812828996
 30
0.0
 11
215.7968229382938
 21
1196.745812828996
 31
0.0
  0
LINE
  5
2C0
330
2
100
AcDbEntity
  8
0
100
AcDbLine
 10
235.7968229382938
 20
1172.745812828996
 30
0.0
 11
221.7968229382938
 21
1172.745812828996
 31
0.0
  0
LINE
  5
2C1
330
2
100
AcDbEntity
  8
0
100
AcDbLine
 10
240.7968229382938
 20
1185.245812828996
 30
0.0
 11
216.7968229382939
 21
1185.245812828996
 31
0.0
  0
LINE
  5
2C2
330
2
100
AcDbEntity
  8
0
100
AcDbLine
 10
221.7968229382938
 20
1222.745812828996
 30
0.0
 11
221.7968229382938
 21
1172.745812828996
 31
0.0
  0
LINE
  5
2C3
330
2
100
AcDbEntity
  8
0
100
AcDbLine
 10
235.7968229382938
 20
1222.745812828996
 30
0.0
 11
235.7968229382938
 21
1172.745812828996
 31
0.0
  0
LINE
  5
2C4
330
2
100
AcDbEntity
  8
0
100
AcDbLine
 10
213.0945760551171
 20
1197.759155410188
 30
0.0
 11
215.7968229382938
 21
1196.745812828996
 31
0.0
  0
LINE
  5
2C5
330
2
100
AcDbEntity
  8
0
100
AcDbLine
 10
211.7968229382938
 20
1245.859811892667
 30
0.0
 11
211.7968229382938
 21
1199.631813765326
 31
0.0
  0
LINE
  5
2C6
330
2
100
AcDbEntity
  8
0
100
AcDbLine
 10
201.7968229382938
 20
1222.745812828996
 30
0.0
 11
521.7968229382939
 21
1222.745812828996
 31
0.0
  0
LINE
  5
2C7
330
2
100
AcDbEntity
  8
0
100
AcDbLine
 10
267.0443717223065
 20
1203.745812829003
 30
0.0
 11
456.5492741543081
 21
1203.745812828998
 31
0.0
  0
LINE
  5
2C8
330
2
100
AcDbEntity
  8
0
100
AcDbLine
 10
1154.452725204659
 20
1193.131813765326
 30
0.0
 11
1154.452725204659
 21
1252.359811892667
 31
0.0
  0
LINE
  5
2C9
330
2
100
AcDbEntity
  8
0
100
AcDbLine
 10
1137.452725204669
 20
1285.245812828996
 30
0.0
 11
1149.452725204669
 21
1285.245812828996
 31
0.0
  0
LINE
  5
2CA
330
2
100
AcDbEntity
  8
0
100
AcDbLine
 10
1137.452725204669
 20
1285.245812828996
 30
0.0
 11
1136.452725204669
 21
1284.245812828996
 31
0.0
  0
LINE
  5
2CB
330
2
100
AcDbEntity
  8
0
100
AcDbLine
 10
1150.452725204669
 20
1284.245812828996
 30
0.0
 11
1149.452725204669
 21
1285.245812828996
 31
0.0
  0
LINE
  5
2CC
330
2
100
AcDbEntity
  8
0
100
AcDbLine
 10
1159.452725204669
 20
1267.745812828996
 30
0.0
 11
1128.559142148469
 21
1267.745812828996
 31
0.0
  0
LINE
  5
2CD
330
2
100
AcDbEntity
  8
0
100
AcDbLine
 10
1150.452725204669
 20
1284.245812828996
 30
0.0
 11
1150.452725204669
 21
1222.745812828996
 31
0.0
  0
LINE
  5
2CE
330
2
100
AcDbEntity
  8
0
100
AcDbLine
 10
1136.452725204669
 20
1284.245812828996
 30
0.0
 11
1136.452725204669
 21
1222.745812828996
 31
0.0
  0
LINE
  5
2CF
330
2
100
AcDbEntity
  8
0
100
AcDbLine
 10
871.4527252046696
 20
1285.245812828996
 30
0.0
 11
872.4527252046696
 21
1284.245812828996
 31
0.0
  0
LINE
  5
2D0
330
2
100
AcDbEntity
  8
0
100
AcDbLine
 10
858.4527252046695
 20
1284.245812828996
 30
0.0
 11
859.4527252046695
 21
1285.245812828996
 31
0.0
  0
LINE
  5
2D1
330
2
100
AcDbEntity
  8
0
100
AcDbLine
 10
871.4527252046696
 20
1285.245812828996
 30
0.0
 11
859.4527252046695
 21
1285.245812828996
 31
0.0
  0
LINE
  5
2D2
330
2
100
AcDbEntity
  8
0
100
AcDbLine
 10
880.8030866237666
 20
1267.745812828996
 30
0.0
 11
849.909503567566
 21
1267.745812828996
 31
0.0
  0
LINE
  5
2D3
330
2
100
AcDbEntity
  8
0
100
AcDbLine
 10
858.4527252046695
 20
1284.245812828996
 30
0.0
 11
858.4527252046695
 21
1222.745812828996
 31
0.0
  0
LINE
  5
2D4
330
2
100
AcDbEntity
  8
0
100
AcDbLine
 10
872.4527252046696
 20
1284.245812828996
 30
0.0
 11
872.4527252046696
 21
1222.745812828996
 31
0.0
  0
ARC
  5
2D5
330
2
100
AcDbEntity
  8
0
100
AcDbCircle
 10
1152.452725204669
 20
1252.359811892667
 30
0.0
 40
2.0
100
AcDbArc
 50
0.0
 51
69.44395478041349
  0
LINE
  5
2D6
330
2
100
AcDbEntity
  8
0
100
AcDbLine
 10
1153.154972087846
 20
1254.232470247805
 30
0.0
 11
1150.452725204669
 21
1255.245812828996
 31
0.0
  0
LINE
  5
2D7
330
2
100
AcDbEntity
  8
0
100
AcDbLine
 10
1115.205176420685
 20
1249.745812828995
 30
0.0
 11
1105.205176420684
 21
1247.745812828995
 31
0.0
  0
LINE
  5
2D8
330
2
100
AcDbEntity
  8
0
100
AcDbLine
 10
1115.205176420685
 20
1249.745812828995
 30
0.0
 11
1136.452725204669
 21
1249.745812828996
 31
0.0
  0
LINE
  5
2D9
330
2
100
AcDbEntity
  8
0
100
AcDbLine
 10
1105.205176420654
 20
1247.745812828989
 30
0.0
 11
976.327228315389
 21
1247.745812828994
 31
0.0
  0
LINE
  5
2DA
330
2
100
AcDbEntity
  8
0
100
AcDbLine
 10
893.7002739886535
 20
1249.745812828995
 30
0.0
 11
903.7002739886553
 21
1247.745812828995
 31
0.0
  0
LINE
  5
2DB
330
2
100
AcDbEntity
  8
0
100
AcDbLine
 10
893.7002739886535
 20
1249.745812828995
 30
0.0
 11
872.4527252046694
 21
1249.745812828996
 31
0.0
  0
ARC
  5
2DC
330
2
100
AcDbEntity
  8
0
100
AcDbCircle
 10
856.4527252046696
 20
1252.359811892667
 30
0.0
 40
2.0
100
AcDbArc
 50
110.5560452195865
 51
180.0
  0
LINE
  5
2DD
330
2
100
AcDbEntity
  8
0
100
AcDbLine
 10
855.7504783214929
 20
1254.232470247805
 30
0.0
 11
858.4527252046695
 21
1255.245812828996
 31
0.0
  0
LINE
  5
2DE
330
2
100
AcDbEntity
  8
0
100
AcDbLine
 10
1105.205176420674
 20
1247.745812828993
 30
0.0
 11
903.7002739886553
 21
1247.745812828995
 31
0.0
  0
ARC
  5
2DF
330
2
100
AcDbEntity
  8
0
100
AcDbCircle
 10
1152.452725204669
 20
1193.131813765326
 30
0.0
 40
2.0
100
AcDbArc
 50
290.5560452195865
 51
0.0
  0
LINE
  5
2E0
330
2
100
AcDbEntity
  8
0
100
AcDbLine
 10
1153.154972087846
 20
1191.259155410188
 30
0.0
 11
1150.452725204669
 21
1190.245812828996
 31
0.0
  0
LINE
  5
2E1
330
2
100
AcDbEntity
  8
0
100
AcDbLine
 10
1159.452725204669
 20
1177.745812828996
 30
0.0
 11
1128.559142148469
 21
1177.745812828996
 31
0.0
  0
LINE
  5
2E2
330
2
100
AcDbEntity
  8
0
100
AcDbLine
 10
1150.452725204669
 20
1161.245812828996
 30
0.0
 11
1149.452725204669
 21
1160.245812828996
 31
0.0
  0
LINE
  5
2E3
330
2
100
AcDbEntity
  8
0
100
AcDbLine
 10
1137.452725204669
 20
1160.245812828996
 30
0.0
 11
1136.452725204669
 21
1161.245812828996
 31
0.0
  0
LINE
  5
2E4
330
2
100
AcDbEntity
  8
0
100
AcDbLine
 10
1137.452725204669
 20
1160.245812828996
 30
0.0
 11
1149.452725204669
 21
1160.245812828996
 31
0.0
  0
LINE
  5
2E5
330
2
100
AcDbEntity
  8
0
100
AcDbLine
 10
1150.452725204669
 20
1161.245812828996
 30
0.0
 11
1150.452725204669
 21
1222.745812828996
 31
0.0
  0
LINE
  5
2E6
330
2
100
AcDbEntity
  8
0
100
AcDbLine
 10
1136.452725204669
 20
1161.245812828996
 30
0.0
 11
1136.452725204669
 21
1222.745812828996
 31
0.0
  0
LINE
  5
2E7
330
2
100
AcDbEntity
  8
0
100
AcDbLine
 10
1115.205176420685
 20
1195.745812828998
 30
0.0
 11
1105.205176420684
 21
1197.745812828998
 31
0.0
  0
TEXT
  5
2E8
330
2
100
AcDbEntity
  8
0
100
AcDbText
 10
1025.269535710211
 20
1228.548764543459
 30
0.0
 40
1.399999999999999
  1
32
 41
0.9264705882352547
  7
SMP-SET
 72
     5
 11
1027.369535710211
 21
1228.548764543459
 31
0.0
100
AcDbText
  0
TEXT
  5
2E9
330
2
100
AcDbEntity
  8
0
100
AcDbText
 10
1025.269535710211
 20
1230.298764543459
 30
0.0
 40
1.399999999999999
  1
25
 41
0.9264705882352547
  7
SMP-SET
 72
     5
 11
1027.369535710211
 21
1230.298764543459
 31
0.0
100
AcDbText
  0
TEXT
  5
2EA
330
2
100
AcDbEntity
  8
0
100
AcDbText
 10
1025.269535710211
 20
1232.048764543459
 30
0.0
 40
1.399999999999999
  1
20
 41
0.9264705882352547
  7
SMP-SET
 72
     5
 11
1027.369535710211
 21
1232.048764543459
 31
0.0
100
AcDbText
  0
TEXT
  5
2EB
330
2
100
AcDbEntity
  8
0
100
AcDbText
 10
1025.269535710211
 20
1225.048764543459
 30
0.0
 40
1.399999999999999
  1
50
 41
0.9264705882352547
  7
SMP-SET
 72
     5
 11
1027.369535710211
 21
1225.048764543459
 31
0.0
100
AcDbText
  0
TEXT
  5
2EC
330
2
100
AcDbEntity
  8
0
100
AcDbText
 10
1025.269535710211
 20
1223.298764543459
 30
0.0
 40
1.399999999999999
  1
65
 41
0.9264705882352547
  7
SMP-SET
 72
     5
 11
1027.369535710211
 21
1223.298764543459
 31
0.0
100
AcDbText
  0
TEXT
  5
2ED
330
2
100
AcDbEntity
  8
0
100
AcDbText
 10
1025.269535710211
 20
1226.798764543459
 30
0.0
 40
1.399999999999999
  1
40
 41
0.9264705882352547
  7
SMP-SET
 72
     5
 11
1027.369535710211
 21
1226.798764543459
 31
0.0
100
AcDbText
  0
TEXT
  5
2EE
330
2
100
AcDbEntity
  8
0
100
AcDbText
 10
1024.219535710211
 20
1219.798764543459
 30
0.0
 40
1.399999999999999
  1
100
 41
0.9450000000000279
  7
SMP-SET
 72
     5
 11
1027.369535710211
 21
1219.798764543459
 31
0.0
100
AcDbText
  0
TEXT
  5
2EF
330
2
100
AcDbEntity
  8
0
100
AcDbText
 10
1024.219535710211
 20
1218.048764543459
 30
0.0
 40
1.399999999999999
  1
125
 41
0.9450000000000279
  7
SMP-SET
 72
     5
 11
1027.369535710211
 21
1218.048764543459
 31
0.0
100
AcDbText
  0
TEXT
  5
2F0
330
2
100
AcDbEntity
  8
0
100
AcDbText
 10
1024.219535710211
 20
1214.54876454346
 30
0.0
 40
1.399999999999999
  1
200
 41
0.8750000000000259
  7
SMP-SET
 72
     5
 11
1027.369535710211
 21
1214.54876454346
 31
0.0
100
AcDbText
  0
TEXT
  5
2F1
330
2
100
AcDbEntity
  8
0
100
AcDbText
 10
1024.219535710211
 20
1212.798764543459
 30
0.0
 40
1.399999999999999
  1
250
 41
0.8750000000000259
  7
SMP-SET
 72
     5
 11
1027.369535710211
 21
1212.798764543459
 31
0.0
100
AcDbText
  0
TEXT
  5
2F2
330
2
100
AcDbEntity
  8
0
100
AcDbText
 10
1024.219535710211
 20
1211.048764543459
 30
0.0
 40
1.399999999999999
  1
300
 41
0.8750000000000259
  7
SMP-SET
 72
     5
 11
1027.369535710211
 21
1211.048764543459
 31
0.0
100
AcDbText
  0
TEXT
  5
2F3
330
2
100
AcDbEntity
  8
0
100
AcDbText
 10
1024.219535710211
 20
1216.298764543459
 30
0.0
 40
1.399999999999999
  1
150
 41
0.9450000000000279
  7
SMP-SET
 72
     5
 11
1027.369535710211
 21
1216.298764543459
 31
0.0
100
AcDbText
  0
LINE
  5
2F4
330
2
100
AcDbEntity
  8
0
100
AcDbLine
 10
1021.952878405781
 20
1231.348764543459
 30
0.0
 11
1021.952878405781
 21
1213.148764543459
 31
0.0
  0
TEXT
  5
2F5
330
2
100
AcDbEntity
  8
0
100
AcDbText
 10
1025.269535710211
 20
1221.548764543459
 30
0.0
 40
1.399999999999999
  1
80
 41
0.9264705882352547
  7
SMP-SET
 72
     5
 11
1027.369535710211
 21
1221.548764543459
 31
0.0
100
AcDbText
  0
TEXT
  5
2F6
330
2
100
AcDbEntity
  8
0
100
AcDbText
 10
1005.611975003041
 20
1232.740800710751
 30
0.0
 40
2.099999999999999
  1
5
  7
SMP-SET
100
AcDbText
  0
TEXT
  5
2F7
330
2
100
AcDbEntity
  8
0
100
AcDbText
 10
1002.111975003041
 20
1232.740800710751
 30
0.0
 40
2.099999999999999
  1
4
  7
SMP-SET
100
AcDbText
  0
TEXT
  5
2F8
330
2
100
AcDbEntity
  8
0
100
AcDbText
 10
1019.611975003041
 20
1232.740800710751
 30
0.0
 40
2.099999999999999
  1
9
  7
SMP-SET
100
AcDbText
  0
TEXT
  5
2F9
330
2
100
AcDbEntity
  8
0
100
AcDbText
 10
1012.611975003041
 20
1232.740800710751
 30
0.0
 40
2.099999999999999
  1
7
  7
SMP-SET
100
AcDbText
  0
TEXT
  5
2FA
330
2
100
AcDbEntity
  8
0
100
AcDbText
 10
1009.111975003041
 20
1232.740800710751
 30
0.0
 40
2.099999999999999
  1
6
  7
SMP-SET
100
AcDbText
  0
TEXT
  5
2FB
330
2
100
AcDbEntity
  8
0
100
AcDbText
 10
1016.111975003041
 20
1232.740800710751
 30
0.0
 40
2.099999999999999
  1
8
  7
SMP-SET
100
AcDbText
  0
LINE
  5
2FC
330
2
100
AcDbEntity
  8
0
100
AcDbLine
 10
986.9528784057813
 20
1213.148764543459
 30
0.0
 11
986.9528784057813
 21
1231.348764543459
 31
0.0
  0
TEXT
  5
2FD
330
2
100
AcDbEntity
  8
0
100
AcDbText
 10
981.3528784057814
 20
1225.748764543459
 30
0.0
 40
3.5
  1
MF
 41
0.6810810810811069
  7
SMP-SET
 72
     5
 11
985.5528784057815
 21
1225.748764543459
 31
0.0
100
AcDbText
  0
TEXT
  5
2FE
330
2
100
AcDbEntity
  8
0
100
AcDbText
 10
981.3528784057814
 20
1215.248764543459
 30
0.0
 40
3.5
  1
KW
 41
0.6146341463414867
  7
SMP-SET
 72
     5
 11
985.5528784057815
 21
1215.248764543459
 31
0.0
100
AcDbText
  0
TEXT
  5
2FF
330
2
100
AcDbEntity
  8
0
100
AcDbText
 10
991.6119750030414
 20
1232.740800710751
 30
0.0
 40
2.099999999999999
  1
1
  7
SMP-SET
100
AcDbText
  0
TEXT
  5
300
330
2
100
AcDbEntity
  8
0
100
AcDbText
 10
988.1119750030414
 20
1232.740800710751
 30
0.0
 40
2.099999999999999
  1
0
  7
SMP-SET
100
AcDbText
  0
TEXT
  5
301
330
2
100
AcDbEntity
  8
0
100
AcDbText
 10
995.1119750030413
 20
1232.740800710751
 30
0.0
 40
2.099999999999999
  1
2
  7
SMP-SET
100
AcDbText
  0
TEXT
  5
302
330
2
100
AcDbEntity
  8
0
 48
3.0
100
AcDbText
 10
989.0528784057815
 20
1222.948764543459
 30
0.0
 40
5.599999999999998
  1
KURAFLEX
 41
0.7499999999999854
  7
SMP-SET
 72
     5
 11
1019.852878405781
 21
1222.948764543459
 31
0.0
100
AcDbText
  0
TEXT
  5
303
330
2
100
AcDbEntity
  8
0
 48
3.0
100
AcDbText
 10
989.1228784057814
 20
1222.948764543459
 30
0.0
 40
5.599999999999998
  1
KURAFLEX
 41
0.7499999999999881
  7
SMP-SET
 72
     5
 11
1019.922878405781
 21
1222.948764543459
 31
0.0
100
AcDbText
  0
TEXT
  5
304
330
2
100
AcDbEntity
  8
0
 48
3.0
100
AcDbText
 10
988.9828784057812
 20
1222.948764543459
 30
0.0
 40
5.599999999999998
  1
KURAFLEX
 41
0.7499999999999935
  7
SMP-SET
 72
     5
 11
1019.782878405781
 21
1222.948764543459
 31
0.0
100
AcDbText
  0
TEXT
  5
305
330
2
100
AcDbEntity
  8
0
 48
3.0
100
AcDbText
 10
989.0528784057815
 20
1223.01876454346
 30
0.0
 40
5.599999999999998
  1
KURAFLEX
 41
0.7499999999999854
  7
SMP-SET
 72
     5
 11
1019.852878405781
 21
1223.01876454346
 31
0.0
100
AcDbText
  0
TEXT
  5
306
330
2
100
AcDbEntity
  8
0
 48
3.0
100
AcDbText
 10
989.0528784057815
 20
1222.878764543459
 30
0.0
 40
5.599999999999998
  1
KURAFLEX
 41
0.7499999999999854
  7
SMP-SET
 72
     5
 11
1019.852878405781
 21
1222.878764543459
 31
0.0
100
AcDbText
  0
TEXT
  5
307
330
2
100
AcDbEntity
  8
0
 48
3.0
100
AcDbText
 10
989.0528784057815
 20
1223.088764543459
 30
0.0
 40
5.599999999999998
  1
KURAFLEX
 41
0.7499999999999854
  7
SMP-SET
 72
     5
 11
1019.852878405781
 21
1223.088764543459
 31
0.0
100
AcDbText
  0
TEXT
  5
308
330
2
100
AcDbEntity
  8
0
 48
3.0
100
AcDbText
 10
989.0528784057815
 20
1222.808764543459
 30
0.0
 40
5.599999999999998
  1
KURAFLEX
 41
0.7499999999999854
  7
SMP-SET
 72
     5
 11
1019.852878405781
 21
1222.808764543459
 31
0.0
100
AcDbText
  0
TEXT
  5
309
330
2
100
AcDbEntity
  8
0
 48
3.0
100
AcDbText
 10
989.1928784057814
 20
1222.948764543459
 30
0.0
 40
5.599999999999998
  1
KURAFLEX
 41
0.7499999999999908
  7
SMP-SET
 72
     5
 11
1019.992878405781
 21
1222.948764543459
 31
0.0
100
AcDbText
  0
TEXT
  5
30A
330
2
100
AcDbEntity
  8
0
 48
3.0
100
AcDbText
 10
988.9128784057815
 20
1222.948764543459
 30
0.0
 40
5.599999999999998
  1
KURAFLEX
 41
0.7499999999999854
  7
SMP-SET
 72
     5
 11
1019.712878405781
 21
1222.948764543459
 31
0.0
100
AcDbText
  0
TEXT
  5
30B
330
2
100
AcDbEntity
  8
0
 48
3.0
100
AcDbText
 10
989.0528784057815
 20
1223.158764543459
 30
0.0
 40
5.599999999999998
  1
KURAFLEX
 41
0.7499999999999854
  7
SMP-SET
 72
     5
 11
1019.852878405781
 21
1223.158764543459
 31
0.0
100
AcDbText
  0
TEXT
  5
30C
330
2
100
AcDbEntity
  8
0
 48
3.0
100
AcDbText
 10
989.0528784057815
 20
1222.738764543459
 30
0.0
 40
5.599999999999998
  1
KURAFLEX
 41
0.7499999999999854
  7
SMP-SET
 72
     5
 11
1019.852878405781
 21
1222.738764543459
 31
0.0
100
AcDbText
  0
TEXT
  5
30D
330
2
100
AcDbEntity
  8
0
 48
3.0
100
AcDbText
 10
989.2628784057816
 20
1222.948764543459
 30
0.0
 40
5.599999999999998
  1
KURAFLEX
 41
0.7499999999999854
  7
SMP-SET
 72
     5
 11
1020.062878405781
 21
1222.948764543459
 31
0.0
100
AcDbText
  0
TEXT
  5
30E
330
2
100
AcDbEntity
  8
0
 48
3.0
100
AcDbText
 10
988.8428784057815
 20
1222.948764543459
 30
0.0
 40
5.599999999999998
  1
KURAFLEX
 41
0.7499999999999854
  7
SMP-SET
 72
     5
 11
1019.642878405781
 21
1222.948764543459
 31
0.0
100
AcDbText
  0
TEXT
  5
30F
330
2
100
AcDbEntity
  8
0
 48
3.0
100
AcDbText
 10
989.0528784057815
 20
1223.228764543459
 30
0.0
 40
5.599999999999998
  1
KURAFLEX
 41
0.7499999999999854
  7
SMP-SET
 72
     5
 11
1019.852878405781
 21
1223.228764543459
 31
0.0
100
AcDbText
  0
TEXT
  5
310
330
2
100
AcDbEntity
  8
0
 48
3.0
100
AcDbText
 10
989.0528784057815
 20
1222.668764543459
 30
0.0
 40
5.599999999999998
  1
KURAFLEX
 41
0.7499999999999854
  7
SMP-SET
 72
     5
 11
1019.852878405781
 21
1222.668764543459
 31
0.0
100
AcDbText
  0
TEXT
  5
311
330
2
100
AcDbEntity
  8
0
 48
3.0
100
AcDbText
 10
989.3328784057814
 20
1222.948764543459
 30
0.0
 40
5.599999999999998
  1
KURAFLEX
 41
0.7499999999999881
  7
SMP-SET
 72
     5
 11
1020.132878405781
 21
1222.948764543459
 31
0.0
100
AcDbText
  0
TEXT
  5
312
330
2
100
AcDbEntity
  8
0
 48
3.0
100
AcDbText
 10
988.7728784057815
 20
1222.948764543459
 30
0.0
 40
5.599999999999998
  1
KURAFLEX
 41
0.7499999999999854
  7
SMP-SET
 72
     5
 11
1019.572878405781
 21
1222.948764543459
 31
0.0
100
AcDbText
  0
LINE
  5
313
330
2
100
AcDbEntity
  8
0
100
AcDbLine
 10
1021.952878405781
 20
1213.148764543459
 30
0.0
 11
986.9528784057813
 21
1213.148764543459
 31
0.0
  0
TEXT
  5
314
330
2
100
AcDbEntity
  8
0
100
AcDbText
 10
995.3528784057814
 20
1216.298764543459
 30
0.0
 40
3.5
  1
KURASHIKI KAKO CO.,LTD.
 41
0.3700906344410807
  7
SMP-SET
 72
     5
 11
1019.852878405781
 21
1216.298764543459
 31
0.0
100
AcDbText
  0
LINE
  5
315
330
2
100
AcDbEntity
  8
0
100
AcDbLine
 10
979.9528784057812
 20
1236.248764543459
 30
0.0
 11
1028.952878405781
 21
1236.248764543459
 31
0.0
  0
LINE
  5
316
330
2
100
AcDbEntity
  8
0
100
AcDbLine
 10
986.9528784057813
 20
1231.348764543459
 30
0.0
 11
1021.952878405781
 21
1231.348764543459
 31
0.0
  0
TEXT
  5
317
330
2
100
AcDbEntity
  8
0
100
AcDbText
 10
998.6119750030413
 20
1232.740800710751
 30
0.0
 40
2.099999999999999
  1
3
  7
SMP-SET
100
AcDbText
  0
LINE
  5
318
330
2
100
AcDbEntity
  8
0
100
AcDbLine
 10
1028.952878405781
 20
1208.248764543459
 30
0.0
 11
979.9528784057812
 21
1208.248764543459
 31
0.0
  0
LINE
  5
319
330
2
100
AcDbEntity
  8
0
100
AcDbLine
 10
1028.952878405781
 20
1236.248764543459
 30
0.0
 11
1028.952878405781
 21
1208.248764543459
 31
0.0
  0
LINE
  5
31A
330
2
100
AcDbEntity
  8
0
100
AcDbLine
 10
979.9528784057812
 20
1208.248764543459
 30
0.0
 11
979.9528784057812
 21
1236.248764543459
 31
0.0
  0
TEXT
  5
31B
330
2
100
AcDbEntity
  8
0
100
AcDbText
 10
1005.284779681327
 20
1209.963028221721
 30
0.0
 40
1.75
  1
G
  7
SMP-SET
100
AcDbText
  0
TEXT
  5
31C
330
2
100
AcDbEntity
  8
0
100
AcDbText
 10
991.2847796813274
 20
1209.963028221721
 30
0.0
 40
1.75
  1
B
  7
SMP-SET
100
AcDbText
  0
TEXT
  5
31D
330
2
100
AcDbEntity
  8
0
100
AcDbText
 10
988.4847796813271
 20
1209.963028221721
 30
0.0
 40
1.75
  1
A
  7
SMP-SET
100
AcDbText
  0
TEXT
  5
31E
330
2
100
AcDbEntity
  8
0
100
AcDbText
 10
999.6847796813272
 20
1209.963028221721
 30
0.0
 40
1.75
  1
E
  7
SMP-SET
100
AcDbText
  0
TEXT
  5
31F
330
2
100
AcDbEntity
  8
0
100
AcDbText
 10
1002.484779681327
 20
1209.963028221721
 30
0.0
 40
1.75
  1
F
  7
SMP-SET
100
AcDbText
  0
TEXT
  5
320
330
2
100
AcDbEntity
  8
0
100
AcDbText
 10
996.8847796813276
 20
1209.963028221721
 30
0.0
 40
1.75
  1
D
  7
SMP-SET
100
AcDbText
  0
TEXT
  5
321
330
2
100
AcDbEntity
  8
0
100
AcDbText
 10
994.0847796813274
 20
1209.963028221721
 30
0.0
 40
1.75
  1
C
  7
SMP-SET
100
AcDbText
  0
TEXT
  5
322
330
2
100
AcDbEntity
  8
0
100
AcDbText
 10
1019.284779681327
 20
1209.963028221721
 30
0.0
 40
1.75
  1
L
  7
SMP-SET
100
AcDbText
  0
TEXT
  5
323
330
2
100
AcDbEntity
  8
0
100
AcDbText
 10
1013.684779681327
 20
1209.963028221721
 30
0.0
 40
1.75
  1
J
  7
SMP-SET
100
AcDbText
  0
TEXT
  5
324
330
2
100
AcDbEntity
  8
0
100
AcDbText
 10
1016.484779681327
 20
1209.963028221721
 30
0.0
 40
1.75
  1
K
  7
SMP-SET
100
AcDbText
  0
TEXT
  5
325
330
2
100
AcDbEntity
  8
0
100
AcDbText
 10
1010.884779681327
 20
1209.963028221721
 30
0.0
 40
1.75
  1
I
  7
SMP-SET
100
AcDbText
  0
TEXT
  5
326
330
2
100
AcDbEntity
  8
0
100
AcDbText
 10
1008.084779681327
 20
1209.963028221721
 30
0.0
 40
1.75
  1
H
  7
SMP-SET
100
AcDbText
  0
LINE
  5
327
330
2
100
AcDbEntity
  8
0
100
AcDbLine
 10
1105.205176420654
 20
1197.745812829004
 30
0.0
 11
976.327228315389
 21
1197.745812828999
 31
0.0
  0
LINE
  5
328
330
2
100
AcDbEntity
  8
0
100
AcDbLine
 10
893.7002739886535
 20
1195.745812828998
 30
0.0
 11
903.7002739886553
 21
1197.745812828998
 31
0.0
  0
LINE
  5
329
330
2
100
AcDbEntity
  8
0
100
AcDbLine
 10
855.7504783214929
 20
1191.259155410188
 30
0.0
 11
858.4527252046695
 21
1190.245812828996
 31
0.0
  0
ARC
  5
32A
330
2
100
AcDbEntity
  8
0
100
AcDbCircle
 10
856.4527252046696
 20
1193.131813765326
 30
0.0
 40
2.0
100
AcDbArc
 50
180.0
 51
249.4439547804134
  0
LINE
  5
32B
330
2
100
AcDbEntity
  8
0
100
AcDbLine
 10
880.8030866237666
 20
1177.745812828996
 30
0.0
 11
849.909503567566
 21
1177.745812828996
 31
0.0
  0
LINE
  5
32C
330
2
100
AcDbEntity
  8
0
100
AcDbLine
 10
893.7002739886535
 20
1195.745812828998
 30
0.0
 11
872.4527252046694
 21
1195.745812828997
 31
0.0
  0
LINE
  5
32D
330
2
100
AcDbEntity
  8
0
100
AcDbLine
 10
854.4527252046696
 20
1193.131813765326
 30
0.0
 11
854.4527252046696
 21
1252.359811892667
 31
0.0
  0
LINE
  5
32E
330
2
100
AcDbEntity
  8
0
100
AcDbLine
 10
1105.205176420674
 20
1197.745812828999
 30
0.0
 11
903.7002739886553
 21
1197.745812828998
 31
0.0
  0
LINE
  5
32F
330
2
100
AcDbEntity
  8
0
100
AcDbLine
 10
871.4527252046696
 20
1160.245812828996
 30
0.0
 11
872.4527252046696
 21
1161.245812828996
 31
0.0
  0
LINE
  5
330
330
2
100
AcDbEntity
  8
0
100
AcDbLine
 10
858.4527252046695
 20
1161.245812828996
 30
0.0
 11
859.4527252046695
 21
1160.245812828996
 31
0.0
  0
LINE
  5
331
330
2
100
AcDbEntity
  8
0
100
AcDbLine
 10
871.4527252046696
 20
1160.245812828996
 30
0.0
 11
859.4527252046695
 21
1160.245812828996
 31
0.0
  0
LINE
  5
332
330
2
100
AcDbEntity
  8
0
100
AcDbLine
 10
872.4527252046696
 20
1161.245812828996
 30
0.0
 11
872.4527252046696
 21
1222.745812828996
 31
0.0
  0
LINE
  5
333
330
2
100
AcDbEntity
  8
0
100
AcDbLine
 10
858.4527252046695
 20
1161.245812828996
 30
0.0
 11
858.4527252046695
 21
1222.745812828996
 31
0.0
  0
LINE
  5
334
330
2
100
AcDbEntity
  8
0
100
AcDbLine
 10
1159.452725204669
 20
1222.745812828996
 30
0.0
 11
849.4527252046696
 21
1222.745812828996
 31
0.0
  0
LINE
  5
335
330
2
100
AcDbEntity
  8
0
100
AcDbLine
 10
1115.205176420685
 20
1195.745812828998
 30
0.0
 11
1136.452725204669
 21
1195.745812828997
 31
0.0
  0
LINE
  5
336
330
2
100
AcDbEntity
  8
0
100
AcDbLine
 10
1017.5
 20
1029.999925840346
 30
0.0
 11
1017.5
 21
559.9999258403462
 31
0.0
  0
LINE
  5
337
330
2
100
AcDbEntity
  8
0
100
AcDbLine
 10
1339.999791912732
 20
1420.0
 30
0.0
 11
1339.999791912732
 21
1029.999925840346
 31
0.0
  0
TEXT
  5
338
330
2
100
AcDbEntity
  8
0
100
AcDbText
 10
408.7791051768326
 20
575.9474588297876
 30
0.0
 40
15.0
  1
クラフレックス：KW-40
100
AcDbText
  0
LINE
  5
339
330
2
100
AcDbEntity
  8
0
100
AcDbLine
 10
40.0
 20
559.9999258403461
 30
0.0
 11
1995.0
 21
559.9999258403461
 31
0.0
  0
LINE
  5
33A
330
2
100
AcDbEntity
  8
0
100
AcDbLine
 10
40.0
 20
599.9999258403461
 30
0.0
 11
1995.0
 21
599.9999258403461
 31
0.0
  0
TEXT
  5
33B
330
2
100
AcDbEntity
  8
0
100
AcDbText
 10
1550.477385545642
 20
1045.100844053007
 30
0.0
 40
15.0
  1
クラフレックス：KW-32
100
AcDbText
  0
TEXT
  5
33C
330
2
100
AcDbEntity
  8
0
100
AcDbText
 10
888.3018152970501
 20
1045.100844053007
 30
0.0
 40
15.0
  1
クラフレックス：KW-25
100
AcDbText
  0
POINT
  5
33D
330
2
100
AcDbEntity
  8
0
  6
ByBlock
 62
     0
100
AcDbPoint
 10
607.2083330856822
 20
608.3092207250103
 30
0.0
  0
POINT
  5
33E
330
2
100
AcDbEntity
  8
0
  6
ByBlock
 62
     0
100
AcDbPoint
 10
310.1620864391434
 20
608.6592207250101
 30
0.0
  0
TEXT
  5
341
330
2
100
AcDbEntity
  8
0
100
AcDbText
 10
248.2457668776604
 20
1045.100844053007
 30
0.0
 40
15.0
  1
クラフレックス：KW-20
100
AcDbText
  0
LINE
  5
342
330
2
100
AcDbEntity
  8
0
100
AcDbLine
 10
689.9997919127327
 20
1420.0
 30
0.0
 11
689.9997919127327
 21
1029.999925840346
 31
0.0
  0
LINE
  5
343
330
2
100
AcDbEntity
  8
0
100
AcDbLine
 10
40.0
 20
1029.999925840346
 30
0.0
 11
1995.0
 21
1029.999925840346
 31
0.0
  0
LINE
  5
344
330
2
100
AcDbEntity
  8
0
100
AcDbLine
 10
40.0
 20
1069.999925840346
 30
0.0
 11
1995.0
 21
1069.999925840346
 31
0.0
  0
LINE
  5
345
330
2
100
AcDbEntity
  8
0
100
AcDbLine
 10
1995.0
 20
0.0
 30
0.0
 11
40.0
 21
0.0
 31
0.0
  0
LINE
  5
346
330
2
100
AcDbEntity
  8
0
100
AcDbLine
 10
1995.0
 20
1420.0
 30
0.0
 11
1995.0
 21
0.0
 31
0.0
  0
LINE
  5
347
330
2
100
AcDbEntity
  8
0
100
AcDbLine
 10
40.0
 20
1420.0
 30
0.0
 11
1995.0
 21
1420.0
 31
0.0
  0
LINE
  5
348
330
2
100
AcDbEntity
  8
0
100
AcDbLine
 10
40.0
 20
0.0
 30
0.0
 11
40.0
 21
1420.0
 31
0.0
  0
ENDSEC
  0
SECTION
  2
OBJECTS
  0
DICTIONARY
  5
9
330
0
100
AcDbDictionary
281
     1
  3
ACAD_CIP_PREVIOUS_PRODUCT_INFO
350
3AE
  3
ACAD_COLOR
350
391
  3
ACAD_DETAILVIEWSTYLE
350
3AA
  3
ACAD_FIELDLIST
350
41E
  3
ACAD_GROUP
350
2A
  3
ACAD_LAYOUT
350
E
  3
ACAD_MATERIAL
350
35F
  3
ACAD_MLEADERSTYLE
350
3A6
  3
ACAD_MLINESTYLE
350
2B
  3
ACAD_PLOTSETTINGS
350
2C
  3
ACAD_PLOTSTYLENAME
350
35D
  3
ACAD_SCALELIST
350
394
  3
ACAD_SECTIONVIEWSTYLE
350
3A8
  3
ACAD_TABLESTYLE
350
392
  3
ACAD_VISUALSTYLE
350
378
  3
ACDB_RECOMPOSE_DATA
350
442
  3
AcDbVariableDictionary
350
435
  3
AcmDictionary
350
3DB
  3
AMG
350
3AF
  3
AMGSNAPSETTINGS
350
432
  0
DICTIONARY
  5
433
330
6
100
AcDbDictionary
280
     1
281
     1
  3
ADSK_XREC_LAYER_RECONCILED
360
434
  0
DICTIONARY
  5
3
330
2
100
AcDbDictionary
281
     1
  3
ACAD_LAYOUTSELFREF
350
34A
  0
DICTIONARY
  5
10
330
F
100
AcDbDictionary
281
     1
  3
ACAD_LAYOUTSELFREF
350
34B
  0
XRECORD
  5
3AE
102
{ACAD_REACTORS
330
9
102
}
330
9
100
AcDbXrecord
280
     1
300
AMECH_PP
300
2021
300
87400AMECH_PP_2021_0F
  0
DICTIONARY
  5
391
102
{ACAD_REACTORS
330
9
102
}
330
9
100
AcDbDictionary
281
     1
  0
DICTIONARY
  5
3AA
102
{ACAD_REACTORS
330
9
102
}
330
9
100
AcDbDictionary
281
     1
  3
Imperial24
350
3AB
  0
FIELDLIST
  5
41E
102
{ACAD_REACTORS
330
9
102
}
330
9
100
AcDbIdSet
 90
        8
330
41C
330
41D
330
41F
330
420
330
424
330
425
330
426
330
427
100
AcDbFieldList
  0
DICTIONARY
  5
2A
102
{ACAD_REACTORS
330
9
102
}
330
9
100
AcDbDictionary
281
     1
  0
DICTIONARY
  5
E
102
{ACAD_REACTORS
330
9
102
}
330
9
100
AcDbDictionary
281
     1
  3
Model
350
3AC
  3
レイアウト1
350
3AD
  0
DICTIONARY
  5
35F
102
{ACAD_REACTORS
330
9
102
}
330
9
100
AcDbDictionary
281
     1
  3
ByBlock
350
368
  3
ByLayer
350
360
  3
Global
350
370
  0
DICTIONARY
  5
3A6
102
{ACAD_REACTORS
330
9
102
}
330
9
100
AcDbDictionary
281
     1
  3
Standard
350
3A7
  0
DICTIONARY
  5
2B
102
{ACAD_REACTORS
330
9
102
}
330
9
100
AcDbDictionary
281
     1
  3
STANDARD
350
2D
  0
DICTIONARY
  5
2C
102
{ACAD_REACTORS
330
9
102
}
330
9
100
AcDbDictionary
281
     1
  0
ACDBDICTIONARYWDFLT
  5
35D
102
{ACAD_REACTORS
330
9
102
}
330
9
100
AcDbDictionary
281
     1
  3
Normal
350
35E
100
AcDbDictionaryWithDefault
340
35E
  0
DICTIONARY
  5
394
102
{ACAD_REACTORS
330
9
102
}
330
9
100
AcDbDictionary
281
     1
  3
A0
350
395
  3
A1
350
396
  3
A2
350
397
  3
A3
350
398
  3
A4
350
399
  3
A5
350
39A
  3
A6
350
39B
  3
A7
350
39C
  3
A8
350
39D
  3
A9
350
39E
  3
B0
350
39F
  3
B1
350
3A0
  3
B2
350
3A1
  3
B3
350
3A2
  3
B4
350
3A3
  3
B5
350
3A4
  3
B6
350
3A5
  0
DICTIONARY
  5
3A8
102
{ACAD_REACTORS
330
9
102
}
330
9
100
AcDbDictionary
281
     1
  3
Imperial24
350
3A9
  0
DICTIONARY
  5
392
102
{ACAD_REACTORS
330
9
102
}
330
9
100
AcDbDictionary
281
     1
  3
Standard
350
393
  0
DICTIONARY
  5
378
102
{ACAD_REACTORS
330
9
102
}
330
9
100
AcDbDictionary
281
     1
  3
2dWireframe
350
37E
  3
Basic
350
37D
  3
Brighten
350
384
  3
ColorChange
350
388
  3
Conceptual
350
381
  3
Dim
350
383
  3
EdgeColorOff
350
390
  3
Facepattern
350
387
  3
Flat
350
379
  3
FlatWithEdges
350
37A
  3
Gouraud
350
37B
  3
GouraudWithEdges
350
37C
  3
Hidden
350
380
  3
JitterOff
350
38E
  3
Linepattern
350
386
  3
OverhangOff
350
38F
  3
Realistic
350
382
  3
Shaded
350
38D
  3
Shaded with edges
350
38C
  3
Shades of Gray
350
389
  3
Sketchy
350
38A
  3
Thicken
350
385
  3
Wireframe
350
37F
  3
X-Ray
350
38B
  0
XRECORD
  5
442
102
{ACAD_REACTORS
330
9
102
}
330
9
100
AcDbXrecord
280
     1
 90
        1
330
393
  0
DICTIONARY
  5
435
102
{ACAD_REACTORS
330
9
102
}
330
9
100
AcDbDictionary
281
     1
  3
CANNOSCALE
350
43B
  3
CMLEADERSTYLE
350
437
  3
CTABLESTYLE
350
436
  3
CVIEWDETAILSTYLE
350
438
  3
CVIEWSECTIONSTYLE
350
439
  3
LAYEREVAL
350
43D
  3
LAYERNOTIFY
350
43E
  3
LIGHTINGUNITS
350
43C
  3
MSLTSCALE
350
43A
  3
XCLIPFRAME
350
43F
  0
DICTIONARY
  5
3DB
102
{ACAD_REACTORS
330
9
102
}
330
9
100
AcDbDictionary
281
     1
  3
AcmStdDictionary
350
3E2
  0
DICTIONARY
  5
3AF
102
{ACAD_REACTORS
330
9
102
}
330
9
100
AcDbDictionary
281
     1
  0
DICTIONARY
  5
432
102
{ACAD_REACTORS
330
9
102
}
330
9
100
AcDbDictionary
281
     1
  0
XRECORD
  5
434
102
{ACAD_REACTORS
330
433
102
}
330
433
100
AcDbXrecord
280
     1
290
     1
  0
XRECORD
  5
34A
102
{ACAD_REACTORS
330
3
102
}
330
3
100
AcDbXrecord
280
     1
340
2
  0
XRECORD
  5
34B
102
{ACAD_REACTORS
330
10
102
}
330
10
100
AcDbXrecord
280
     1
340
F
  0
ACDBDETAILVIEWSTYLE
  5
3AB
102
{ACAD_XDICTIONARY
360
476
102
}
102
{ACAD_REACTORS
330
3AA
330
40F
102
}
330
3AA
100
AcDbModelDocViewStyle
 70
     0
  3
Imperial24
290
     0
100
AcDbDetailViewStyle
 70
     0
 71
     0
 90
        3
 71
     1
340
17
 62
   256
 40
0.24
340
0
 62
   256
 40
0.24
300

 40
0.36
280
     3
 71
     2
340
B
 90
       25
 62
   256
 71
     3
340
17
 62
   256
 40
0.24
 90
        1
 40
0.75
 90
        1
300
%<\AcVar ViewType \f "%tc1">% %<\AcVar ViewDetailId>%\PSCALE %<\AcVar ViewScale \f "%sn">%
 71
     4
340
B
 90
       25
 62
   256
340
B
 90
       25
 62
   256
280
     0
  0
LAYOUT
  5
3AC
102
{ACAD_REACTORS
330
E
102
}
330
E
100
AcDbPlotSettings
  1

  2
産機2F_DocuPrint 4050
  4

  6

 40
0.0
 41
0.0
 42
0.0
 43
0.0
 44
0.0
 45
0.0
 46
0.0
 47
0.0
 48
0.0
 49
0.0
140
0.0
141
0.0
142
1.0
143
1.0
 70
  1712
 72
     0
 73
     0
 74
     0
  7

 75
     0
147
1.0
 76
     0
 77
     2
 78
   300
148
0.0
149
0.0
100
AcDbLayout
  1
Model
 70
     1
 71
     0
 10
0.0
 20
0.0
 11
12.0
 21
9.0
 12
0.0
 22
0.0
 32
0.0
 14
0.0
 24
0.0
 34
0.0
 15
0.0
 25
0.0
 35
0.0
146
0.0
 13
0.0
 23
0.0
 33
0.0
 16
1.0
 26
0.0
 36
0.0
 17
0.0
 27
1.0
 37
0.0
 76
     0
330
2
331
1F
  0
LAYOUT
  5
3AD
102
{ACAD_REACTORS
330
E
102
}
330
E
100
AcDbPlotSettings
  1

  2
産機2F_DocuPrint 4050
  4

  6

 40
0.0
 41
0.0
 42
0.0
 43
0.0
 44
0.0
 45
0.0
 46
0.0
 47
0.0
 48
0.0
 49
0.0
140
0.0
141
0.0
142
1.0
143
1.0
 70
   688
 72
     0
 73
     0
 74
     5
  7

 75
    16
147
1.0
 76
     0
 77
     2
 78
   300
148
0.0
149
0.0
100
AcDbLayout
  1
レイアウト1
 70
     0
 71
     1
 10
0.0
 20
0.0
 11
12.0
 21
9.0
 12
0.0
 22
0.0
 32
0.0
 14
1.000000000000000E+20
 24
1.000000000000000E+20
 34
1.000000000000000E+20
 15
-1.000000000000000E+20
 25
-1.000000000000000E+20
 35
-1.000000000000000E+20
146
0.0
 13
0.0
 23
0.0
 33
0.0
 16
1.0
 26
0.0
 36
0.0
 17
0.0
 27
1.0
 37
0.0
 76
     0
330
F
  0
MATERIAL
  5
368
102
{ACAD_XDICTIONARY
360
369
102
}
102
{ACAD_REACTORS
330
35F
102
}
330
35F
100
AcDbMaterial
  1
ByBlock
 72
     0
 43
0.0208333333333333
 43
0.0
 43
0.0
 43
0.0
 43
0.0
 43
0.0208333333333333
 43
0.0
 43
0.0
 43
0.0
 43
0.0
 43
1.0
 43
0.0
 43
0.0
 43
0.0
 43
0.0
 43
1.0
 77
     0
 47
0.0208333333333333
 47
0.0
 47
0.0
 47
0.0
 47
0.0
 47
0.0208333333333333
 47
0.0
 47
0.0
 47
0.0
 47
0.0
 47
1.0
 47
0.0
 47
0.0
 47
0.0
 47
0.0
 47
1.0
171
     0
 49
0.0208333333333333
 49
0.0
 49
0.0
 49
0.0
 49
0.0
 49
0.0208333333333333
 49
0.0
 49
0.0
 49
0.0
 49
0.0
 49
1.0
 49
0.0
 49
0.0
 49
0.0
 49
0.0
 49
1.0
175
     0
142
0.0208333333333333
142
0.0
142
0.0
142
0.0
142
0.0
142
0.0208333333333333
142
0.0
142
0.0
142
0.0
142
0.0
142
1.0
142
0.0
142
0.0
142
0.0
142
0.0
142
1.0
179
     0
144
0.0208333333333333
144
0.0
144
0.0
144
0.0
144
0.0
144
0.0208333333333333
144
0.0
144
0.0
144
0.0
144
0.0
144
1.0
144
0.0
144
0.0
144
0.0
144
0.0
144
1.0
147
0.0208333333333333
147
0.0
147
0.0
147
0.0
147
0.0
147
0.0208333333333333
147
0.0
147
0.0
147
0.0
147
0.0
147
1.0
147
0.0
147
0.0
147
0.0
147
0.0
147
1.0
  0
MATERIAL
  5
360
102
{ACAD_XDICTIONARY
360
361
102
}
102
{ACAD_REACTORS
330
35F
102
}
330
35F
100
AcDbMaterial
  1
ByLayer
 72
     0
 43
0.0208333333333333
 43
0.0
 43
0.0
 43
0.0
 43
0.0
 43
0.0208333333333333
 43
0.0
 43
0.0
 43
0.0
 43
0.0
 43
1.0
 43
0.0
 43
0.0
 43
0.0
 43
0.0
 43
1.0
 77
     0
 47
0.0208333333333333
 47
0.0
 47
0.0
 47
0.0
 47
0.0
 47
0.0208333333333333
 47
0.0
 47
0.0
 47
0.0
 47
0.0
 47
1.0
 47
0.0
 47
0.0
 47
0.0
 47
0.0
 47
1.0
171
     0
 49
0.0208333333333333
 49
0.0
 49
0.0
 49
0.0
 49
0.0
 49
0.0208333333333333
 49
0.0
 49
0.0
 49
0.0
 49
0.0
 49
1.0
 49
0.0
 49
0.0
 49
0.0
 49
0.0
 49
1.0
175
     0
142
0.0208333333333333
142
0.0
142
0.0
142
0.0
142
0.0
142
0.0208333333333333
142
0.0
142
0.0
142
0.0
142
0.0
142
1.0
142
0.0
142
0.0
142
0.0
142
0.0
142
1.0
179
     0
144
0.0208333333333333
144
0.0
144
0.0
144
0.0
144
0.0
144
0.0208333333333333
144
0.0
144
0.0
144
0.0
144
0.0
144
1.0
144
0.0
144
0.0
144
0.0
144
0.0
144
1.0
147
0.0208333333333333
147
0.0
147
0.0
147
0.0
147
0.0
147
0.0208333333333333
147
0.0
147
0.0
147
0.0
147
0.0
147
1.0
147
0.0
147
0.0
147
0.0
147
0.0
147
1.0
  0
MATERIAL
  5
370
102
{ACAD_XDICTIONARY
360
371
102
}
102
{ACAD_REACTORS
330
35F
102
}
330
35F
100
AcDbMaterial
  1
Global
 72
     0
 43
0.0208333333333333
 43
0.0
 43
0.0
 43
0.0
 43
0.0
 43
0.0208333333333333
 43
0.0
 43
0.0
 43
0.0
 43
0.0
 43
1.0
 43
0.0
 43
0.0
 43
0.0
 43
0.0
 43
1.0
 77
     0
 47
0.0208333333333333
 47
0.0
 47
0.0
 47
0.0
 47
0.0
 47
0.0208333333333333
 47
0.0
 47
0.0
 47
0.0
 47
0.0
 47
1.0
 47
0.0
 47
0.0
 47
0.0
 47
0.0
 47
1.0
171
     0
 49
0.0208333333333333
 49
0.0
 49
0.0
 49
0.0
 49
0.0
 49
0.0208333333333333
 49
0.0
 49
0.0
 49
0.0
 49
0.0
 49
1.0
 49
0.0
 49
0.0
 49
0.0
 49
0.0
 49
1.0
175
     0
142
0.0208333333333333
142
0.0
142
0.0
142
0.0
142
0.0
142
0.0208333333333333
142
0.0
142
0.0
142
0.0
142
0.0
142
1.0
142
0.0
142
0.0
142
0.0
142
0.0
142
1.0
179
     0
144
0.0208333333333333
144
0.0
144
0.0
144
0.0
144
0.0
144
0.0208333333333333
144
0.0
144
0.0
144
0.0
144
0.0
144
1.0
144
0.0
144
0.0
144
0.0
144
0.0
144
1.0
147
0.0208333333333333
147
0.0
147
0.0
147
0.0
147
0.0
147
0.0208333333333333
147
0.0
147
0.0
147
0.0
147
0.0
147
1.0
147
0.0
147
0.0
147
0.0
147
0.0
147
1.0
  0
MLEADERSTYLE
  5
3A7
102
{ACAD_REACTORS
330
3A6
102
}
330
3A6
100
AcDbMLeaderStyle
170
     2
171
     1
172
     0
 90
        2
 40
0.0
 41
0.0
173
     1
 91
-1056964608
340
1A
 92
       -2
290
     1
 42
0.09
291
     1
 43
0.36
  3
Standard
 44
0.18
300

342
17
174
     1
178
     6
175
     1
176
     0
 93
-1056964608
 45
0.18
292
     0
297
     0
 46
0.18
 94
-1056964608
 47
1.0
 49
1.0
140
1.0
293
     1
141
0.0
294
     1
177
     0
142
1.0
295
     0
296
     0
143
0.125
1001
ACAD_MLEADERVER
1070
     2
  0
MLINESTYLE
  5
2D
102
{ACAD_REACTORS
330
2B
102
}
330
2B
100
AcDbMlineStyle
  2
STANDARD
 70
     0
  3

 62
     0
 51
90.0
 52
90.0
 71
     2
 49
0.5
 62
   256
  6
BYLAYER
 49
-0.5
 62
   256
  6
BYLAYER
  0
ACDBPLACEHOLDER
  5
35E
102
{ACAD_REACTORS
330
35D
102
}
330
35D
  0
SCALE
  5
395
102
{ACAD_REACTORS
330
394
102
}
330
394
100
AcDbScale
 70
     0
300
1:1
140
1.0
141
1.0
290
     1
  0
SCALE
  5
396
102
{ACAD_REACTORS
330
394
102
}
330
394
100
AcDbScale
 70
     0
300
1/128" = 1'-0"
140
0.0078125
141
12.0
290
     0
  0
SCALE
  5
397
102
{ACAD_REACTORS
330
394
102
}
330
394
100
AcDbScale
 70
     0
300
1/64" = 1'-0"
140
0.015625
141
12.0
290
     0
  0
SCALE
  5
398
102
{ACAD_REACTORS
330
394
102
}
330
394
100
AcDbScale
 70
     0
300
1/32" = 1'-0"
140
0.03125
141
12.0
290
     0
  0
SCALE
  5
399
102
{ACAD_REACTORS
330
394
102
}
330
394
100
AcDbScale
 70
     0
300
1/16" = 1'-0"
140
0.0625
141
12.0
290
     0
  0
SCALE
  5
39A
102
{ACAD_REACTORS
330
394
102
}
330
394
100
AcDbScale
 70
     0
300
3/32" = 1'-0"
140
0.09375
141
12.0
290
     0
  0
SCALE
  5
39B
102
{ACAD_REACTORS
330
394
102
}
330
394
100
AcDbScale
 70
     0
300
1/8" = 1'-0"
140
0.125
141
12.0
290
     0
  0
SCALE
  5
39C
102
{ACAD_REACTORS
330
394
102
}
330
394
100
AcDbScale
 70
     0
300
3/16" = 1'-0"
140
0.1875
141
12.0
290
     0
  0
SCALE
  5
39D
102
{ACAD_REACTORS
330
394
102
}
330
394
100
AcDbScale
 70
     0
300
1/4" = 1'-0"
140
0.25
141
12.0
290
     0
  0
SCALE
  5
39E
102
{ACAD_REACTORS
330
394
102
}
330
394
100
AcDbScale
 70
     0
300
3/8" = 1'-0"
140
0.375
141
12.0
290
     0
  0
SCALE
  5
39F
102
{ACAD_REACTORS
330
394
102
}
330
394
100
AcDbScale
 70
     0
300
1/2" = 1'-0"
140
0.5
141
12.0
290
     0
  0
SCALE
  5
3A0
102
{ACAD_REACTORS
330
394
102
}
330
394
100
AcDbScale
 70
     0
300
3/4" = 1'-0"
140
0.75
141
12.0
290
     0
  0
SCALE
  5
3A1
102
{ACAD_REACTORS
330
394
102
}
330
394
100
AcDbScale
 70
     0
300
1" = 1'-0"
140
1.0
141
12.0
290
     0
  0
SCALE
  5
3A2
102
{ACAD_REACTORS
330
394
102
}
330
394
100
AcDbScale
 70
     0
300
1-1/2" = 1'-0"
140
1.5
141
12.0
290
     0
  0
SCALE
  5
3A3
102
{ACAD_REACTORS
330
394
102
}
330
394
100
AcDbScale
 70
     0
300
3" = 1'-0"
140
3.0
141
12.0
290
     0
  0
SCALE
  5
3A4
102
{ACAD_REACTORS
330
394
102
}
330
394
100
AcDbScale
 70
     0
300
6" = 1'-0"
140
6.0
141
12.0
290
     0
  0
SCALE
  5
3A5
102
{ACAD_REACTORS
330
394
102
}
330
394
100
AcDbScale
 70
     0
300
1'-0" = 1'-0"
140
12.0
141
12.0
290
     0
  0
ACDBSECTIONVIEWSTYLE
  5
3A9
102
{ACAD_XDICTIONARY
360
474
102
}
102
{ACAD_REACTORS
330
3A8
330
40E
102
}
330
3A8
100
AcDbModelDocViewStyle
 70
     0
  3
Imperial24
290
     0
100
AcDbSectionViewStyle
 70
     0
 71
     0
 90
       78
 71
     1
340
17
 62
   256
 40
0.24
340
0
340
0
 62
   256
 40
0.24
300
I, O, Q, S, X, Z
 40
0.48
 90
        3
 40
0.18
 90
        1
 71
     2
340
B
 90
       25
 62
   256
340
B
 90
       50
 62
   256
 40
0.24
 40
0.0
 40
0.24
 71
     3
340
17
 62
   256
 40
0.24
 90
        1
 40
0.75
 90
        1
300
%<\AcVar ViewType \f "%tc1">% %<\AcVar ViewSectionStartId>%-%<\AcVar ViewSectionEndId>%\PSCALE %<\AcVar ViewScale \f "%sn">%
 71
     4
 62
   256
 62
   257
300
ANSI31
 40
1.0
 90
        0
290
     0
290
     0
 90
        6
 40
0.0
 40
1.570796326794896
 40
0.2617993877991494
 40
1.308996938995747
 40
-0.2617993877991494
 40
1.832595714594046
  0
TABLESTYLE
  5
393
102
{ACAD_XDICTIONARY
360
440
102
}
102
{ACAD_REACTORS
330
392
102
}
330
392
100
AcDbTableStyle
  3
Standard
 70
     0
 71
     0
 40
0.06
 41
0.06
280
     0
281
     0
  7
STANDARD
140
0.18
170
     2
 62
     0
 63
     7
283
     0
 90
      512
 91
        0
  1

274
    -2
284
     1
 64
     0
275
    -2
285
     1
 65
     0
276
    -2
286
     1
 66
     0
277
    -2
287
     1
 67
     0
278
    -2
288
     1
 68
     0
279
    -2
289
     1
 69
     0
  7
STANDARD
140
0.25
170
     5
 62
     0
 63
     7
283
     0
 90
      512
 91
        0
  1

274
    -2
284
     1
 64
     0
275
    -2
285
     1
 65
     0
276
    -2
286
     1
 66
     0
277
    -2
287
     1
 67
     0
278
    -2
288
     1
 68
     0
279
    -2
289
     1
 69
     0
  7
STANDARD
140
0.18
170
     5
 62
     0
 63
     7
283
     0
 90
      512
 91
        0
  1

274
    -2
284
     1
 64
     0
275
    -2
285
     1
 65
     0
276
    -2
286
     1
 66
     0
277
    -2
287
     1
 67
     0
278
    -2
288
     1
 68
     0
279
    -2
289
     1
 69
     0
  0
VISUALSTYLE
  5
37E
102
{ACAD_XDICTIONARY
360
44D
102
}
102
{ACAD_REACTORS
330
378
102
}
330
378
100
AcDbVisualStyle
  2
2dWireframe
 70
     4
 71
     0
 72
     2
 73
     0
 90
        0
 40
-0.6
 41
-30.0
 62
     5
 63
     7
421
 16777215
 74
     1
 91
        4
 64
     7
 65
   257
 75
     1
175
     1
 42
1.0
 92
        0
 66
   257
 43
1.0
 76
     1
 77
     6
 78
     2
 67
     7
 79
     5
170
     0
171
     0
290
     0
174
     0
 93
        1
 44
0.0
173
     0
291
     0
 45
0.0
1001
ACAD
1000
AcDbSavedByObjectVersion
1070
     0
  0
VISUALSTYLE
  5
37D
102
{ACAD_XDICTIONARY
360
44B
102
}
102
{ACAD_REACTORS
330
378
102
}
330
378
100
AcDbVisualStyle
  2
Basic
 70
     7
 71
     1
 72
     0
 73
     1
 90
        0
 40
-0.6
 41
-30.0
 62
     5
 63
     7
421
 16777215
 74
     0
 91
        4
 64
     7
 65
   257
 75
     1
175
     1
 42
1.0
 92
        8
 66
     7
 43
1.0
 76
     1
 77
     6
 78
     2
 67
     7
 79
     5
170
     0
171
     0
290
     0
174
     0
 93
        1
 44
0.0
173
     0
291
     1
 45
0.0
1001
ACAD
1000
AcDbSavedByObjectVersion
1070
     0
  0
VISUALSTYLE
  5
384
102
{ACAD_XDICTIONARY
360
459
102
}
102
{ACAD_REACTORS
330
378
102
}
330
378
100
AcDbVisualStyle
  2
Brighten
 70
    12
 71
     2
 72
     2
 73
     0
 90
        0
 40
-0.6
 41
-30.0
 62
     5
 63
     7
421
 16777215
 74
     1
 91
        4
 64
     7
 65
   257
 75
     1
175
     1
 42
1.0
 92
        8
 66
     7
 43
1.0
 76
     1
 77
     6
 78
     2
 67
     7
 79
     5
170
     0
171
     0
290
     0
174
     0
 93
        1
 44
50.0
173
     0
291
     1
 45
0.0
1001
ACAD
1000
AcDbSavedByObjectVersion
1070
     0
  0
VISUALSTYLE
  5
388
102
{ACAD_XDICTIONARY
360
461
102
}
102
{ACAD_REACTORS
330
378
102
}
330
378
100
AcDbVisualStyle
  2
ColorChange
 70
    16
 71
     2
 72
     2
 73
     3
 90
        0
 40
-0.6
 41
-30.0
 62
     5
 63
     8
421
  8421504
 74
     1
 91
        4
 64
     7
 65
   257
 75
     1
175
     1
 42
1.0
 92
        8
 66
     8
424
  8421504
 43
1.0
 76
     1
 77
     6
 78
     2
 67
     7
 79
     5
170
     0
171
     0
290
     0
174
     0
 93
        1
 44
0.0
173
     0
291
     1
 45
0.0
1001
ACAD
1000
AcDbSavedByObjectVersion
1070
     0
  0
VISUALSTYLE
  5
381
102
{ACAD_XDICTIONARY
360
453
102
}
102
{ACAD_REACTORS
330
378
102
}
330
378
100
AcDbVisualStyle
  2
Conceptual
 70
     9
 71
     3
 72
     2
 73
     0
 90
        0
 40
-0.6
 41
-30.0
 62
     5
 63
     7
421
 16777215
 74
     2
 91
        2
 64
     7
 65
   257
 75
     1
175
     1
 42
179.0
 92
        8
 66
     7
 43
1.0
 76
     1
 77
     6
 78
     2
 67
     7
 79
     3
170
     0
171
     0
290
     0
174
     0
 93
        1
 44
0.0
173
     0
291
     0
 45
0.0
1001
ACAD
1000
AcDbSavedByObjectVersion
1070
     0
  0
VISUALSTYLE
  5
383
102
{ACAD_XDICTIONARY
360
457
102
}
102
{ACAD_REACTORS
330
378
102
}
330
378
100
AcDbVisualStyle
  2
Dim
 70
    11
 71
     2
 72
     2
 73
     0
 90
        0
 40
-0.6
 41
-30.0
 62
     5
 63
     7
421
 16777215
 74
     1
 91
        4
 64
     7
 65
   257
 75
     1
175
     1
 42
1.0
 92
        8
 66
     7
 43
1.0
 76
     1
 77
     6
 78
     2
 67
     7
 79
     5
170
     0
171
     0
290
     0
174
     0
 93
        1
 44
-50.0
173
     0
291
     1
 45
0.0
1001
ACAD
1000
AcDbSavedByObjectVersion
1070
     0
  0
VISUALSTYLE
  5
390
102
{ACAD_XDICTIONARY
360
471
102
}
102
{ACAD_REACTORS
330
378
102
}
330
378
100
AcDbVisualStyle
  2
EdgeColorOff
 70
    22
 71
     2
 72
     2
 73
     0
 90
        0
 40
-0.6
 41
-30.0
 62
     5
 63
     7
421
 16777215
 74
     1
 91
        4
 64
     7
 65
   257
 75
     1
175
     1
 42
1.0
 92
        8
 66
     7
 43
1.0
 76
     1
 77
     6
 78
     2
 67
     7
 79
     5
170
     0
171
     0
290
     0
174
     0
 93
        1
 44
0.0
173
     0
291
     1
 45
0.0
1001
ACAD
1000
AcDbSavedByObjectVersion
1070
     0
  0
VISUALSTYLE
  5
387
102
{ACAD_XDICTIONARY
360
45F
102
}
102
{ACAD_REACTORS
330
378
102
}
330
378
100
AcDbVisualStyle
  2
Facepattern
 70
    15
 71
     2
 72
     2
 73
     0
 90
        0
 40
-0.6
 41
-30.0
 62
     5
 63
     7
421
 16777215
 74
     1
 91
        4
 64
     7
 65
   257
 75
     1
175
     1
 42
1.0
 92
        8
 66
     7
 43
1.0
 76
     1
 77
     6
 78
     2
 67
     7
 79
     5
170
     0
171
     0
290
     0
174
     0
 93
        1
 44
0.0
173
     0
291
     1
 45
0.0
1001
ACAD
1000
AcDbSavedByObjectVersion
1070
     0
  0
VISUALSTYLE
  5
379
102
{ACAD_XDICTIONARY
360
443
102
}
102
{ACAD_REACTORS
330
378
102
}
330
378
100
AcDbVisualStyle
  2
Flat
 70
     0
 71
     2
 72
     1
 73
     1
 90
        2
 40
-0.6
 41
30.0
 62
     5
 63
     7
421
 16777215
 74
     0
 91
        0
 64
     7
 65
   257
 75
     1
175
     1
 42
1.0
 92
        8
 66
     7
 43
1.0
 76
     1
 77
     6
 78
     2
 67
     7
 79
     5
170
     0
171
     0
290
     0
174
     0
 93
       13
 44
0.0
173
     0
291
     1
 45
0.0
1001
ACAD
1000
AcDbSavedByObjectVersion
1070
     0
  0
VISUALSTYLE
  5
37A
102
{ACAD_XDICTIONARY
360
445
102
}
102
{ACAD_REACTORS
330
378
102
}
330
378
100
AcDbVisualStyle
  2
FlatWithEdges
 70
     1
 71
     2
 72
     1
 73
     1
 90
        2
 40
-0.6
 41
30.0
 62
     5
 63
     7
421
 16777215
 74
     1
 91
        0
 64
     7
 65
   257
 75
     1
175
     1
 42
1.0
 92
        0
 66
   257
 43
1.0
 76
     1
 77
     6
 78
     2
 67
     7
 79
     5
170
     0
171
     0
290
     0
174
     0
 93
       13
 44
0.0
173
     0
291
     1
 45
0.0
1001
ACAD
1000
AcDbSavedByObjectVersion
1070
     0
  0
VISUALSTYLE
  5
37B
102
{ACAD_XDICTIONARY
360
447
102
}
102
{ACAD_REACTORS
330
378
102
}
330
378
100
AcDbVisualStyle
  2
Gouraud
 70
     2
 71
     2
 72
     2
 73
     1
 90
        2
 40
-0.6
 41
30.0
 62
     5
 63
     7
421
 16777215
 74
     0
 91
        0
 64
     7
 65
   257
 75
     1
175
     1
 42
1.0
 92
        0
 66
     7
 43
1.0
 76
     1
 77
     6
 78
     2
 67
     7
 79
     5
170
     0
171
     0
290
     0
174
     0
 93
       13
 44
0.0
173
     0
291
     1
 45
0.0
1001
ACAD
1000
AcDbSavedByObjectVersion
1070
     0
  0
VISUALSTYLE
  5
37C
102
{ACAD_XDICTIONARY
360
449
102
}
102
{ACAD_REACTORS
330
378
102
}
330
378
100
AcDbVisualStyle
  2
GouraudWithEdges
 70
     3
 71
     2
 72
     2
 73
     1
 90
        2
 40
-0.6
 41
30.0
 62
     5
 63
     7
421
 16777215
 74
     1
 91
        0
 64
     7
 65
   257
 75
     1
175
     1
 42
1.0
 92
        0
 66
   257
 43
1.0
 76
     1
 77
     6
 78
     2
 67
     7
 79
     5
170
     0
171
     0
290
     0
174
     0
 93
       13
 44
0.0
173
     0
291
     1
 45
0.0
1001
ACAD
1000
AcDbSavedByObjectVersion
1070
     0
  0
VISUALSTYLE
  5
380
102
{ACAD_XDICTIONARY
360
451
102
}
102
{ACAD_REACTORS
330
378
102
}
330
378
100
AcDbVisualStyle
  2
Hidden
 70
     6
 71
     1
 72
     2
 73
     2
 90
        0
 40
-0.6
 41
-30.0
 62
     5
 63
     7
421
 16777215
 74
     2
 91
        2
 64
     7
 65
   257
 75
     2
175
     1
 42
40.0
 92
        0
 66
   257
 43
1.0
 76
     1
 77
     6
 78
     2
 67
     7
 79
     3
170
     0
171
     0
290
     0
174
     0
 93
        1
 44
0.0
173
     0
291
     0
 45
0.0
1001
ACAD
1000
AcDbSavedByObjectVersion
1070
     0
  0
VISUALSTYLE
  5
38E
102
{ACAD_XDICTIONARY
360
46D
102
}
102
{ACAD_REACTORS
330
378
102
}
330
378
100
AcDbVisualStyle
  2
JitterOff
 70
    20
 71
     2
 72
     2
 73
     0
 90
        0
 40
-0.6
 41
-30.0
 62
     5
 63
     7
421
 16777215
 74
     1
 91
        4
 64
     7
 65
   257
 75
     1
175
     1
 42
1.0
 92
       10
 66
     7
 43
1.0
 76
     1
 77
     6
 78
     2
 67
     7
 79
     5
170
     0
171
     0
290
     0
174
     0
 93
        1
 44
0.0
173
     0
291
     1
 45
0.0
1001
ACAD
1000
AcDbSavedByObjectVersion
1070
     0
  0
VISUALSTYLE
  5
386
102
{ACAD_XDICTIONARY
360
45D
102
}
102
{ACAD_REACTORS
330
378
102
}
330
378
100
AcDbVisualStyle
  2
Linepattern
 70
    14
 71
     2
 72
     2
 73
     0
 90
        0
 40
-0.6
 41
-30.0
 62
     5
 63
     7
421
 16777215
 74
     1
 91
        4
 64
     7
 65
   257
 75
     7
175
     7
 42
1.0
 92
        8
 66
     7
 43
1.0
 76
     1
 77
     6
 78
     2
 67
     7
 79
     5
170
     0
171
     0
290
     0
174
     0
 93
        1
 44
0.0
173
     0
291
     1
 45
0.0
1001
ACAD
1000
AcDbSavedByObjectVersion
1070
     0
  0
VISUALSTYLE
  5
38F
102
{ACAD_XDICTIONARY
360
46F
102
}
102
{ACAD_REACTORS
330
378
102
}
330
378
100
AcDbVisualStyle
  2
OverhangOff
 70
    21
 71
     2
 72
     2
 73
     0
 90
        0
 40
-0.6
 41
-30.0
 62
     5
 63
     7
421
 16777215
 74
     1
 91
        4
 64
     7
 65
   257
 75
     1
175
     1
 42
1.0
 92
        9
 66
     7
 43
1.0
 76
     1
 77
     6
 78
     2
 67
     7
 79
     5
170
     0
171
     0
290
     0
174
     0
 93
        1
 44
0.0
173
     0
291
     1
 45
0.0
1001
ACAD
1000
AcDbSavedByObjectVersion
1070
     0
  0
VISUALSTYLE
  5
382
102
{ACAD_XDICTIONARY
360
455
102
}
102
{ACAD_REACTORS
330
378
102
}
330
378
100
AcDbVisualStyle
  2
Realistic
 70
     8
 71
     2
 72
     3
 73
     0
 90
        2
 40
-0.6
 41
30.0
 62
     5
 63
     7
421
 16777215
 74
     0
 91
        0
 64
     7
 65
   257
 75
     1
175
     1
 42
1.0
 92
        8
 66
   257
 43
1.0
 76
     1
 77
     6
 78
     2
 67
     7
 79
     3
170
     0
171
     0
290
     0
174
     0
 93
       13
 44
0.0
173
     0
291
     0
 45
0.0
1001
ACAD
1000
AcDbSavedByObjectVersion
1070
     0
  0
VISUALSTYLE
  5
38D
102
{ACAD_XDICTIONARY
360
46B
102
}
102
{ACAD_REACTORS
330
378
102
}
330
378
100
AcDbVisualStyle
  2
Shaded
 70
    27
 71
     2
 72
     2
 73
     1
 90
        2
 40
-0.6
 41
30.0
 62
     5
 63
     7
421
 16777215
 74
     0
 91
        4
 64
     7
 65
   257
 75
     1
175
     1
 42
1.0
 92
        8
 66
   257
 43
1.0
 76
     1
 77
     6
 78
     2
 67
     8
425
  7895160
 79
     3
170
     0
171
     0
290
     0
174
     0
 93
        5
 44
0.0
173
     0
291
     0
 45
0.0
1001
ACAD
1000
AcDbSavedByObjectVersion
1070
     0
  0
VISUALSTYLE
  5
38C
102
{ACAD_XDICTIONARY
360
469
102
}
102
{ACAD_REACTORS
330
378
102
}
330
378
100
AcDbVisualStyle
  2
Shaded with edges
 70
    26
 71
     2
 72
     2
 73
     1
 90
        2
 40
-0.6
 41
30.0
 62
     5
 63
     7
421
 16777215
 74
     1
 91
        2
 64
     7
 65
   257
 75
     2
175
     1
 42
1.0
 92
        8
 66
   257
 43
1.0
 76
     1
 77
     6
 78
     2
 67
     7
 79
     3
170
     0
171
     0
290
     0
174
     0
 93
        5
 44
0.0
173
     0
291
     0
 45
0.0
1001
ACAD
1000
AcDbSavedByObjectVersion
1070
     0
  0
VISUALSTYLE
  5
389
102
{ACAD_XDICTIONARY
360
463
102
}
102
{ACAD_REACTORS
330
378
102
}
330
378
100
AcDbVisualStyle
  2
Shades of Gray
 70
    23
 71
     2
 72
     2
 73
     3
 90
        0
 40
-0.6
 41
-30.0
 62
     5
 63
     7
421
 16777215
 74
     2
 91
        2
 64
     7
 65
     7
 75
     1
175
     1
 42
40.0
 92
        8
 66
     7
 43
1.0
 76
     1
 77
     6
 78
     2
 67
     7
 79
     3
170
     0
171
     0
290
     0
174
     0
 93
        1
 44
0.0
173
     0
291
     0
 45
0.0
1001
ACAD
1000
AcDbSavedByObjectVersion
1070
     0
  0
VISUALSTYLE
  5
38A
102
{ACAD_XDICTIONARY
360
465
102
}
102
{ACAD_REACTORS
330
378
102
}
330
378
100
AcDbVisualStyle
  2
Sketchy
 70
    24
 71
     1
 72
     2
 73
     2
 90
        0
 40
-0.6
 41
-30.0
 62
     5
 63
     7
421
 16777215
 74
     2
 91
        2
 64
     7
 65
     7
 75
     1
175
     1
 42
40.0
 92
       11
 66
     7
 43
1.0
 76
     1
 77
     6
 78
     2
 67
     7
 79
     6
170
     0
171
     0
290
     0
174
     0
 93
        1
 44
0.0
173
     0
291
     0
 45
0.0
1001
ACAD
1000
AcDbSavedByObjectVersion
1070
     0
  0
VISUALSTYLE
  5
385
102
{ACAD_XDICTIONARY
360
45B
102
}
102
{ACAD_REACTORS
330
378
102
}
330
378
100
AcDbVisualStyle
  2
Thicken
 70
    13
 71
     2
 72
     2
 73
     0
 90
        0
 40
-0.6
 41
-30.0
 62
     5
 63
     7
421
 16777215
 74
     1
 91
        4
 64
     7
 65
   257
 75
     1
175
     1
 42
1.0
 92
       12
 66
     7
 43
1.0
 76
     1
 77
     6
 78
     2
 67
     7
 79
     5
170
     0
171
     0
290
     0
174
     0
 93
        1
 44
0.0
173
     0
291
     1
 45
0.0
1001
ACAD
1000
AcDbSavedByObjectVersion
1070
     0
  0
VISUALSTYLE
  5
37F
102
{ACAD_XDICTIONARY
360
44F
102
}
102
{ACAD_REACTORS
330
378
102
}
330
378
100
AcDbVisualStyle
  2
Wireframe
 70
     5
 71
     0
 72
     2
 73
     0
 90
        0
 40
-0.6
 41
-30.0
 62
     5
 63
     7
421
 16777215
 74
     1
 91
        4
 64
     7
 65
   257
 75
     1
175
     1
 42
1.0
 92
        0
 66
   257
 43
1.0
 76
     1
 77
     6
 78
     2
 67
     7
 79
     3
170
     0
171
     0
290
     0
174
     0
 93
        1
 44
0.0
173
     0
291
     0
 45
0.0
1001
ACAD
1000
AcDbSavedByObjectVersion
1070
     0
  0
VISUALSTYLE
  5
38B
102
{ACAD_XDICTIONARY
360
467
102
}
102
{ACAD_REACTORS
330
378
102
}
330
378
100
AcDbVisualStyle
  2
X-Ray
 70
    25
 71
     2
 72
     2
 73
     1
 90
        1
 40
0.5
 41
-30.0
 62
     5
 63
     7
421
 16777215
 74
     1
 91
        0
 64
     7
 65
   257
 75
     1
175
     1
 42
1.0
 92
        8
 66
     7
 43
1.0
 76
     1
 77
     6
 78
     2
 67
     7
 79
     3
170
     0
171
     0
290
     0
174
     0
 93
       13
 44
0.0
173
     0
291
     0
 45
0.0
1001
ACAD
1000
AcDbSavedByObjectVersion
1070
     0
  0
DICTIONARYVAR
  5
43B
102
{ACAD_REACTORS
330
435
102
}
330
435
100
DictionaryVariables
280
     0
  1
1:1
  0
DICTIONARYVAR
  5
437
102
{ACAD_REACTORS
330
435
102
}
330
435
100
DictionaryVariables
280
     0
  1
STANDARD
  0
DICTIONARYVAR
  5
436
102
{ACAD_REACTORS
330
435
102
}
330
435
100
DictionaryVariables
280
     0
  1
STANDARD
  0
DICTIONARYVAR
  5
438
102
{ACAD_REACTORS
330
435
102
}
330
435
100
DictionaryVariables
280
     0
  1
Imperial24
  0
DICTIONARYVAR
  5
439
102
{ACAD_REACTORS
330
435
102
}
330
435
100
DictionaryVariables
280
     0
  1
Imperial24
  0
DICTIONARYVAR
  5
43D
102
{ACAD_REACTORS
330
435
102
}
330
435
100
DictionaryVariables
280
     0
  1
1
  0
DICTIONARYVAR
  5
43E
102
{ACAD_REACTORS
330
435
102
}
330
435
100
DictionaryVariables
280
     0
  1
15
  0
DICTIONARYVAR
  5
43C
102
{ACAD_REACTORS
330
435
102
}
330
435
100
DictionaryVariables
280
     0
  1
0
  0
DICTIONARYVAR
  5
43A
102
{ACAD_REACTORS
330
435
102
}
330
435
100
DictionaryVariables
280
     0
  1
0
  0
DICTIONARYVAR
  5
43F
102
{ACAD_REACTORS
330
435
102
}
330
435
100
DictionaryVariables
280
     0
  1
2
  0
DICTIONARY
  5
3E2
102
{ACAD_REACTORS
330
3DB
102
}
330
3DB
100
AcDbDictionary
281
     1
  0
DICTIONARY
  5
476
330
3AB
100
AcDbDictionary
280
     1
281
     1
  3
ACAD_XREC_ROUNDTRIP
360
477
  0
DICTIONARY
  5
369
330
368
100
AcDbDictionary
280
     1
281
     1
  3
BUMPTILE
360
36B
  3
DIFFUSETILE
360
36A
  3
OPACITYTILE
360
36E
  3
REFLECTIONTILE
360
36D
  3
REFRACTIONTILE
360
36F
  3
SPECULARTILE
360
36C
  0
DICTIONARY
  5
361
330
360
100
AcDbDictionary
280
     1
281
     1
  3
BUMPTILE
360
363
  3
DIFFUSETILE
360
362
  3
OPACITYTILE
360
366
  3
REFLECTIONTILE
360
365
  3
REFRACTIONTILE
360
367
  3
SPECULARTILE
360
364
  0
DICTIONARY
  5
371
330
370
100
AcDbDictionary
280
     1
281
     1
  3
BUMPTILE
360
373
  3
DIFFUSETILE
360
372
  3
OPACITYTILE
360
376
  3
REFLECTIONTILE
360
375
  3
REFRACTIONTILE
360
377
  3
SPECULARTILE
360
374
  0
DICTIONARY
  5
474
330
3A9
100
AcDbDictionary
280
     1
281
     1
  3
ACAD_XREC_ROUNDTRIP
360
475
  0
DICTIONARY
  5
440
330
393
100
AcDbDictionary
280
     1
281
     1
  3
ACAD_ROUNDTRIP_2008_TABLESTYLE_CELLSTYLEMAP
360
441
  0
DICTIONARY
  5
44D
330
37E
100
AcDbDictionary
280
     1
281
     1
  3
ACAD_XREC_ROUNDTRIP
360
44E
  0
DICTIONARY
  5
44B
330
37D
100
AcDbDictionary
280
     1
281
     1
  3
ACAD_XREC_ROUNDTRIP
360
44C
  0
DICTIONARY
  5
459
330
384
100
AcDbDictionary
280
     1
281
     1
  3
ACAD_XREC_ROUNDTRIP
360
45A
  0
DICTIONARY
  5
461
330
388
100
AcDbDictionary
280
     1
281
     1
  3
ACAD_XREC_ROUNDTRIP
360
462
  0
DICTIONARY
  5
453
330
381
100
AcDbDictionary
280
     1
281
     1
  3
ACAD_XREC_ROUNDTRIP
360
454
  0
DICTIONARY
  5
457
330
383
100
AcDbDictionary
280
     1
281
     1
  3
ACAD_XREC_ROUNDTRIP
360
458
  0
DICTIONARY
  5
471
330
390
100
AcDbDictionary
280
     1
281
     1
  3
ACAD_XREC_ROUNDTRIP
360
472
  0
DICTIONARY
  5
45F
330
387
100
AcDbDictionary
280
     1
281
     1
  3
ACAD_XREC_ROUNDTRIP
360
460
  0
DICTIONARY
  5
443
330
379
100
AcDbDictionary
280
     1
281
     1
  3
ACAD_XREC_ROUNDTRIP
360
444
  0
DICTIONARY
  5
445
330
37A
100
AcDbDictionary
280
     1
281
     1
  3
ACAD_XREC_ROUNDTRIP
360
446
  0
DICTIONARY
  5
447
330
37B
100
AcDbDictionary
280
     1
281
     1
  3
ACAD_XREC_ROUNDTRIP
360
448
  0
DICTIONARY
  5
449
330
37C
100
AcDbDictionary
280
     1
281
     1
  3
ACAD_XREC_ROUNDTRIP
360
44A
  0
DICTIONARY
  5
451
330
380
100
AcDbDictionary
280
     1
281
     1
  3
ACAD_XREC_ROUNDTRIP
360
452
  0
DICTIONARY
  5
46D
330
38E
100
AcDbDictionary
280
     1
281
     1
  3
ACAD_XREC_ROUNDTRIP
360
46E
  0
DICTIONARY
  5
45D
330
386
100
AcDbDictionary
280
     1
281
     1
  3
ACAD_XREC_ROUNDTRIP
360
45E
  0
DICTIONARY
  5
46F
330
38F
100
AcDbDictionary
280
     1
281
     1
  3
ACAD_XREC_ROUNDTRIP
360
470
  0
DICTIONARY
  5
455
330
382
100
AcDbDictionary
280
     1
281
     1
  3
ACAD_XREC_ROUNDTRIP
360
456
  0
DICTIONARY
  5
46B
330
38D
100
AcDbDictionary
280
     1
281
     1
  3
ACAD_XREC_ROUNDTRIP
360
46C
  0
DICTIONARY
  5
469
330
38C
100
AcDbDictionary
280
     1
281
     1
  3
ACAD_XREC_ROUNDTRIP
360
46A
  0
DICTIONARY
  5
463
330
389
100
AcDbDictionary
280
     1
281
     1
  3
ACAD_XREC_ROUNDTRIP
360
464
  0
DICTIONARY
  5
465
330
38A
100
AcDbDictionary
280
     1
281
     1
  3
ACAD_XREC_ROUNDTRIP
360
466
  0
DICTIONARY
  5
45B
330
385
100
AcDbDictionary
280
     1
281
     1
  3
ACAD_XREC_ROUNDTRIP
360
45C
  0
DICTIONARY
  5
44F
330
37F
100
AcDbDictionary
280
     1
281
     1
  3
ACAD_XREC_ROUNDTRIP
360
450
  0
DICTIONARY
  5
467
330
38B
100
AcDbDictionary
280
     1
281
     1
  3
ACAD_XREC_ROUNDTRIP
360
468
  0
XRECORD
  5
477
102
{ACAD_REACTORS
330
476
102
}
330
476
100
AcDbXrecord
280
     1
102
DISPLAYNAME
  1
Imperial24
102
FLAGS
 90
        0
  0
XRECORD
  5
36B
102
{ACAD_REACTORS
330
369
102
}
330
369
100
AcDbXrecord
280
     1
270
     1
271
     1
  0
XRECORD
  5
36A
102
{ACAD_REACTORS
330
369
102
}
330
369
100
AcDbXrecord
280
     1
270
     1
271
     1
  0
XRECORD
  5
36E
102
{ACAD_REACTORS
330
369
102
}
330
369
100
AcDbXrecord
280
     1
270
     1
271
     1
  0
XRECORD
  5
36D
102
{ACAD_REACTORS
330
369
102
}
330
369
100
AcDbXrecord
280
     1
270
     1
271
     1
  0
XRECORD
  5
36F
102
{ACAD_REACTORS
330
369
102
}
330
369
100
AcDbXrecord
280
     1
270
     1
271
     1
  0
XRECORD
  5
36C
102
{ACAD_REACTORS
330
369
102
}
330
369
100
AcDbXrecord
280
     1
270
     1
271
     1
  0
XRECORD
  5
363
102
{ACAD_REACTORS
330
361
102
}
330
361
100
AcDbXrecord
280
     1
270
     1
271
     1
  0
XRECORD
  5
362
102
{ACAD_REACTORS
330
361
102
}
330
361
100
AcDbXrecord
280
     1
270
     1
271
     1
  0
XRECORD
  5
366
102
{ACAD_REACTORS
330
361
102
}
330
361
100
AcDbXrecord
280
     1
270
     1
271
     1
  0
XRECORD
  5
365
102
{ACAD_REACTORS
330
361
102
}
330
361
100
AcDbXrecord
280
     1
270
     1
271
     1
  0
XRECORD
  5
367
102
{ACAD_REACTORS
330
361
102
}
330
361
100
AcDbXrecord
280
     1
270
     1
271
     1
  0
XRECORD
  5
364
102
{ACAD_REACTORS
330
361
102
}
330
361
100
AcDbXrecord
280
     1
270
     1
271
     1
  0
XRECORD
  5
373
102
{ACAD_REACTORS
330
371
102
}
330
371
100
AcDbXrecord
280
     1
270
     1
271
     1
  0
XRECORD
  5
372
102
{ACAD_REACTORS
330
371
102
}
330
371
100
AcDbXrecord
280
     1
270
     1
271
     1
  0
XRECORD
  5
376
102
{ACAD_REACTORS
330
371
102
}
330
371
100
AcDbXrecord
280
     1
270
     1
271
     1
  0
XRECORD
  5
375
102
{ACAD_REACTORS
330
371
102
}
330
371
100
AcDbXrecord
280
     1
270
     1
271
     1
  0
XRECORD
  5
377
102
{ACAD_REACTORS
330
371
102
}
330
371
100
AcDbXrecord
280
     1
270
     1
271
     1
  0
XRECORD
  5
374
102
{ACAD_REACTORS
330
371
102
}
330
371
100
AcDbXrecord
280
     1
270
     1
271
     1
  0
XRECORD
  5
475
102
{ACAD_REACTORS
330
474
102
}
330
474
100
AcDbXrecord
280
     1
102
DISPLAYNAME
  1
Imperial24
102
FLAGS
 90
        0
  0
CELLSTYLEMAP
  5
441
102
{ACAD_REACTORS
330
440
102
}
330
440
100
AcDbCellStyleMap
 90
        3
300
CELLSTYLE
  1
TABLEFORMAT_BEGIN
 90
        5
170
     1
 91
        0
 92
    32768
 62
   257
 93
        1
300
CONTENTFORMAT
  1
CONTENTFORMAT_BEGIN
 90
        0
 91
        0
 92
      512
 93
        0
300

 40
0.0
140
1.0
 94
        5
 62
     0
340
17
144
0.25
309
CONTENTFORMAT_END
171
     0
 94
        0
309
TABLEFORMAT_END
  1
CELLSTYLE_BEGIN
 90
        1
 91
        1
300
_TITLE
309
CELLSTYLE_END
300
CELLSTYLE
  1
TABLEFORMAT_BEGIN
 90
        5
170
     1
 91
        0
 92
        0
 62
   257
 93
        1
300
CONTENTFORMAT
  1
CONTENTFORMAT_BEGIN
 90
        0
 91
        0
 92
      512
 93
        0
300

 40
0.0
140
1.0
 94
        5
 62
     0
340
17
144
0.18
309
CONTENTFORMAT_END
171
     0
 94
        0
309
TABLEFORMAT_END
  1
CELLSTYLE_BEGIN
 90
        2
 91
        1
300
_HEADER
309
CELLSTYLE_END
300
CELLSTYLE
  1
TABLEFORMAT_BEGIN
 90
        5
170
     1
 91
        0
 92
        0
 62
   257
 93
        1
300
CONTENTFORMAT
  1
CONTENTFORMAT_BEGIN
 90
        0
 91
        0
 92
      512
 93
        0
300

 40
0.0
140
1.0
 94
        2
 62
     0
340
17
144
0.18
309
CONTENTFORMAT_END
171
     0
 94
        0
309
TABLEFORMAT_END
  1
CELLSTYLE_BEGIN
 90
        3
 91
        2
300
_DATA
309
CELLSTYLE_END
  0
XRECORD
  5
44E
102
{ACAD_REACTORS
330
44D
102
}
330
44D
100
AcDbXrecord
280
     1
102
RTVSPost2010Prop28
280
     1
102
RTVSPost2010PropOp28
 70
     1
102
RTVSPost2010Prop29
280
     1
102
RTVSPost2010PropOp29
 70
     1
102
RTVSPost2010Prop30
280
     0
102
RTVSPost2010PropOp30
 70
     1
102
RTVSPost2010Prop31
280
     0
102
RTVSPost2010PropOp31
 70
     1
102
RTVSPost2010Prop32
280
     0
102
RTVSPost2010PropOp32
 70
     1
102
RTVSPost2010Prop33
280
     0
102
RTVSPost2010PropOp33
 70
     1
102
RTVSPost2010Prop34
280
     0
102
RTVSPost2010PropOp34
 70
     1
102
RTVSPost2010Prop35
280
     0
102
RTVSPost2010PropOp35
 70
     1
102
RTVSPost2010Prop36
280
     0
102
RTVSPost2010PropOp36
 70
     1
102
RTVSPost2010Prop37
 90
       50
102
RTVSPost2010PropOp37
 70
     1
102
RTVSPost2010Prop38
140
0.0
102
RTVSPost2010PropOp38
 70
     1
102
RTVSPost2010Prop39
140
1.0
102
RTVSPost2010PropOp39
 70
     1
102
RTVSPost2010Prop40
 90
        0
102
RTVSPost2010PropOp40
 70
     1
102
RTVSPost2010Prop41ColorIndex
 90
       18
102
RTVSPost2010Prop41ColorRGB
 90
        0
102
RTVSPost2010PropOp41
 70
     1
102
RTVSPost2010Prop42
 90
       50
102
RTVSPost2010PropOp42
 70
     1
102
RTVSPost2010Prop43
 90
        3
102
RTVSPost2010PropOp43
 70
     1
102
RTVSPost2010Prop44ColorIndex
 90
        5
102
RTVSPost2010Prop44ColorRGB
 90
      255
102
RTVSPost2010PropOp44
 70
     1
102
RTVSPost2010Prop45
280
     0
102
RTVSPost2010PropOp45
 70
     1
102
RTVSPost2010Prop46
 90
       50
102
RTVSPost2010PropOp46
 70
     1
102
RTVSPost2010Prop47
 90
       50
102
RTVSPost2010PropOp47
 70
     1
102
RTVSPost2010Prop48
 90
       50
102
RTVSPost2010PropOp48
 70
     1
102
RTVSPost2010Prop49
280
     0
102
RTVSPost2010PropOp49
 70
     1
102
RTVSPost2010Prop50
 90
       50
102
RTVSPost2010PropOp50
 70
     1
102
RTVSPost2010Prop51ColorIndex
 90
      256
102
RTVSPost2010Prop51ColorRGB
 90
-16777216
102
RTVSPost2010PropOp51
 70
     0
102
RTVSPost2010Prop52
140
1.0
102
RTVSPost2010PropOp52
 70
     0
102
RTVSPost2010Prop53
 90
        2
102
RTVSPost2010PropOp53
 70
     1
102
RTVSPost2010Prop54
  1
strokes_ogs.tif
102
RTVSPost2010PropOp54
 70
     1
102
RTVSPost2010Prop55
280
     0
102
RTVSPost2010PropOp55
 70
     1
102
RTVSPost2010Prop56
140
1.0
102
RTVSPost2010PropOp56
 70
     1
102
RTVSPost2010Prop57
140
1.0
102
RTVSPost2010PropOp57
 70
     1
102
RTVSPropertyOp0
 70
     1
102
RTVSPropertyOp1
 70
     1
102
RTVSPropertyOp2
 70
     1
102
RTVSPropertyOp3
 70
     1
102
RTVSPropertyOp4
 70
     1
102
RTVSPropertyOp5
 70
     1
102
RTVSPropertyOp6
 70
     1
102
RTVSPropertyOp7
 70
     1
102
RTVSPropertyOp8
 70
     1
102
RTVSPropertyOp9
 70
     1
102
RTVSPropertyOp10
 70
     1
102
RTVSPropertyOp11
 70
     1
102
RTVSPropertyOp12
 70
     1
102
RTVSPropertyOp13
 70
     1
102
RTVSPropertyOp14
 70
     1
102
RTVSPropertyOp15
 70
     1
102
RTVSPropertyOp16
 70
     1
102
RTVSPropertyOp17
 70
     1
102
RTVSPropertyOp18
 70
     1
102
RTVSPropertyOp19
 70
     1
102
RTVSPropertyOp20
 70
     1
102
RTVSPropertyOp21
 70
     1
102
RTVSPropertyOp22
 70
     1
102
RTVSPropertyOp23
 70
     1
102
RTVSPropertyOp24
 70
     1
102
RTVSPropertyOp25
 70
     1
102
RTVSPropertyOp26
 70
     1
102
RTVSPropertyOp27
 70
     1
102
RTVSPropertyOp28
 70
     1
102
RTVSPropertyOp29
 70
     1
102
RTVSPropertyOp30
 70
     1
102
RTVSPropertyOp31
 70
     1
102
RTVSPropertyOp32
 70
     1
102
RTVSPropertyOp33
 70
     1
102
RTVSPropertyOp34
 70
     1
102
RTVSPropertyOp35
 70
     1
102
RTVSPropertyOp36
 70
     1
102
RTVSPropertyOp37
 70
     1
102
RTVSPropertyOp38
 70
     1
102
RTVSPropertyOp39
 70
     1
102
RTVSPropertyOp40
 70
     1
102
RTVSPropertyOp41
 70
     1
102
RTVSPropertyOp42
 70
     1
102
RTVSPropertyOp43
 70
     1
102
RTVSPropertyOp44
 70
     1
102
RTVSPropertyOp45
 70
     1
102
RTVSPropertyOp46
 70
     1
102
RTVSPropertyOp47
 70
     1
102
RTVSPropertyOp48
 70
     1
102
RTVSPropertyOp49
 70
     1
102
RTVSPropertyOp50
 70
     1
102
RTVSPropertyOp51
 70
     0
102
RTVSPropertyOp52
 70
     0
102
RTVSPropertyOp53
 70
     1
102
RTVSPropertyOp54
 70
     1
102
RTVSPropertyOp55
 70
     1
102
RTVSPropertyOp56
 70
     1
102
RTVSPropertyOp57
 70
     1
102
RTVSPropertyOp58
 70
     1
102
RTVSPropertyOp59
 70
     1
102
RTVSPropertyOp60
 70
     1
102
RTVSPropertyOp61
 70
     1
102
RTVSPropertyOp62
 70
     1
  0
XRECORD
  5
44C
102
{ACAD_REACTORS
330
44B
102
}
330
44B
100
AcDbXrecord
280
     1
102
RTVSPost2010Prop28
280
     0
102
RTVSPost2010PropOp28
 70
     1
102
RTVSPost2010Prop29
280
     1
102
RTVSPost2010PropOp29
 70
     1
102
RTVSPost2010Prop30
280
     1
102
RTVSPost2010PropOp30
 70
     1
102
RTVSPost2010Prop31
280
     0
102
RTVSPost2010PropOp31
 70
     1
102
RTVSPost2010Prop32
280
     0
102
RTVSPost2010PropOp32
 70
     1
102
RTVSPost2010Prop33
280
     0
102
RTVSPost2010PropOp33
 70
     1
102
RTVSPost2010Prop34
280
     0
102
RTVSPost2010PropOp34
 70
     1
102
RTVSPost2010Prop35
280
     0
102
RTVSPost2010PropOp35
 70
     1
102
RTVSPost2010Prop36
280
     0
102
RTVSPost2010PropOp36
 70
     1
102
RTVSPost2010Prop37
 90
       50
102
RTVSPost2010PropOp37
 70
     1
102
RTVSPost2010Prop38
140
0.0
102
RTVSPost2010PropOp38
 70
     1
102
RTVSPost2010Prop39
140
1.0
102
RTVSPost2010PropOp39
 70
     1
102
RTVSPost2010Prop40
 90
        0
102
RTVSPost2010PropOp40
 70
     1
102
RTVSPost2010Prop41ColorIndex
 90
       18
102
RTVSPost2010Prop41ColorRGB
 90
        0
102
RTVSPost2010PropOp41
 70
     1
102
RTVSPost2010Prop42
 90
       50
102
RTVSPost2010PropOp42
 70
     1
102
RTVSPost2010Prop43
 90
        3
102
RTVSPost2010PropOp43
 70
     1
102
RTVSPost2010Prop44ColorIndex
 90
        5
102
RTVSPost2010Prop44ColorRGB
 90
      255
102
RTVSPost2010PropOp44
 70
     1
102
RTVSPost2010Prop45
280
     0
102
RTVSPost2010PropOp45
 70
     1
102
RTVSPost2010Prop46
 90
       50
102
RTVSPost2010PropOp46
 70
     1
102
RTVSPost2010Prop47
 90
       50
102
RTVSPost2010PropOp47
 70
     1
102
RTVSPost2010Prop48
 90
       50
102
RTVSPost2010PropOp48
 70
     1
102
RTVSPost2010Prop49
280
     0
102
RTVSPost2010PropOp49
 70
     1
102
RTVSPost2010Prop50
 90
       50
102
RTVSPost2010PropOp50
 70
     1
102
RTVSPost2010Prop51ColorIndex
 90
      256
102
RTVSPost2010Prop51ColorRGB
 90
-16777216
102
RTVSPost2010PropOp51
 70
     0
102
RTVSPost2010Prop52
140
1.0
102
RTVSPost2010PropOp52
 70
     0
102
RTVSPost2010Prop53
 90
        2
102
RTVSPost2010PropOp53
 70
     1
102
RTVSPost2010Prop54
  1
strokes_ogs.tif
102
RTVSPost2010PropOp54
 70
     1
102
RTVSPost2010Prop55
280
     0
102
RTVSPost2010PropOp55
 70
     1
102
RTVSPost2010Prop56
140
1.0
102
RTVSPost2010PropOp56
 70
     1
102
RTVSPost2010Prop57
140
1.0
102
RTVSPost2010PropOp57
 70
     1
102
RTVSPropertyOp0
 70
     1
102
RTVSPropertyOp1
 70
     1
102
RTVSPropertyOp2
 70
     1
102
RTVSPropertyOp3
 70
     1
102
RTVSPropertyOp4
 70
     1
102
RTVSPropertyOp5
 70
     1
102
RTVSPropertyOp6
 70
     1
102
RTVSPropertyOp7
 70
     1
102
RTVSPropertyOp8
 70
     1
102
RTVSPropertyOp9
 70
     1
102
RTVSPropertyOp10
 70
     1
102
RTVSPropertyOp11
 70
     1
102
RTVSPropertyOp12
 70
     1
102
RTVSPropertyOp13
 70
     1
102
RTVSPropertyOp14
 70
     1
102
RTVSPropertyOp15
 70
     1
102
RTVSPropertyOp16
 70
     1
102
RTVSPropertyOp17
 70
     1
102
RTVSPropertyOp18
 70
     1
102
RTVSPropertyOp19
 70
     1
102
RTVSPropertyOp20
 70
     1
102
RTVSPropertyOp21
 70
     1
102
RTVSPropertyOp22
 70
     1
102
RTVSPropertyOp23
 70
     1
102
RTVSPropertyOp24
 70
     1
102
RTVSPropertyOp25
 70
     1
102
RTVSPropertyOp26
 70
     1
102
RTVSPropertyOp27
 70
     1
102
RTVSPropertyOp28
 70
     1
102
RTVSPropertyOp29
 70
     1
102
RTVSPropertyOp30
 70
     1
102
RTVSPropertyOp31
 70
     1
102
RTVSPropertyOp32
 70
     1
102
RTVSPropertyOp33
 70
     1
102
RTVSPropertyOp34
 70
     1
102
RTVSPropertyOp35
 70
     1
102
RTVSPropertyOp36
 70
     1
102
RTVSPropertyOp37
 70
     1
102
RTVSPropertyOp38
 70
     1
102
RTVSPropertyOp39
 70
     1
102
RTVSPropertyOp40
 70
     1
102
RTVSPropertyOp41
 70
     1
102
RTVSPropertyOp42
 70
     1
102
RTVSPropertyOp43
 70
     1
102
RTVSPropertyOp44
 70
     1
102
RTVSPropertyOp45
 70
     1
102
RTVSPropertyOp46
 70
     1
102
RTVSPropertyOp47
 70
     1
102
RTVSPropertyOp48
 70
     1
102
RTVSPropertyOp49
 70
     1
102
RTVSPropertyOp50
 70
     1
102
RTVSPropertyOp51
 70
     0
102
RTVSPropertyOp52
 70
     0
102
RTVSPropertyOp53
 70
     1
102
RTVSPropertyOp54
 70
     1
102
RTVSPropertyOp55
 70
     1
102
RTVSPropertyOp56
 70
     1
102
RTVSPropertyOp57
 70
     1
102
RTVSPropertyOp58
 70
     1
102
RTVSPropertyOp59
 70
     1
102
RTVSPropertyOp60
 70
     1
102
RTVSPropertyOp61
 70
     1
102
RTVSPropertyOp62
 70
     1
  0
XRECORD
  5
45A
102
{ACAD_REACTORS
330
459
102
}
330
459
100
AcDbXrecord
280
     1
102
RTVSPost2010Prop28
280
     0
102
RTVSPost2010PropOp28
 70
     1
102
RTVSPost2010Prop29
280
     1
102
RTVSPost2010PropOp29
 70
     1
102
RTVSPost2010Prop30
280
     1
102
RTVSPost2010PropOp30
 70
     1
102
RTVSPost2010Prop31
280
     0
102
RTVSPost2010PropOp31
 70
     1
102
RTVSPost2010Prop32
280
     0
102
RTVSPost2010PropOp32
 70
     1
102
RTVSPost2010Prop33
280
     0
102
RTVSPost2010PropOp33
 70
     1
102
RTVSPost2010Prop34
280
     0
102
RTVSPost2010PropOp34
 70
     1
102
RTVSPost2010Prop35
280
     0
102
RTVSPost2010PropOp35
 70
     1
102
RTVSPost2010Prop36
280
     0
102
RTVSPost2010PropOp36
 70
     1
102
RTVSPost2010Prop37
 90
       50
102
RTVSPost2010PropOp37
 70
     1
102
RTVSPost2010Prop38
140
0.0
102
RTVSPost2010PropOp38
 70
     1
102
RTVSPost2010Prop39
140
1.0
102
RTVSPost2010PropOp39
 70
     1
102
RTVSPost2010Prop40
 90
        0
102
RTVSPost2010PropOp40
 70
     1
102
RTVSPost2010Prop41ColorIndex
 90
       18
102
RTVSPost2010Prop41ColorRGB
 90
        0
102
RTVSPost2010PropOp41
 70
     1
102
RTVSPost2010Prop42
 90
       50
102
RTVSPost2010PropOp42
 70
     1
102
RTVSPost2010Prop43
 90
        3
102
RTVSPost2010PropOp43
 70
     1
102
RTVSPost2010Prop44ColorIndex
 90
        5
102
RTVSPost2010Prop44ColorRGB
 90
      255
102
RTVSPost2010PropOp44
 70
     1
102
RTVSPost2010Prop45
280
     0
102
RTVSPost2010PropOp45
 70
     1
102
RTVSPost2010Prop46
 90
       50
102
RTVSPost2010PropOp46
 70
     1
102
RTVSPost2010Prop47
 90
       50
102
RTVSPost2010PropOp47
 70
     1
102
RTVSPost2010Prop48
 90
       50
102
RTVSPost2010PropOp48
 70
     1
102
RTVSPost2010Prop49
280
     0
102
RTVSPost2010PropOp49
 70
     1
102
RTVSPost2010Prop50
 90
       50
102
RTVSPost2010PropOp50
 70
     1
102
RTVSPost2010Prop51ColorIndex
 90
      256
102
RTVSPost2010Prop51ColorRGB
 90
-16777216
102
RTVSPost2010PropOp51
 70
     0
102
RTVSPost2010Prop52
140
1.0
102
RTVSPost2010PropOp52
 70
     0
102
RTVSPost2010Prop53
 90
        2
102
RTVSPost2010PropOp53
 70
     1
102
RTVSPost2010Prop54
  1
strokes_ogs.tif
102
RTVSPost2010PropOp54
 70
     1
102
RTVSPost2010Prop55
280
     0
102
RTVSPost2010PropOp55
 70
     1
102
RTVSPost2010Prop56
140
1.0
102
RTVSPost2010PropOp56
 70
     1
102
RTVSPost2010Prop57
140
1.0
102
RTVSPost2010PropOp57
 70
     1
102
RTVSPropertyOp0
 70
     1
102
RTVSPropertyOp1
 70
     1
102
RTVSPropertyOp2
 70
     1
102
RTVSPropertyOp3
 70
     1
102
RTVSPropertyOp4
 70
     1
102
RTVSPropertyOp5
 70
     1
102
RTVSPropertyOp6
 70
     1
102
RTVSPropertyOp7
 70
     1
102
RTVSPropertyOp8
 70
     1
102
RTVSPropertyOp9
 70
     1
102
RTVSPropertyOp10
 70
     1
102
RTVSPropertyOp11
 70
     1
102
RTVSPropertyOp12
 70
     1
102
RTVSPropertyOp13
 70
     1
102
RTVSPropertyOp14
 70
     1
102
RTVSPropertyOp15
 70
     1
102
RTVSPropertyOp16
 70
     1
102
RTVSPropertyOp17
 70
     1
102
RTVSPropertyOp18
 70
     1
102
RTVSPropertyOp19
 70
     1
102
RTVSPropertyOp20
 70
     1
102
RTVSPropertyOp21
 70
     1
102
RTVSPropertyOp22
 70
     1
102
RTVSPropertyOp23
 70
     1
102
RTVSPropertyOp24
 70
     1
102
RTVSPropertyOp25
 70
     1
102
RTVSPropertyOp26
 70
     1
102
RTVSPropertyOp27
 70
     1
102
RTVSPropertyOp28
 70
     1
102
RTVSPropertyOp29
 70
     1
102
RTVSPropertyOp30
 70
     1
102
RTVSPropertyOp31
 70
     1
102
RTVSPropertyOp32
 70
     1
102
RTVSPropertyOp33
 70
     1
102
RTVSPropertyOp34
 70
     1
102
RTVSPropertyOp35
 70
     1
102
RTVSPropertyOp36
 70
     1
102
RTVSPropertyOp37
 70
     1
102
RTVSPropertyOp38
 70
     1
102
RTVSPropertyOp39
 70
     1
102
RTVSPropertyOp40
 70
     1
102
RTVSPropertyOp41
 70
     1
102
RTVSPropertyOp42
 70
     1
102
RTVSPropertyOp43
 70
     1
102
RTVSPropertyOp44
 70
     1
102
RTVSPropertyOp45
 70
     1
102
RTVSPropertyOp46
 70
     1
102
RTVSPropertyOp47
 70
     1
102
RTVSPropertyOp48
 70
     1
102
RTVSPropertyOp49
 70
     1
102
RTVSPropertyOp50
 70
     1
102
RTVSPropertyOp51
 70
     0
102
RTVSPropertyOp52
 70
     0
102
RTVSPropertyOp53
 70
     1
102
RTVSPropertyOp54
 70
     1
102
RTVSPropertyOp55
 70
     1
102
RTVSPropertyOp56
 70
     1
102
RTVSPropertyOp57
 70
     1
102
RTVSPropertyOp58
 70
     1
102
RTVSPropertyOp59
 70
     1
102
RTVSPropertyOp60
 70
     1
102
RTVSPropertyOp61
 70
     1
102
RTVSPropertyOp62
 70
     1
  0
XRECORD
  5
462
102
{ACAD_REACTORS
330
461
102
}
330
461
100
AcDbXrecord
280
     1
102
RTVSPost2010Prop28
280
     0
102
RTVSPost2010PropOp28
 70
     1
102
RTVSPost2010Prop29
280
     1
102
RTVSPost2010PropOp29
 70
     1
102
RTVSPost2010Prop30
280
     1
102
RTVSPost2010PropOp30
 70
     1
102
RTVSPost2010Prop31
280
     0
102
RTVSPost2010PropOp31
 70
     1
102
RTVSPost2010Prop32
280
     0
102
RTVSPost2010PropOp32
 70
     1
102
RTVSPost2010Prop33
280
     0
102
RTVSPost2010PropOp33
 70
     1
102
RTVSPost2010Prop34
280
     0
102
RTVSPost2010PropOp34
 70
     1
102
RTVSPost2010Prop35
280
     0
102
RTVSPost2010PropOp35
 70
     1
102
RTVSPost2010Prop36
280
     0
102
RTVSPost2010PropOp36
 70
     1
102
RTVSPost2010Prop37
 90
       50
102
RTVSPost2010PropOp37
 70
     1
102
RTVSPost2010Prop38
140
0.0
102
RTVSPost2010PropOp38
 70
     1
102
RTVSPost2010Prop39
140
1.0
102
RTVSPost2010PropOp39
 70
     1
102
RTVSPost2010Prop40
 90
        0
102
RTVSPost2010PropOp40
 70
     1
102
RTVSPost2010Prop41ColorIndex
 90
       18
102
RTVSPost2010Prop41ColorRGB
 90
        0
102
RTVSPost2010PropOp41
 70
     1
102
RTVSPost2010Prop42
 90
       50
102
RTVSPost2010PropOp42
 70
     1
102
RTVSPost2010Prop43
 90
        3
102
RTVSPost2010PropOp43
 70
     1
102
RTVSPost2010Prop44ColorIndex
 90
        5
102
RTVSPost2010Prop44ColorRGB
 90
      255
102
RTVSPost2010PropOp44
 70
     1
102
RTVSPost2010Prop45
280
     0
102
RTVSPost2010PropOp45
 70
     1
102
RTVSPost2010Prop46
 90
       50
102
RTVSPost2010PropOp46
 70
     1
102
RTVSPost2010Prop47
 90
       50
102
RTVSPost2010PropOp47
 70
     1
102
RTVSPost2010Prop48
 90
       50
102
RTVSPost2010PropOp48
 70
     1
102
RTVSPost2010Prop49
280
     0
102
RTVSPost2010PropOp49
 70
     1
102
RTVSPost2010Prop50
 90
       50
102
RTVSPost2010PropOp50
 70
     1
102
RTVSPost2010Prop51ColorIndex
 90
      256
102
RTVSPost2010Prop51ColorRGB
 90
-16777216
102
RTVSPost2010PropOp51
 70
     0
102
RTVSPost2010Prop52
140
1.0
102
RTVSPost2010PropOp52
 70
     0
102
RTVSPost2010Prop53
 90
        2
102
RTVSPost2010PropOp53
 70
     1
102
RTVSPost2010Prop54
  1
strokes_ogs.tif
102
RTVSPost2010PropOp54
 70
     1
102
RTVSPost2010Prop55
280
     0
102
RTVSPost2010PropOp55
 70
     1
102
RTVSPost2010Prop56
140
1.0
102
RTVSPost2010PropOp56
 70
     1
102
RTVSPost2010Prop57
140
1.0
102
RTVSPost2010PropOp57
 70
     1
102
RTVSPropertyOp0
 70
     1
102
RTVSPropertyOp1
 70
     1
102
RTVSPropertyOp2
 70
     1
102
RTVSPropertyOp3
 70
     1
102
RTVSPropertyOp4
 70
     1
102
RTVSPropertyOp5
 70
     1
102
RTVSPropertyOp6
 70
     1
102
RTVSPropertyOp7
 70
     1
102
RTVSPropertyOp8
 70
     1
102
RTVSPropertyOp9
 70
     1
102
RTVSPropertyOp10
 70
     1
102
RTVSPropertyOp11
 70
     1
102
RTVSPropertyOp12
 70
     1
102
RTVSPropertyOp13
 70
     1
102
RTVSPropertyOp14
 70
     1
102
RTVSPropertyOp15
 70
     1
102
RTVSPropertyOp16
 70
     1
102
RTVSPropertyOp17
 70
     1
102
RTVSPropertyOp18
 70
     1
102
RTVSPropertyOp19
 70
     1
102
RTVSPropertyOp20
 70
     1
102
RTVSPropertyOp21
 70
     1
102
RTVSPropertyOp22
 70
     1
102
RTVSPropertyOp23
 70
     1
102
RTVSPropertyOp24
 70
     1
102
RTVSPropertyOp25
 70
     1
102
RTVSPropertyOp26
 70
     1
102
RTVSPropertyOp27
 70
     1
102
RTVSPropertyOp28
 70
     1
102
RTVSPropertyOp29
 70
     1
102
RTVSPropertyOp30
 70
     1
102
RTVSPropertyOp31
 70
     1
102
RTVSPropertyOp32
 70
     1
102
RTVSPropertyOp33
 70
     1
102
RTVSPropertyOp34
 70
     1
102
RTVSPropertyOp35
 70
     1
102
RTVSPropertyOp36
 70
     1
102
RTVSPropertyOp37
 70
     1
102
RTVSPropertyOp38
 70
     1
102
RTVSPropertyOp39
 70
     1
102
RTVSPropertyOp40
 70
     1
102
RTVSPropertyOp41
 70
     1
102
RTVSPropertyOp42
 70
     1
102
RTVSPropertyOp43
 70
     1
102
RTVSPropertyOp44
 70
     1
102
RTVSPropertyOp45
 70
     1
102
RTVSPropertyOp46
 70
     1
102
RTVSPropertyOp47
 70
     1
102
RTVSPropertyOp48
 70
     1
102
RTVSPropertyOp49
 70
     1
102
RTVSPropertyOp50
 70
     1
102
RTVSPropertyOp51
 70
     0
102
RTVSPropertyOp52
 70
     0
102
RTVSPropertyOp53
 70
     1
102
RTVSPropertyOp54
 70
     1
102
RTVSPropertyOp55
 70
     1
102
RTVSPropertyOp56
 70
     1
102
RTVSPropertyOp57
 70
     1
102
RTVSPropertyOp58
 70
     1
102
RTVSPropertyOp59
 70
     1
102
RTVSPropertyOp60
 70
     1
102
RTVSPropertyOp61
 70
     1
102
RTVSPropertyOp62
 70
     1
  0
XRECORD
  5
454
102
{ACAD_REACTORS
330
453
102
}
330
453
100
AcDbXrecord
280
     1
102
RTVSPost2010Prop28
280
     0
102
RTVSPost2010PropOp28
 70
     1
102
RTVSPost2010Prop29
280
     1
102
RTVSPost2010PropOp29
 70
     1
102
RTVSPost2010Prop30
280
     1
102
RTVSPost2010PropOp30
 70
     1
102
RTVSPost2010Prop31
280
     0
102
RTVSPost2010PropOp31
 70
     1
102
RTVSPost2010Prop32
280
     0
102
RTVSPost2010PropOp32
 70
     1
102
RTVSPost2010Prop33
280
     0
102
RTVSPost2010PropOp33
 70
     1
102
RTVSPost2010Prop34
280
     0
102
RTVSPost2010PropOp34
 70
     1
102
RTVSPost2010Prop35
280
     0
102
RTVSPost2010PropOp35
 70
     1
102
RTVSPost2010Prop36
280
     0
102
RTVSPost2010PropOp36
 70
     1
102
RTVSPost2010Prop37
 90
       50
102
RTVSPost2010PropOp37
 70
     1
102
RTVSPost2010Prop38
140
0.0
102
RTVSPost2010PropOp38
 70
     1
102
RTVSPost2010Prop39
140
1.0
102
RTVSPost2010PropOp39
 70
     1
102
RTVSPost2010Prop40
 90
        0
102
RTVSPost2010PropOp40
 70
     1
102
RTVSPost2010Prop41ColorIndex
 90
       18
102
RTVSPost2010Prop41ColorRGB
 90
        0
102
RTVSPost2010PropOp41
 70
     1
102
RTVSPost2010Prop42
 90
       50
102
RTVSPost2010PropOp42
 70
     1
102
RTVSPost2010Prop43
 90
        3
102
RTVSPost2010PropOp43
 70
     1
102
RTVSPost2010Prop44ColorIndex
 90
        5
102
RTVSPost2010Prop44ColorRGB
 90
      255
102
RTVSPost2010PropOp44
 70
     1
102
RTVSPost2010Prop45
280
     0
102
RTVSPost2010PropOp45
 70
     1
102
RTVSPost2010Prop46
 90
       50
102
RTVSPost2010PropOp46
 70
     1
102
RTVSPost2010Prop47
 90
       50
102
RTVSPost2010PropOp47
 70
     1
102
RTVSPost2010Prop48
 90
       50
102
RTVSPost2010PropOp48
 70
     1
102
RTVSPost2010Prop49
280
     0
102
RTVSPost2010PropOp49
 70
     1
102
RTVSPost2010Prop50
 90
       50
102
RTVSPost2010PropOp50
 70
     1
102
RTVSPost2010Prop51ColorIndex
 90
      256
102
RTVSPost2010Prop51ColorRGB
 90
-16777216
102
RTVSPost2010PropOp51
 70
     0
102
RTVSPost2010Prop52
140
1.0
102
RTVSPost2010PropOp52
 70
     0
102
RTVSPost2010Prop53
 90
        2
102
RTVSPost2010PropOp53
 70
     1
102
RTVSPost2010Prop54
  1
strokes_ogs.tif
102
RTVSPost2010PropOp54
 70
     1
102
RTVSPost2010Prop55
280
     0
102
RTVSPost2010PropOp55
 70
     1
102
RTVSPost2010Prop56
140
1.0
102
RTVSPost2010PropOp56
 70
     1
102
RTVSPost2010Prop57
140
1.0
102
RTVSPost2010PropOp57
 70
     1
102
RTVSPropertyOp0
 70
     1
102
RTVSPropertyOp1
 70
     1
102
RTVSPropertyOp2
 70
     1
102
RTVSPropertyOp3
 70
     1
102
RTVSPropertyOp4
 70
     1
102
RTVSPropertyOp5
 70
     1
102
RTVSPropertyOp6
 70
     1
102
RTVSPropertyOp7
 70
     1
102
RTVSPropertyOp8
 70
     1
102
RTVSPropertyOp9
 70
     1
102
RTVSPropertyOp10
 70
     1
102
RTVSPropertyOp11
 70
     1
102
RTVSPropertyOp12
 70
     1
102
RTVSPropertyOp13
 70
     1
102
RTVSPropertyOp14
 70
     1
102
RTVSPropertyOp15
 70
     1
102
RTVSPropertyOp16
 70
     1
102
RTVSPropertyOp17
 70
     1
102
RTVSPropertyOp18
 70
     1
102
RTVSPropertyOp19
 70
     1
102
RTVSPropertyOp20
 70
     1
102
RTVSPropertyOp21
 70
     1
102
RTVSPropertyOp22
 70
     1
102
RTVSPropertyOp23
 70
     1
102
RTVSPropertyOp24
 70
     1
102
RTVSPropertyOp25
 70
     1
102
RTVSPropertyOp26
 70
     1
102
RTVSPropertyOp27
 70
     1
102
RTVSPropertyOp28
 70
     1
102
RTVSPropertyOp29
 70
     1
102
RTVSPropertyOp30
 70
     1
102
RTVSPropertyOp31
 70
     1
102
RTVSPropertyOp32
 70
     1
102
RTVSPropertyOp33
 70
     1
102
RTVSPropertyOp34
 70
     1
102
RTVSPropertyOp35
 70
     1
102
RTVSPropertyOp36
 70
     1
102
RTVSPropertyOp37
 70
     1
102
RTVSPropertyOp38
 70
     1
102
RTVSPropertyOp39
 70
     1
102
RTVSPropertyOp40
 70
     1
102
RTVSPropertyOp41
 70
     1
102
RTVSPropertyOp42
 70
     1
102
RTVSPropertyOp43
 70
     1
102
RTVSPropertyOp44
 70
     1
102
RTVSPropertyOp45
 70
     1
102
RTVSPropertyOp46
 70
     1
102
RTVSPropertyOp47
 70
     1
102
RTVSPropertyOp48
 70
     1
102
RTVSPropertyOp49
 70
     1
102
RTVSPropertyOp50
 70
     1
102
RTVSPropertyOp51
 70
     0
102
RTVSPropertyOp52
 70
     0
102
RTVSPropertyOp53
 70
     1
102
RTVSPropertyOp54
 70
     1
102
RTVSPropertyOp55
 70
     1
102
RTVSPropertyOp56
 70
     1
102
RTVSPropertyOp57
 70
     1
102
RTVSPropertyOp58
 70
     1
102
RTVSPropertyOp59
 70
     1
102
RTVSPropertyOp60
 70
     1
102
RTVSPropertyOp61
 70
     1
102
RTVSPropertyOp62
 70
     1
  0
XRECORD
  5
458
102
{ACAD_REACTORS
330
457
102
}
330
457
100
AcDbXrecord
280
     1
102
RTVSPost2010Prop28
280
     0
102
RTVSPost2010PropOp28
 70
     1
102
RTVSPost2010Prop29
280
     1
102
RTVSPost2010PropOp29
 70
     1
102
RTVSPost2010Prop30
280
     1
102
RTVSPost2010PropOp30
 70
     1
102
RTVSPost2010Prop31
280
     0
102
RTVSPost2010PropOp31
 70
     1
102
RTVSPost2010Prop32
280
     0
102
RTVSPost2010PropOp32
 70
     1
102
RTVSPost2010Prop33
280
     0
102
RTVSPost2010PropOp33
 70
     1
102
RTVSPost2010Prop34
280
     0
102
RTVSPost2010PropOp34
 70
     1
102
RTVSPost2010Prop35
280
     0
102
RTVSPost2010PropOp35
 70
     1
102
RTVSPost2010Prop36
280
     0
102
RTVSPost2010PropOp36
 70
     1
102
RTVSPost2010Prop37
 90
       50
102
RTVSPost2010PropOp37
 70
     1
102
RTVSPost2010Prop38
140
0.0
102
RTVSPost2010PropOp38
 70
     1
102
RTVSPost2010Prop39
140
1.0
102
RTVSPost2010PropOp39
 70
     1
102
RTVSPost2010Prop40
 90
        0
102
RTVSPost2010PropOp40
 70
     1
102
RTVSPost2010Prop41ColorIndex
 90
       18
102
RTVSPost2010Prop41ColorRGB
 90
        0
102
RTVSPost2010PropOp41
 70
     1
102
RTVSPost2010Prop42
 90
       50
102
RTVSPost2010PropOp42
 70
     1
102
RTVSPost2010Prop43
 90
        3
102
RTVSPost2010PropOp43
 70
     1
102
RTVSPost2010Prop44ColorIndex
 90
        5
102
RTVSPost2010Prop44ColorRGB
 90
      255
102
RTVSPost2010PropOp44
 70
     1
102
RTVSPost2010Prop45
280
     0
102
RTVSPost2010PropOp45
 70
     1
102
RTVSPost2010Prop46
 90
       50
102
RTVSPost2010PropOp46
 70
     1
102
RTVSPost2010Prop47
 90
       50
102
RTVSPost2010PropOp47
 70
     1
102
RTVSPost2010Prop48
 90
       50
102
RTVSPost2010PropOp48
 70
     1
102
RTVSPost2010Prop49
280
     0
102
RTVSPost2010PropOp49
 70
     1
102
RTVSPost2010Prop50
 90
       50
102
RTVSPost2010PropOp50
 70
     1
102
RTVSPost2010Prop51ColorIndex
 90
      256
102
RTVSPost2010Prop51ColorRGB
 90
-16777216
102
RTVSPost2010PropOp51
 70
     0
102
RTVSPost2010Prop52
140
1.0
102
RTVSPost2010PropOp52
 70
     0
102
RTVSPost2010Prop53
 90
        2
102
RTVSPost2010PropOp53
 70
     1
102
RTVSPost2010Prop54
  1
strokes_ogs.tif
102
RTVSPost2010PropOp54
 70
     1
102
RTVSPost2010Prop55
280
     0
102
RTVSPost2010PropOp55
 70
     1
102
RTVSPost2010Prop56
140
1.0
102
RTVSPost2010PropOp56
 70
     1
102
RTVSPost2010Prop57
140
1.0
102
RTVSPost2010PropOp57
 70
     1
102
RTVSPropertyOp0
 70
     1
102
RTVSPropertyOp1
 70
     1
102
RTVSPropertyOp2
 70
     1
102
RTVSPropertyOp3
 70
     1
102
RTVSPropertyOp4
 70
     1
102
RTVSPropertyOp5
 70
     1
102
RTVSPropertyOp6
 70
     1
102
RTVSPropertyOp7
 70
     1
102
RTVSPropertyOp8
 70
     1
102
RTVSPropertyOp9
 70
     1
102
RTVSPropertyOp10
 70
     1
102
RTVSPropertyOp11
 70
     1
102
RTVSPropertyOp12
 70
     1
102
RTVSPropertyOp13
 70
     1
102
RTVSPropertyOp14
 70
     1
102
RTVSPropertyOp15
 70
     1
102
RTVSPropertyOp16
 70
     1
102
RTVSPropertyOp17
 70
     1
102
RTVSPropertyOp18
 70
     1
102
RTVSPropertyOp19
 70
     1
102
RTVSPropertyOp20
 70
     1
102
RTVSPropertyOp21
 70
     1
102
RTVSPropertyOp22
 70
     1
102
RTVSPropertyOp23
 70
     1
102
RTVSPropertyOp24
 70
     1
102
RTVSPropertyOp25
 70
     1
102
RTVSPropertyOp26
 70
     1
102
RTVSPropertyOp27
 70
     1
102
RTVSPropertyOp28
 70
     1
102
RTVSPropertyOp29
 70
     1
102
RTVSPropertyOp30
 70
     1
102
RTVSPropertyOp31
 70
     1
102
RTVSPropertyOp32
 70
     1
102
RTVSPropertyOp33
 70
     1
102
RTVSPropertyOp34
 70
     1
102
RTVSPropertyOp35
 70
     1
102
RTVSPropertyOp36
 70
     1
102
RTVSPropertyOp37
 70
     1
102
RTVSPropertyOp38
 70
     1
102
RTVSPropertyOp39
 70
     1
102
RTVSPropertyOp40
 70
     1
102
RTVSPropertyOp41
 70
     1
102
RTVSPropertyOp42
 70
     1
102
RTVSPropertyOp43
 70
     1
102
RTVSPropertyOp44
 70
     1
102
RTVSPropertyOp45
 70
     1
102
RTVSPropertyOp46
 70
     1
102
RTVSPropertyOp47
 70
     1
102
RTVSPropertyOp48
 70
     1
102
RTVSPropertyOp49
 70
     1
102
RTVSPropertyOp50
 70
     1
102
RTVSPropertyOp51
 70
     0
102
RTVSPropertyOp52
 70
     0
102
RTVSPropertyOp53
 70
     1
102
RTVSPropertyOp54
 70
     1
102
RTVSPropertyOp55
 70
     1
102
RTVSPropertyOp56
 70
     1
102
RTVSPropertyOp57
 70
     1
102
RTVSPropertyOp58
 70
     1
102
RTVSPropertyOp59
 70
     1
102
RTVSPropertyOp60
 70
     1
102
RTVSPropertyOp61
 70
     1
102
RTVSPropertyOp62
 70
     1
  0
XRECORD
  5
472
102
{ACAD_REACTORS
330
471
102
}
330
471
100
AcDbXrecord
280
     1
102
RTVSPost2010Prop28
280
     0
102
RTVSPost2010PropOp28
 70
     1
102
RTVSPost2010Prop29
280
     1
102
RTVSPost2010PropOp29
 70
     1
102
RTVSPost2010Prop30
280
     1
102
RTVSPost2010PropOp30
 70
     1
102
RTVSPost2010Prop31
280
     0
102
RTVSPost2010PropOp31
 70
     1
102
RTVSPost2010Prop32
280
     0
102
RTVSPost2010PropOp32
 70
     1
102
RTVSPost2010Prop33
280
     0
102
RTVSPost2010PropOp33
 70
     1
102
RTVSPost2010Prop34
280
     0
102
RTVSPost2010PropOp34
 70
     1
102
RTVSPost2010Prop35
280
     0
102
RTVSPost2010PropOp35
 70
     1
102
RTVSPost2010Prop36
280
     0
102
RTVSPost2010PropOp36
 70
     1
102
RTVSPost2010Prop37
 90
       50
102
RTVSPost2010PropOp37
 70
     0
102
RTVSPost2010Prop38
140
0.0
102
RTVSPost2010PropOp38
 70
     0
102
RTVSPost2010Prop39
140
1.0
102
RTVSPost2010PropOp39
 70
     0
102
RTVSPost2010Prop40
 90
        0
102
RTVSPost2010PropOp40
 70
     0
102
RTVSPost2010Prop41ColorIndex
 90
       18
102
RTVSPost2010Prop41ColorRGB
 90
        0
102
RTVSPost2010PropOp41
 70
     0
102
RTVSPost2010Prop42
 90
       50
102
RTVSPost2010PropOp42
 70
     0
102
RTVSPost2010Prop43
 90
        3
102
RTVSPost2010PropOp43
 70
     0
102
RTVSPost2010Prop44ColorIndex
 90
        5
102
RTVSPost2010Prop44ColorRGB
 90
      255
102
RTVSPost2010PropOp44
 70
     0
102
RTVSPost2010Prop45
280
     0
102
RTVSPost2010PropOp45
 70
     1
102
RTVSPost2010Prop46
 90
       50
102
RTVSPost2010PropOp46
 70
     0
102
RTVSPost2010Prop47
 90
       50
102
RTVSPost2010PropOp47
 70
     0
102
RTVSPost2010Prop48
 90
       50
102
RTVSPost2010PropOp48
 70
     0
102
RTVSPost2010Prop49
280
     0
102
RTVSPost2010PropOp49
 70
     1
102
RTVSPost2010Prop50
 90
       50
102
RTVSPost2010PropOp50
 70
     0
102
RTVSPost2010Prop51ColorIndex
 90
      256
102
RTVSPost2010Prop51ColorRGB
 90
-16777216
102
RTVSPost2010PropOp51
 70
     0
102
RTVSPost2010Prop52
140
1.0
102
RTVSPost2010PropOp52
 70
     0
102
RTVSPost2010Prop53
 90
        2
102
RTVSPost2010PropOp53
 70
     0
102
RTVSPost2010Prop54
  1
strokes_ogs.tif
102
RTVSPost2010PropOp54
 70
     0
102
RTVSPost2010Prop55
280
     0
102
RTVSPost2010PropOp55
 70
     1
102
RTVSPost2010Prop56
140
1.0
102
RTVSPost2010PropOp56
 70
     0
102
RTVSPost2010Prop57
140
1.0
102
RTVSPost2010PropOp57
 70
     0
102
RTVSPropertyOp0
 70
     0
102
RTVSPropertyOp1
 70
     0
102
RTVSPropertyOp2
 70
     0
102
RTVSPropertyOp3
 70
     0
102
RTVSPropertyOp4
 70
     0
102
RTVSPropertyOp5
 70
     0
102
RTVSPropertyOp6
 70
     0
102
RTVSPropertyOp7
 70
     0
102
RTVSPropertyOp8
 70
     0
102
RTVSPropertyOp9
 70
     0
102
RTVSPropertyOp10
 70
     0
102
RTVSPropertyOp11
 70
     0
102
RTVSPropertyOp12
 70
     0
102
RTVSPropertyOp13
 70
     0
102
RTVSPropertyOp14
 70
     2
102
RTVSPropertyOp15
 70
     0
102
RTVSPropertyOp16
 70
     0
102
RTVSPropertyOp17
 70
     0
102
RTVSPropertyOp18
 70
     0
102
RTVSPropertyOp19
 70
     0
102
RTVSPropertyOp20
 70
     0
102
RTVSPropertyOp21
 70
     0
102
RTVSPropertyOp22
 70
     0
102
RTVSPropertyOp23
 70
     0
102
RTVSPropertyOp24
 70
     0
102
RTVSPropertyOp25
 70
     0
102
RTVSPropertyOp26
 70
     0
102
RTVSPropertyOp27
 70
     0
102
RTVSPropertyOp28
 70
     1
102
RTVSPropertyOp29
 70
     1
102
RTVSPropertyOp30
 70
     1
102
RTVSPropertyOp31
 70
     1
102
RTVSPropertyOp32
 70
     1
102
RTVSPropertyOp33
 70
     1
102
RTVSPropertyOp34
 70
     1
102
RTVSPropertyOp35
 70
     1
102
RTVSPropertyOp36
 70
     1
102
RTVSPropertyOp37
 70
     0
102
RTVSPropertyOp38
 70
     0
102
RTVSPropertyOp39
 70
     0
102
RTVSPropertyOp40
 70
     0
102
RTVSPropertyOp41
 70
     0
102
RTVSPropertyOp42
 70
     0
102
RTVSPropertyOp43
 70
     0
102
RTVSPropertyOp44
 70
     0
102
RTVSPropertyOp45
 70
     1
102
RTVSPropertyOp46
 70
     0
102
RTVSPropertyOp47
 70
     0
102
RTVSPropertyOp48
 70
     0
102
RTVSPropertyOp49
 70
     1
102
RTVSPropertyOp50
 70
     0
102
RTVSPropertyOp51
 70
     0
102
RTVSPropertyOp52
 70
     0
102
RTVSPropertyOp53
 70
     0
102
RTVSPropertyOp54
 70
     0
102
RTVSPropertyOp55
 70
     1
102
RTVSPropertyOp56
 70
     0
102
RTVSPropertyOp57
 70
     0
102
RTVSPropertyOp58
 70
     0
102
RTVSPropertyOp59
 70
     0
102
RTVSPropertyOp60
 70
     0
102
RTVSPropertyOp61
 70
     0
102
RTVSPropertyOp62
 70
     0
  0
XRECORD
  5
460
102
{ACAD_REACTORS
330
45F
102
}
330
45F
100
AcDbXrecord
280
     1
102
RTVSPost2010Prop28
280
     0
102
RTVSPost2010PropOp28
 70
     1
102
RTVSPost2010Prop29
280
     1
102
RTVSPost2010PropOp29
 70
     1
102
RTVSPost2010Prop30
280
     1
102
RTVSPost2010PropOp30
 70
     1
102
RTVSPost2010Prop31
280
     0
102
RTVSPost2010PropOp31
 70
     1
102
RTVSPost2010Prop32
280
     0
102
RTVSPost2010PropOp32
 70
     1
102
RTVSPost2010Prop33
280
     0
102
RTVSPost2010PropOp33
 70
     1
102
RTVSPost2010Prop34
280
     0
102
RTVSPost2010PropOp34
 70
     1
102
RTVSPost2010Prop35
280
     0
102
RTVSPost2010PropOp35
 70
     1
102
RTVSPost2010Prop36
280
     0
102
RTVSPost2010PropOp36
 70
     1
102
RTVSPost2010Prop37
 90
       50
102
RTVSPost2010PropOp37
 70
     1
102
RTVSPost2010Prop38
140
0.0
102
RTVSPost2010PropOp38
 70
     1
102
RTVSPost2010Prop39
140
1.0
102
RTVSPost2010PropOp39
 70
     1
102
RTVSPost2010Prop40
 90
        0
102
RTVSPost2010PropOp40
 70
     1
102
RTVSPost2010Prop41ColorIndex
 90
       18
102
RTVSPost2010Prop41ColorRGB
 90
        0
102
RTVSPost2010PropOp41
 70
     1
102
RTVSPost2010Prop42
 90
       50
102
RTVSPost2010PropOp42
 70
     1
102
RTVSPost2010Prop43
 90
        3
102
RTVSPost2010PropOp43
 70
     1
102
RTVSPost2010Prop44ColorIndex
 90
        5
102
RTVSPost2010Prop44ColorRGB
 90
      255
102
RTVSPost2010PropOp44
 70
     1
102
RTVSPost2010Prop45
280
     0
102
RTVSPost2010PropOp45
 70
     1
102
RTVSPost2010Prop46
 90
       50
102
RTVSPost2010PropOp46
 70
     1
102
RTVSPost2010Prop47
 90
       50
102
RTVSPost2010PropOp47
 70
     1
102
RTVSPost2010Prop48
 90
       50
102
RTVSPost2010PropOp48
 70
     1
102
RTVSPost2010Prop49
280
     0
102
RTVSPost2010PropOp49
 70
     1
102
RTVSPost2010Prop50
 90
       50
102
RTVSPost2010PropOp50
 70
     1
102
RTVSPost2010Prop51ColorIndex
 90
      256
102
RTVSPost2010Prop51ColorRGB
 90
-16777216
102
RTVSPost2010PropOp51
 70
     0
102
RTVSPost2010Prop52
140
1.0
102
RTVSPost2010PropOp52
 70
     0
102
RTVSPost2010Prop53
 90
        2
102
RTVSPost2010PropOp53
 70
     1
102
RTVSPost2010Prop54
  1
strokes_ogs.tif
102
RTVSPost2010PropOp54
 70
     1
102
RTVSPost2010Prop55
280
     0
102
RTVSPost2010PropOp55
 70
     1
102
RTVSPost2010Prop56
140
1.0
102
RTVSPost2010PropOp56
 70
     1
102
RTVSPost2010Prop57
140
1.0
102
RTVSPost2010PropOp57
 70
     1
102
RTVSPropertyOp0
 70
     1
102
RTVSPropertyOp1
 70
     1
102
RTVSPropertyOp2
 70
     1
102
RTVSPropertyOp3
 70
     1
102
RTVSPropertyOp4
 70
     1
102
RTVSPropertyOp5
 70
     1
102
RTVSPropertyOp6
 70
     1
102
RTVSPropertyOp7
 70
     1
102
RTVSPropertyOp8
 70
     1
102
RTVSPropertyOp9
 70
     1
102
RTVSPropertyOp10
 70
     1
102
RTVSPropertyOp11
 70
     1
102
RTVSPropertyOp12
 70
     1
102
RTVSPropertyOp13
 70
     1
102
RTVSPropertyOp14
 70
     1
102
RTVSPropertyOp15
 70
     1
102
RTVSPropertyOp16
 70
     1
102
RTVSPropertyOp17
 70
     1
102
RTVSPropertyOp18
 70
     1
102
RTVSPropertyOp19
 70
     1
102
RTVSPropertyOp20
 70
     1
102
RTVSPropertyOp21
 70
     1
102
RTVSPropertyOp22
 70
     1
102
RTVSPropertyOp23
 70
     1
102
RTVSPropertyOp24
 70
     1
102
RTVSPropertyOp25
 70
     1
102
RTVSPropertyOp26
 70
     1
102
RTVSPropertyOp27
 70
     1
102
RTVSPropertyOp28
 70
     1
102
RTVSPropertyOp29
 70
     1
102
RTVSPropertyOp30
 70
     1
102
RTVSPropertyOp31
 70
     1
102
RTVSPropertyOp32
 70
     1
102
RTVSPropertyOp33
 70
     1
102
RTVSPropertyOp34
 70
     1
102
RTVSPropertyOp35
 70
     1
102
RTVSPropertyOp36
 70
     1
102
RTVSPropertyOp37
 70
     1
102
RTVSPropertyOp38
 70
     1
102
RTVSPropertyOp39
 70
     1
102
RTVSPropertyOp40
 70
     1
102
RTVSPropertyOp41
 70
     1
102
RTVSPropertyOp42
 70
     1
102
RTVSPropertyOp43
 70
     1
102
RTVSPropertyOp44
 70
     1
102
RTVSPropertyOp45
 70
     1
102
RTVSPropertyOp46
 70
     1
102
RTVSPropertyOp47
 70
     1
102
RTVSPropertyOp48
 70
     1
102
RTVSPropertyOp49
 70
     1
102
RTVSPropertyOp50
 70
     1
102
RTVSPropertyOp51
 70
     0
102
RTVSPropertyOp52
 70
     0
102
RTVSPropertyOp53
 70
     1
102
RTVSPropertyOp54
 70
     1
102
RTVSPropertyOp55
 70
     1
102
RTVSPropertyOp56
 70
     1
102
RTVSPropertyOp57
 70
     1
102
RTVSPropertyOp58
 70
     1
102
RTVSPropertyOp59
 70
     1
102
RTVSPropertyOp60
 70
     1
102
RTVSPropertyOp61
 70
     1
102
RTVSPropertyOp62
 70
     1
  0
XRECORD
  5
444
102
{ACAD_REACTORS
330
443
102
}
330
443
100
AcDbXrecord
280
     1
102
RTVSPost2010Prop28
280
     0
102
RTVSPost2010PropOp28
 70
     1
102
RTVSPost2010Prop29
280
     1
102
RTVSPost2010PropOp29
 70
     1
102
RTVSPost2010Prop30
280
     1
102
RTVSPost2010PropOp30
 70
     1
102
RTVSPost2010Prop31
280
     0
102
RTVSPost2010PropOp31
 70
     1
102
RTVSPost2010Prop32
280
     0
102
RTVSPost2010PropOp32
 70
     1
102
RTVSPost2010Prop33
280
     0
102
RTVSPost2010PropOp33
 70
     1
102
RTVSPost2010Prop34
280
     0
102
RTVSPost2010PropOp34
 70
     1
102
RTVSPost2010Prop35
280
     0
102
RTVSPost2010PropOp35
 70
     1
102
RTVSPost2010Prop36
280
     0
102
RTVSPost2010PropOp36
 70
     1
102
RTVSPost2010Prop37
 90
       50
102
RTVSPost2010PropOp37
 70
     1
102
RTVSPost2010Prop38
140
0.0
102
RTVSPost2010PropOp38
 70
     1
102
RTVSPost2010Prop39
140
1.0
102
RTVSPost2010PropOp39
 70
     1
102
RTVSPost2010Prop40
 90
        0
102
RTVSPost2010PropOp40
 70
     1
102
RTVSPost2010Prop41ColorIndex
 90
       18
102
RTVSPost2010Prop41ColorRGB
 90
        0
102
RTVSPost2010PropOp41
 70
     1
102
RTVSPost2010Prop42
 90
       50
102
RTVSPost2010PropOp42
 70
     1
102
RTVSPost2010Prop43
 90
        3
102
RTVSPost2010PropOp43
 70
     1
102
RTVSPost2010Prop44ColorIndex
 90
        5
102
RTVSPost2010Prop44ColorRGB
 90
      255
102
RTVSPost2010PropOp44
 70
     1
102
RTVSPost2010Prop45
280
     0
102
RTVSPost2010PropOp45
 70
     1
102
RTVSPost2010Prop46
 90
       50
102
RTVSPost2010PropOp46
 70
     1
102
RTVSPost2010Prop47
 90
       50
102
RTVSPost2010PropOp47
 70
     1
102
RTVSPost2010Prop48
 90
       50
102
RTVSPost2010PropOp48
 70
     1
102
RTVSPost2010Prop49
280
     0
102
RTVSPost2010PropOp49
 70
     1
102
RTVSPost2010Prop50
 90
       50
102
RTVSPost2010PropOp50
 70
     1
102
RTVSPost2010Prop51ColorIndex
 90
      256
102
RTVSPost2010Prop51ColorRGB
 90
-16777216
102
RTVSPost2010PropOp51
 70
     0
102
RTVSPost2010Prop52
140
1.0
102
RTVSPost2010PropOp52
 70
     0
102
RTVSPost2010Prop53
 90
        2
102
RTVSPost2010PropOp53
 70
     1
102
RTVSPost2010Prop54
  1
strokes_ogs.tif
102
RTVSPost2010PropOp54
 70
     1
102
RTVSPost2010Prop55
280
     0
102
RTVSPost2010PropOp55
 70
     1
102
RTVSPost2010Prop56
140
1.0
102
RTVSPost2010PropOp56
 70
     1
102
RTVSPost2010Prop57
140
1.0
102
RTVSPost2010PropOp57
 70
     1
102
RTVSPropertyOp0
 70
     1
102
RTVSPropertyOp1
 70
     1
102
RTVSPropertyOp2
 70
     1
102
RTVSPropertyOp3
 70
     1
102
RTVSPropertyOp4
 70
     1
102
RTVSPropertyOp5
 70
     1
102
RTVSPropertyOp6
 70
     1
102
RTVSPropertyOp7
 70
     1
102
RTVSPropertyOp8
 70
     1
102
RTVSPropertyOp9
 70
     1
102
RTVSPropertyOp10
 70
     1
102
RTVSPropertyOp11
 70
     1
102
RTVSPropertyOp12
 70
     1
102
RTVSPropertyOp13
 70
     1
102
RTVSPropertyOp14
 70
     1
102
RTVSPropertyOp15
 70
     1
102
RTVSPropertyOp16
 70
     1
102
RTVSPropertyOp17
 70
     1
102
RTVSPropertyOp18
 70
     1
102
RTVSPropertyOp19
 70
     1
102
RTVSPropertyOp20
 70
     1
102
RTVSPropertyOp21
 70
     1
102
RTVSPropertyOp22
 70
     1
102
RTVSPropertyOp23
 70
     1
102
RTVSPropertyOp24
 70
     1
102
RTVSPropertyOp25
 70
     1
102
RTVSPropertyOp26
 70
     1
102
RTVSPropertyOp27
 70
     1
102
RTVSPropertyOp28
 70
     1
102
RTVSPropertyOp29
 70
     1
102
RTVSPropertyOp30
 70
     1
102
RTVSPropertyOp31
 70
     1
102
RTVSPropertyOp32
 70
     1
102
RTVSPropertyOp33
 70
     1
102
RTVSPropertyOp34
 70
     1
102
RTVSPropertyOp35
 70
     1
102
RTVSPropertyOp36
 70
     1
102
RTVSPropertyOp37
 70
     1
102
RTVSPropertyOp38
 70
     1
102
RTVSPropertyOp39
 70
     1
102
RTVSPropertyOp40
 70
     1
102
RTVSPropertyOp41
 70
     1
102
RTVSPropertyOp42
 70
     1
102
RTVSPropertyOp43
 70
     1
102
RTVSPropertyOp44
 70
     1
102
RTVSPropertyOp45
 70
     1
102
RTVSPropertyOp46
 70
     1
102
RTVSPropertyOp47
 70
     1
102
RTVSPropertyOp48
 70
     1
102
RTVSPropertyOp49
 70
     1
102
RTVSPropertyOp50
 70
     1
102
RTVSPropertyOp51
 70
     0
102
RTVSPropertyOp52
 70
     0
102
RTVSPropertyOp53
 70
     1
102
RTVSPropertyOp54
 70
     1
102
RTVSPropertyOp55
 70
     1
102
RTVSPropertyOp56
 70
     1
102
RTVSPropertyOp57
 70
     1
102
RTVSPropertyOp58
 70
     1
102
RTVSPropertyOp59
 70
     1
102
RTVSPropertyOp60
 70
     1
102
RTVSPropertyOp61
 70
     1
102
RTVSPropertyOp62
 70
     1
  0
XRECORD
  5
446
102
{ACAD_REACTORS
330
445
102
}
330
445
100
AcDbXrecord
280
     1
102
RTVSPost2010Prop28
280
     0
102
RTVSPost2010PropOp28
 70
     1
102
RTVSPost2010Prop29
280
     1
102
RTVSPost2010PropOp29
 70
     1
102
RTVSPost2010Prop30
280
     1
102
RTVSPost2010PropOp30
 70
     1
102
RTVSPost2010Prop31
280
     0
102
RTVSPost2010PropOp31
 70
     1
102
RTVSPost2010Prop32
280
     0
102
RTVSPost2010PropOp32
 70
     1
102
RTVSPost2010Prop33
280
     0
102
RTVSPost2010PropOp33
 70
     1
102
RTVSPost2010Prop34
280
     0
102
RTVSPost2010PropOp34
 70
     1
102
RTVSPost2010Prop35
280
     0
102
RTVSPost2010PropOp35
 70
     1
102
RTVSPost2010Prop36
280
     0
102
RTVSPost2010PropOp36
 70
     1
102
RTVSPost2010Prop37
 90
       50
102
RTVSPost2010PropOp37
 70
     1
102
RTVSPost2010Prop38
140
0.0
102
RTVSPost2010PropOp38
 70
     1
102
RTVSPost2010Prop39
140
1.0
102
RTVSPost2010PropOp39
 70
     1
102
RTVSPost2010Prop40
 90
        0
102
RTVSPost2010PropOp40
 70
     1
102
RTVSPost2010Prop41ColorIndex
 90
       18
102
RTVSPost2010Prop41ColorRGB
 90
        0
102
RTVSPost2010PropOp41
 70
     1
102
RTVSPost2010Prop42
 90
       50
102
RTVSPost2010PropOp42
 70
     1
102
RTVSPost2010Prop43
 90
        3
102
RTVSPost2010PropOp43
 70
     1
102
RTVSPost2010Prop44ColorIndex
 90
        5
102
RTVSPost2010Prop44ColorRGB
 90
      255
102
RTVSPost2010PropOp44
 70
     1
102
RTVSPost2010Prop45
280
     0
102
RTVSPost2010PropOp45
 70
     1
102
RTVSPost2010Prop46
 90
       50
102
RTVSPost2010PropOp46
 70
     1
102
RTVSPost2010Prop47
 90
       50
102
RTVSPost2010PropOp47
 70
     1
102
RTVSPost2010Prop48
 90
       50
102
RTVSPost2010PropOp48
 70
     1
102
RTVSPost2010Prop49
280
     0
102
RTVSPost2010PropOp49
 70
     1
102
RTVSPost2010Prop50
 90
       50
102
RTVSPost2010PropOp50
 70
     1
102
RTVSPost2010Prop51ColorIndex
 90
      256
102
RTVSPost2010Prop51ColorRGB
 90
-16777216
102
RTVSPost2010PropOp51
 70
     0
102
RTVSPost2010Prop52
140
1.0
102
RTVSPost2010PropOp52
 70
     0
102
RTVSPost2010Prop53
 90
        2
102
RTVSPost2010PropOp53
 70
     1
102
RTVSPost2010Prop54
  1
strokes_ogs.tif
102
RTVSPost2010PropOp54
 70
     1
102
RTVSPost2010Prop55
280
     0
102
RTVSPost2010PropOp55
 70
     1
102
RTVSPost2010Prop56
140
1.0
102
RTVSPost2010PropOp56
 70
     1
102
RTVSPost2010Prop57
140
1.0
102
RTVSPost2010PropOp57
 70
     1
102
RTVSPropertyOp0
 70
     1
102
RTVSPropertyOp1
 70
     1
102
RTVSPropertyOp2
 70
     1
102
RTVSPropertyOp3
 70
     1
102
RTVSPropertyOp4
 70
     1
102
RTVSPropertyOp5
 70
     1
102
RTVSPropertyOp6
 70
     1
102
RTVSPropertyOp7
 70
     1
102
RTVSPropertyOp8
 70
     1
102
RTVSPropertyOp9
 70
     1
102
RTVSPropertyOp10
 70
     1
102
RTVSPropertyOp11
 70
     1
102
RTVSPropertyOp12
 70
     1
102
RTVSPropertyOp13
 70
     1
102
RTVSPropertyOp14
 70
     1
102
RTVSPropertyOp15
 70
     1
102
RTVSPropertyOp16
 70
     1
102
RTVSPropertyOp17
 70
     1
102
RTVSPropertyOp18
 70
     1
102
RTVSPropertyOp19
 70
     1
102
RTVSPropertyOp20
 70
     1
102
RTVSPropertyOp21
 70
     1
102
RTVSPropertyOp22
 70
     1
102
RTVSPropertyOp23
 70
     1
102
RTVSPropertyOp24
 70
     1
102
RTVSPropertyOp25
 70
     1
102
RTVSPropertyOp26
 70
     1
102
RTVSPropertyOp27
 70
     1
102
RTVSPropertyOp28
 70
     1
102
RTVSPropertyOp29
 70
     1
102
RTVSPropertyOp30
 70
     1
102
RTVSPropertyOp31
 70
     1
102
RTVSPropertyOp32
 70
     1
102
RTVSPropertyOp33
 70
     1
102
RTVSPropertyOp34
 70
     1
102
RTVSPropertyOp35
 70
     1
102
RTVSPropertyOp36
 70
     1
102
RTVSPropertyOp37
 70
     1
102
RTVSPropertyOp38
 70
     1
102
RTVSPropertyOp39
 70
     1
102
RTVSPropertyOp40
 70
     1
102
RTVSPropertyOp41
 70
     1
102
RTVSPropertyOp42
 70
     1
102
RTVSPropertyOp43
 70
     1
102
RTVSPropertyOp44
 70
     1
102
RTVSPropertyOp45
 70
     1
102
RTVSPropertyOp46
 70
     1
102
RTVSPropertyOp47
 70
     1
102
RTVSPropertyOp48
 70
     1
102
RTVSPropertyOp49
 70
     1
102
RTVSPropertyOp50
 70
     1
102
RTVSPropertyOp51
 70
     0
102
RTVSPropertyOp52
 70
     0
102
RTVSPropertyOp53
 70
     1
102
RTVSPropertyOp54
 70
     1
102
RTVSPropertyOp55
 70
     1
102
RTVSPropertyOp56
 70
     1
102
RTVSPropertyOp57
 70
     1
102
RTVSPropertyOp58
 70
     1
102
RTVSPropertyOp59
 70
     1
102
RTVSPropertyOp60
 70
     1
102
RTVSPropertyOp61
 70
     1
102
RTVSPropertyOp62
 70
     1
  0
XRECORD
  5
448
102
{ACAD_REACTORS
330
447
102
}
330
447
100
AcDbXrecord
280
     1
102
RTVSPost2010Prop28
280
     0
102
RTVSPost2010PropOp28
 70
     1
102
RTVSPost2010Prop29
280
     1
102
RTVSPost2010PropOp29
 70
     1
102
RTVSPost2010Prop30
280
     1
102
RTVSPost2010PropOp30
 70
     1
102
RTVSPost2010Prop31
280
     0
102
RTVSPost2010PropOp31
 70
     1
102
RTVSPost2010Prop32
280
     0
102
RTVSPost2010PropOp32
 70
     1
102
RTVSPost2010Prop33
280
     0
102
RTVSPost2010PropOp33
 70
     1
102
RTVSPost2010Prop34
280
     0
102
RTVSPost2010PropOp34
 70
     1
102
RTVSPost2010Prop35
280
     0
102
RTVSPost2010PropOp35
 70
     1
102
RTVSPost2010Prop36
280
     0
102
RTVSPost2010PropOp36
 70
     1
102
RTVSPost2010Prop37
 90
       50
102
RTVSPost2010PropOp37
 70
     1
102
RTVSPost2010Prop38
140
0.0
102
RTVSPost2010PropOp38
 70
     1
102
RTVSPost2010Prop39
140
1.0
102
RTVSPost2010PropOp39
 70
     1
102
RTVSPost2010Prop40
 90
        0
102
RTVSPost2010PropOp40
 70
     1
102
RTVSPost2010Prop41ColorIndex
 90
       18
102
RTVSPost2010Prop41ColorRGB
 90
        0
102
RTVSPost2010PropOp41
 70
     1
102
RTVSPost2010Prop42
 90
       50
102
RTVSPost2010PropOp42
 70
     1
102
RTVSPost2010Prop43
 90
        3
102
RTVSPost2010PropOp43
 70
     1
102
RTVSPost2010Prop44ColorIndex
 90
        5
102
RTVSPost2010Prop44ColorRGB
 90
      255
102
RTVSPost2010PropOp44
 70
     1
102
RTVSPost2010Prop45
280
     0
102
RTVSPost2010PropOp45
 70
     1
102
RTVSPost2010Prop46
 90
       50
102
RTVSPost2010PropOp46
 70
     1
102
RTVSPost2010Prop47
 90
       50
102
RTVSPost2010PropOp47
 70
     1
102
RTVSPost2010Prop48
 90
       50
102
RTVSPost2010PropOp48
 70
     1
102
RTVSPost2010Prop49
280
     0
102
RTVSPost2010PropOp49
 70
     1
102
RTVSPost2010Prop50
 90
       50
102
RTVSPost2010PropOp50
 70
     1
102
RTVSPost2010Prop51ColorIndex
 90
      256
102
RTVSPost2010Prop51ColorRGB
 90
-16777216
102
RTVSPost2010PropOp51
 70
     0
102
RTVSPost2010Prop52
140
1.0
102
RTVSPost2010PropOp52
 70
     0
102
RTVSPost2010Prop53
 90
        2
102
RTVSPost2010PropOp53
 70
     1
102
RTVSPost2010Prop54
  1
strokes_ogs.tif
102
RTVSPost2010PropOp54
 70
     1
102
RTVSPost2010Prop55
280
     0
102
RTVSPost2010PropOp55
 70
     1
102
RTVSPost2010Prop56
140
1.0
102
RTVSPost2010PropOp56
 70
     1
102
RTVSPost2010Prop57
140
1.0
102
RTVSPost2010PropOp57
 70
     1
102
RTVSPropertyOp0
 70
     1
102
RTVSPropertyOp1
 70
     1
102
RTVSPropertyOp2
 70
     1
102
RTVSPropertyOp3
 70
     1
102
RTVSPropertyOp4
 70
     1
102
RTVSPropertyOp5
 70
     1
102
RTVSPropertyOp6
 70
     1
102
RTVSPropertyOp7
 70
     1
102
RTVSPropertyOp8
 70
     1
102
RTVSPropertyOp9
 70
     1
102
RTVSPropertyOp10
 70
     1
102
RTVSPropertyOp11
 70
     1
102
RTVSPropertyOp12
 70
     1
102
RTVSPropertyOp13
 70
     1
102
RTVSPropertyOp14
 70
     1
102
RTVSPropertyOp15
 70
     1
102
RTVSPropertyOp16
 70
     1
102
RTVSPropertyOp17
 70
     1
102
RTVSPropertyOp18
 70
     1
102
RTVSPropertyOp19
 70
     1
102
RTVSPropertyOp20
 70
     1
102
RTVSPropertyOp21
 70
     1
102
RTVSPropertyOp22
 70
     1
102
RTVSPropertyOp23
 70
     1
102
RTVSPropertyOp24
 70
     1
102
RTVSPropertyOp25
 70
     1
102
RTVSPropertyOp26
 70
     1
102
RTVSPropertyOp27
 70
     1
102
RTVSPropertyOp28
 70
     1
102
RTVSPropertyOp29
 70
     1
102
RTVSPropertyOp30
 70
     1
102
RTVSPropertyOp31
 70
     1
102
RTVSPropertyOp32
 70
     1
102
RTVSPropertyOp33
 70
     1
102
RTVSPropertyOp34
 70
     1
102
RTVSPropertyOp35
 70
     1
102
RTVSPropertyOp36
 70
     1
102
RTVSPropertyOp37
 70
     1
102
RTVSPropertyOp38
 70
     1
102
RTVSPropertyOp39
 70
     1
102
RTVSPropertyOp40
 70
     1
102
RTVSPropertyOp41
 70
     1
102
RTVSPropertyOp42
 70
     1
102
RTVSPropertyOp43
 70
     1
102
RTVSPropertyOp44
 70
     1
102
RTVSPropertyOp45
 70
     1
102
RTVSPropertyOp46
 70
     1
102
RTVSPropertyOp47
 70
     1
102
RTVSPropertyOp48
 70
     1
102
RTVSPropertyOp49
 70
     1
102
RTVSPropertyOp50
 70
     1
102
RTVSPropertyOp51
 70
     0
102
RTVSPropertyOp52
 70
     0
102
RTVSPropertyOp53
 70
     1
102
RTVSPropertyOp54
 70
     1
102
RTVSPropertyOp55
 70
     1
102
RTVSPropertyOp56
 70
     1
102
RTVSPropertyOp57
 70
     1
102
RTVSPropertyOp58
 70
     1
102
RTVSPropertyOp59
 70
     1
102
RTVSPropertyOp60
 70
     1
102
RTVSPropertyOp61
 70
     1
102
RTVSPropertyOp62
 70
     1
  0
XRECORD
  5
44A
102
{ACAD_REACTORS
330
449
102
}
330
449
100
AcDbXrecord
280
     1
102
RTVSPost2010Prop28
280
     0
102
RTVSPost2010PropOp28
 70
     1
102
RTVSPost2010Prop29
280
     1
102
RTVSPost2010PropOp29
 70
     1
102
RTVSPost2010Prop30
280
     1
102
RTVSPost2010PropOp30
 70
     1
102
RTVSPost2010Prop31
280
     0
102
RTVSPost2010PropOp31
 70
     1
102
RTVSPost2010Prop32
280
     0
102
RTVSPost2010PropOp32
 70
     1
102
RTVSPost2010Prop33
280
     0
102
RTVSPost2010PropOp33
 70
     1
102
RTVSPost2010Prop34
280
     0
102
RTVSPost2010PropOp34
 70
     1
102
RTVSPost2010Prop35
280
     0
102
RTVSPost2010PropOp35
 70
     1
102
RTVSPost2010Prop36
280
     0
102
RTVSPost2010PropOp36
 70
     1
102
RTVSPost2010Prop37
 90
       50
102
RTVSPost2010PropOp37
 70
     1
102
RTVSPost2010Prop38
140
0.0
102
RTVSPost2010PropOp38
 70
     1
102
RTVSPost2010Prop39
140
1.0
102
RTVSPost2010PropOp39
 70
     1
102
RTVSPost2010Prop40
 90
        0
102
RTVSPost2010PropOp40
 70
     1
102
RTVSPost2010Prop41ColorIndex
 90
       18
102
RTVSPost2010Prop41ColorRGB
 90
        0
102
RTVSPost2010PropOp41
 70
     1
102
RTVSPost2010Prop42
 90
       50
102
RTVSPost2010PropOp42
 70
     1
102
RTVSPost2010Prop43
 90
        3
102
RTVSPost2010PropOp43
 70
     1
102
RTVSPost2010Prop44ColorIndex
 90
        5
102
RTVSPost2010Prop44ColorRGB
 90
      255
102
RTVSPost2010PropOp44
 70
     1
102
RTVSPost2010Prop45
280
     0
102
RTVSPost2010PropOp45
 70
     1
102
RTVSPost2010Prop46
 90
       50
102
RTVSPost2010PropOp46
 70
     1
102
RTVSPost2010Prop47
 90
       50
102
RTVSPost2010PropOp47
 70
     1
102
RTVSPost2010Prop48
 90
       50
102
RTVSPost2010PropOp48
 70
     1
102
RTVSPost2010Prop49
280
     0
102
RTVSPost2010PropOp49
 70
     1
102
RTVSPost2010Prop50
 90
       50
102
RTVSPost2010PropOp50
 70
     1
102
RTVSPost2010Prop51ColorIndex
 90
      256
102
RTVSPost2010Prop51ColorRGB
 90
-16777216
102
RTVSPost2010PropOp51
 70
     0
102
RTVSPost2010Prop52
140
1.0
102
RTVSPost2010PropOp52
 70
     0
102
RTVSPost2010Prop53
 90
        2
102
RTVSPost2010PropOp53
 70
     1
102
RTVSPost2010Prop54
  1
strokes_ogs.tif
102
RTVSPost2010PropOp54
 70
     1
102
RTVSPost2010Prop55
280
     0
102
RTVSPost2010PropOp55
 70
     1
102
RTVSPost2010Prop56
140
1.0
102
RTVSPost2010PropOp56
 70
     1
102
RTVSPost2010Prop57
140
1.0
102
RTVSPost2010PropOp57
 70
     1
102
RTVSPropertyOp0
 70
     1
102
RTVSPropertyOp1
 70
     1
102
RTVSPropertyOp2
 70
     1
102
RTVSPropertyOp3
 70
     1
102
RTVSPropertyOp4
 70
     1
102
RTVSPropertyOp5
 70
     1
102
RTVSPropertyOp6
 70
     1
102
RTVSPropertyOp7
 70
     1
102
RTVSPropertyOp8
 70
     1
102
RTVSPropertyOp9
 70
     1
102
RTVSPropertyOp10
 70
     1
102
RTVSPropertyOp11
 70
     1
102
RTVSPropertyOp12
 70
     1
102
RTVSPropertyOp13
 70
     1
102
RTVSPropertyOp14
 70
     1
102
RTVSPropertyOp15
 70
     1
102
RTVSPropertyOp16
 70
     1
102
RTVSPropertyOp17
 70
     1
102
RTVSPropertyOp18
 70
     1
102
RTVSPropertyOp19
 70
     1
102
RTVSPropertyOp20
 70
     1
102
RTVSPropertyOp21
 70
     1
102
RTVSPropertyOp22
 70
     1
102
RTVSPropertyOp23
 70
     1
102
RTVSPropertyOp24
 70
     1
102
RTVSPropertyOp25
 70
     1
102
RTVSPropertyOp26
 70
     1
102
RTVSPropertyOp27
 70
     1
102
RTVSPropertyOp28
 70
     1
102
RTVSPropertyOp29
 70
     1
102
RTVSPropertyOp30
 70
     1
102
RTVSPropertyOp31
 70
     1
102
RTVSPropertyOp32
 70
     1
102
RTVSPropertyOp33
 70
     1
102
RTVSPropertyOp34
 70
     1
102
RTVSPropertyOp35
 70
     1
102
RTVSPropertyOp36
 70
     1
102
RTVSPropertyOp37
 70
     1
102
RTVSPropertyOp38
 70
     1
102
RTVSPropertyOp39
 70
     1
102
RTVSPropertyOp40
 70
     1
102
RTVSPropertyOp41
 70
     1
102
RTVSPropertyOp42
 70
     1
102
RTVSPropertyOp43
 70
     1
102
RTVSPropertyOp44
 70
     1
102
RTVSPropertyOp45
 70
     1
102
RTVSPropertyOp46
 70
     1
102
RTVSPropertyOp47
 70
     1
102
RTVSPropertyOp48
 70
     1
102
RTVSPropertyOp49
 70
     1
102
RTVSPropertyOp50
 70
     1
102
RTVSPropertyOp51
 70
     0
102
RTVSPropertyOp52
 70
     0
102
RTVSPropertyOp53
 70
     1
102
RTVSPropertyOp54
 70
     1
102
RTVSPropertyOp55
 70
     1
102
RTVSPropertyOp56
 70
     1
102
RTVSPropertyOp57
 70
     1
102
RTVSPropertyOp58
 70
     1
102
RTVSPropertyOp59
 70
     1
102
RTVSPropertyOp60
 70
     1
102
RTVSPropertyOp61
 70
     1
102
RTVSPropertyOp62
 70
     1
  0
XRECORD
  5
452
102
{ACAD_REACTORS
330
451
102
}
330
451
100
AcDbXrecord
280
     1
102
RTVSPost2010Prop28
280
     0
102
RTVSPost2010PropOp28
 70
     1
102
RTVSPost2010Prop29
280
     1
102
RTVSPost2010PropOp29
 70
     1
102
RTVSPost2010Prop30
280
     1
102
RTVSPost2010PropOp30
 70
     1
102
RTVSPost2010Prop31
280
     0
102
RTVSPost2010PropOp31
 70
     1
102
RTVSPost2010Prop32
280
     0
102
RTVSPost2010PropOp32
 70
     1
102
RTVSPost2010Prop33
280
     0
102
RTVSPost2010PropOp33
 70
     1
102
RTVSPost2010Prop34
280
     0
102
RTVSPost2010PropOp34
 70
     1
102
RTVSPost2010Prop35
280
     0
102
RTVSPost2010PropOp35
 70
     1
102
RTVSPost2010Prop36
280
     0
102
RTVSPost2010PropOp36
 70
     1
102
RTVSPost2010Prop37
 90
       50
102
RTVSPost2010PropOp37
 70
     1
102
RTVSPost2010Prop38
140
0.0
102
RTVSPost2010PropOp38
 70
     1
102
RTVSPost2010Prop39
140
1.0
102
RTVSPost2010PropOp39
 70
     1
102
RTVSPost2010Prop40
 90
        0
102
RTVSPost2010PropOp40
 70
     1
102
RTVSPost2010Prop41ColorIndex
 90
       18
102
RTVSPost2010Prop41ColorRGB
 90
        0
102
RTVSPost2010PropOp41
 70
     1
102
RTVSPost2010Prop42
 90
       50
102
RTVSPost2010PropOp42
 70
     1
102
RTVSPost2010Prop43
 90
        3
102
RTVSPost2010PropOp43
 70
     1
102
RTVSPost2010Prop44ColorIndex
 90
        5
102
RTVSPost2010Prop44ColorRGB
 90
      255
102
RTVSPost2010PropOp44
 70
     1
102
RTVSPost2010Prop45
280
     0
102
RTVSPost2010PropOp45
 70
     1
102
RTVSPost2010Prop46
 90
       50
102
RTVSPost2010PropOp46
 70
     1
102
RTVSPost2010Prop47
 90
       50
102
RTVSPost2010PropOp47
 70
     1
102
RTVSPost2010Prop48
 90
       50
102
RTVSPost2010PropOp48
 70
     1
102
RTVSPost2010Prop49
280
     0
102
RTVSPost2010PropOp49
 70
     1
102
RTVSPost2010Prop50
 90
       50
102
RTVSPost2010PropOp50
 70
     1
102
RTVSPost2010Prop51ColorIndex
 90
      256
102
RTVSPost2010Prop51ColorRGB
 90
-16777216
102
RTVSPost2010PropOp51
 70
     0
102
RTVSPost2010Prop52
140
1.0
102
RTVSPost2010PropOp52
 70
     0
102
RTVSPost2010Prop53
 90
        2
102
RTVSPost2010PropOp53
 70
     1
102
RTVSPost2010Prop54
  1
strokes_ogs.tif
102
RTVSPost2010PropOp54
 70
     1
102
RTVSPost2010Prop55
280
     0
102
RTVSPost2010PropOp55
 70
     1
102
RTVSPost2010Prop56
140
1.0
102
RTVSPost2010PropOp56
 70
     1
102
RTVSPost2010Prop57
140
1.0
102
RTVSPost2010PropOp57
 70
     1
102
RTVSPropertyOp0
 70
     1
102
RTVSPropertyOp1
 70
     1
102
RTVSPropertyOp2
 70
     1
102
RTVSPropertyOp3
 70
     1
102
RTVSPropertyOp4
 70
     1
102
RTVSPropertyOp5
 70
     1
102
RTVSPropertyOp6
 70
     1
102
RTVSPropertyOp7
 70
     1
102
RTVSPropertyOp8
 70
     1
102
RTVSPropertyOp9
 70
     1
102
RTVSPropertyOp10
 70
     1
102
RTVSPropertyOp11
 70
     1
102
RTVSPropertyOp12
 70
     1
102
RTVSPropertyOp13
 70
     1
102
RTVSPropertyOp14
 70
     1
102
RTVSPropertyOp15
 70
     1
102
RTVSPropertyOp16
 70
     1
102
RTVSPropertyOp17
 70
     1
102
RTVSPropertyOp18
 70
     1
102
RTVSPropertyOp19
 70
     1
102
RTVSPropertyOp20
 70
     1
102
RTVSPropertyOp21
 70
     1
102
RTVSPropertyOp22
 70
     1
102
RTVSPropertyOp23
 70
     1
102
RTVSPropertyOp24
 70
     1
102
RTVSPropertyOp25
 70
     1
102
RTVSPropertyOp26
 70
     1
102
RTVSPropertyOp27
 70
     1
102
RTVSPropertyOp28
 70
     1
102
RTVSPropertyOp29
 70
     1
102
RTVSPropertyOp30
 70
     1
102
RTVSPropertyOp31
 70
     1
102
RTVSPropertyOp32
 70
     1
102
RTVSPropertyOp33
 70
     1
102
RTVSPropertyOp34
 70
     1
102
RTVSPropertyOp35
 70
     1
102
RTVSPropertyOp36
 70
     1
102
RTVSPropertyOp37
 70
     1
102
RTVSPropertyOp38
 70
     1
102
RTVSPropertyOp39
 70
     1
102
RTVSPropertyOp40
 70
     1
102
RTVSPropertyOp41
 70
     1
102
RTVSPropertyOp42
 70
     1
102
RTVSPropertyOp43
 70
     1
102
RTVSPropertyOp44
 70
     1
102
RTVSPropertyOp45
 70
     1
102
RTVSPropertyOp46
 70
     1
102
RTVSPropertyOp47
 70
     1
102
RTVSPropertyOp48
 70
     1
102
RTVSPropertyOp49
 70
     1
102
RTVSPropertyOp50
 70
     1
102
RTVSPropertyOp51
 70
     0
102
RTVSPropertyOp52
 70
     0
102
RTVSPropertyOp53
 70
     1
102
RTVSPropertyOp54
 70
     1
102
RTVSPropertyOp55
 70
     1
102
RTVSPropertyOp56
 70
     1
102
RTVSPropertyOp57
 70
     1
102
RTVSPropertyOp58
 70
     1
102
RTVSPropertyOp59
 70
     1
102
RTVSPropertyOp60
 70
     1
102
RTVSPropertyOp61
 70
     1
102
RTVSPropertyOp62
 70
     1
  0
XRECORD
  5
46E
102
{ACAD_REACTORS
330
46D
102
}
330
46D
100
AcDbXrecord
280
     1
102
RTVSPost2010Prop28
280
     0
102
RTVSPost2010PropOp28
 70
     1
102
RTVSPost2010Prop29
280
     1
102
RTVSPost2010PropOp29
 70
     1
102
RTVSPost2010Prop30
280
     1
102
RTVSPost2010PropOp30
 70
     1
102
RTVSPost2010Prop31
280
     0
102
RTVSPost2010PropOp31
 70
     1
102
RTVSPost2010Prop32
280
     0
102
RTVSPost2010PropOp32
 70
     1
102
RTVSPost2010Prop33
280
     0
102
RTVSPost2010PropOp33
 70
     1
102
RTVSPost2010Prop34
280
     0
102
RTVSPost2010PropOp34
 70
     1
102
RTVSPost2010Prop35
280
     0
102
RTVSPost2010PropOp35
 70
     1
102
RTVSPost2010Prop36
280
     0
102
RTVSPost2010PropOp36
 70
     1
102
RTVSPost2010Prop37
 90
       50
102
RTVSPost2010PropOp37
 70
     0
102
RTVSPost2010Prop38
140
0.0
102
RTVSPost2010PropOp38
 70
     0
102
RTVSPost2010Prop39
140
1.0
102
RTVSPost2010PropOp39
 70
     0
102
RTVSPost2010Prop40
 90
        0
102
RTVSPost2010PropOp40
 70
     0
102
RTVSPost2010Prop41ColorIndex
 90
       18
102
RTVSPost2010Prop41ColorRGB
 90
        0
102
RTVSPost2010PropOp41
 70
     0
102
RTVSPost2010Prop42
 90
       50
102
RTVSPost2010PropOp42
 70
     0
102
RTVSPost2010Prop43
 90
        3
102
RTVSPost2010PropOp43
 70
     0
102
RTVSPost2010Prop44ColorIndex
 90
        5
102
RTVSPost2010Prop44ColorRGB
 90
      255
102
RTVSPost2010PropOp44
 70
     0
102
RTVSPost2010Prop45
280
     0
102
RTVSPost2010PropOp45
 70
     1
102
RTVSPost2010Prop46
 90
       50
102
RTVSPost2010PropOp46
 70
     0
102
RTVSPost2010Prop47
 90
       50
102
RTVSPost2010PropOp47
 70
     0
102
RTVSPost2010Prop48
 90
       50
102
RTVSPost2010PropOp48
 70
     0
102
RTVSPost2010Prop49
280
     0
102
RTVSPost2010PropOp49
 70
     1
102
RTVSPost2010Prop50
 90
       50
102
RTVSPost2010PropOp50
 70
     0
102
RTVSPost2010Prop51ColorIndex
 90
      256
102
RTVSPost2010Prop51ColorRGB
 90
-16777216
102
RTVSPost2010PropOp51
 70
     0
102
RTVSPost2010Prop52
140
1.0
102
RTVSPost2010PropOp52
 70
     0
102
RTVSPost2010Prop53
 90
        2
102
RTVSPost2010PropOp53
 70
     0
102
RTVSPost2010Prop54
  1
strokes_ogs.tif
102
RTVSPost2010PropOp54
 70
     0
102
RTVSPost2010Prop55
280
     0
102
RTVSPost2010PropOp55
 70
     1
102
RTVSPost2010Prop56
140
1.0
102
RTVSPost2010PropOp56
 70
     0
102
RTVSPost2010Prop57
140
1.0
102
RTVSPost2010PropOp57
 70
     0
102
RTVSPropertyOp0
 70
     0
102
RTVSPropertyOp1
 70
     0
102
RTVSPropertyOp2
 70
     0
102
RTVSPropertyOp3
 70
     0
102
RTVSPropertyOp4
 70
     0
102
RTVSPropertyOp5
 70
     0
102
RTVSPropertyOp6
 70
     0
102
RTVSPropertyOp7
 70
     0
102
RTVSPropertyOp8
 70
     0
102
RTVSPropertyOp9
 70
     0
102
RTVSPropertyOp10
 70
     0
102
RTVSPropertyOp11
 70
     0
102
RTVSPropertyOp12
 70
     0
102
RTVSPropertyOp13
 70
     0
102
RTVSPropertyOp14
 70
     2
102
RTVSPropertyOp15
 70
     0
102
RTVSPropertyOp16
 70
     0
102
RTVSPropertyOp17
 70
     0
102
RTVSPropertyOp18
 70
     0
102
RTVSPropertyOp19
 70
     0
102
RTVSPropertyOp20
 70
     0
102
RTVSPropertyOp21
 70
     0
102
RTVSPropertyOp22
 70
     0
102
RTVSPropertyOp23
 70
     0
102
RTVSPropertyOp24
 70
     0
102
RTVSPropertyOp25
 70
     0
102
RTVSPropertyOp26
 70
     0
102
RTVSPropertyOp27
 70
     0
102
RTVSPropertyOp28
 70
     1
102
RTVSPropertyOp29
 70
     1
102
RTVSPropertyOp30
 70
     1
102
RTVSPropertyOp31
 70
     1
102
RTVSPropertyOp32
 70
     1
102
RTVSPropertyOp33
 70
     1
102
RTVSPropertyOp34
 70
     1
102
RTVSPropertyOp35
 70
     1
102
RTVSPropertyOp36
 70
     1
102
RTVSPropertyOp37
 70
     0
102
RTVSPropertyOp38
 70
     0
102
RTVSPropertyOp39
 70
     0
102
RTVSPropertyOp40
 70
     0
102
RTVSPropertyOp41
 70
     0
102
RTVSPropertyOp42
 70
     0
102
RTVSPropertyOp43
 70
     0
102
RTVSPropertyOp44
 70
     0
102
RTVSPropertyOp45
 70
     1
102
RTVSPropertyOp46
 70
     0
102
RTVSPropertyOp47
 70
     0
102
RTVSPropertyOp48
 70
     0
102
RTVSPropertyOp49
 70
     1
102
RTVSPropertyOp50
 70
     0
102
RTVSPropertyOp51
 70
     0
102
RTVSPropertyOp52
 70
     0
102
RTVSPropertyOp53
 70
     0
102
RTVSPropertyOp54
 70
     0
102
RTVSPropertyOp55
 70
     1
102
RTVSPropertyOp56
 70
     0
102
RTVSPropertyOp57
 70
     0
102
RTVSPropertyOp58
 70
     0
102
RTVSPropertyOp59
 70
     0
102
RTVSPropertyOp60
 70
     0
102
RTVSPropertyOp61
 70
     0
102
RTVSPropertyOp62
 70
     0
  0
XRECORD
  5
45E
102
{ACAD_REACTORS
330
45D
102
}
330
45D
100
AcDbXrecord
280
     1
102
RTVSPost2010Prop28
280
     0
102
RTVSPost2010PropOp28
 70
     1
102
RTVSPost2010Prop29
280
     1
102
RTVSPost2010PropOp29
 70
     1
102
RTVSPost2010Prop30
280
     1
102
RTVSPost2010PropOp30
 70
     1
102
RTVSPost2010Prop31
280
     0
102
RTVSPost2010PropOp31
 70
     1
102
RTVSPost2010Prop32
280
     0
102
RTVSPost2010PropOp32
 70
     1
102
RTVSPost2010Prop33
280
     0
102
RTVSPost2010PropOp33
 70
     1
102
RTVSPost2010Prop34
280
     0
102
RTVSPost2010PropOp34
 70
     1
102
RTVSPost2010Prop35
280
     0
102
RTVSPost2010PropOp35
 70
     1
102
RTVSPost2010Prop36
280
     0
102
RTVSPost2010PropOp36
 70
     1
102
RTVSPost2010Prop37
 90
       50
102
RTVSPost2010PropOp37
 70
     1
102
RTVSPost2010Prop38
140
0.0
102
RTVSPost2010PropOp38
 70
     1
102
RTVSPost2010Prop39
140
1.0
102
RTVSPost2010PropOp39
 70
     1
102
RTVSPost2010Prop40
 90
        0
102
RTVSPost2010PropOp40
 70
     1
102
RTVSPost2010Prop41ColorIndex
 90
       18
102
RTVSPost2010Prop41ColorRGB
 90
        0
102
RTVSPost2010PropOp41
 70
     1
102
RTVSPost2010Prop42
 90
       50
102
RTVSPost2010PropOp42
 70
     1
102
RTVSPost2010Prop43
 90
        3
102
RTVSPost2010PropOp43
 70
     1
102
RTVSPost2010Prop44ColorIndex
 90
        5
102
RTVSPost2010Prop44ColorRGB
 90
      255
102
RTVSPost2010PropOp44
 70
     1
102
RTVSPost2010Prop45
280
     0
102
RTVSPost2010PropOp45
 70
     1
102
RTVSPost2010Prop46
 90
       50
102
RTVSPost2010PropOp46
 70
     1
102
RTVSPost2010Prop47
 90
       50
102
RTVSPost2010PropOp47
 70
     1
102
RTVSPost2010Prop48
 90
       50
102
RTVSPost2010PropOp48
 70
     1
102
RTVSPost2010Prop49
280
     0
102
RTVSPost2010PropOp49
 70
     1
102
RTVSPost2010Prop50
 90
       50
102
RTVSPost2010PropOp50
 70
     1
102
RTVSPost2010Prop51ColorIndex
 90
      256
102
RTVSPost2010Prop51ColorRGB
 90
-16777216
102
RTVSPost2010PropOp51
 70
     0
102
RTVSPost2010Prop52
140
1.0
102
RTVSPost2010PropOp52
 70
     0
102
RTVSPost2010Prop53
 90
        2
102
RTVSPost2010PropOp53
 70
     1
102
RTVSPost2010Prop54
  1
strokes_ogs.tif
102
RTVSPost2010PropOp54
 70
     1
102
RTVSPost2010Prop55
280
     0
102
RTVSPost2010PropOp55
 70
     1
102
RTVSPost2010Prop56
140
1.0
102
RTVSPost2010PropOp56
 70
     1
102
RTVSPost2010Prop57
140
1.0
102
RTVSPost2010PropOp57
 70
     1
102
RTVSPropertyOp0
 70
     1
102
RTVSPropertyOp1
 70
     1
102
RTVSPropertyOp2
 70
     1
102
RTVSPropertyOp3
 70
     1
102
RTVSPropertyOp4
 70
     1
102
RTVSPropertyOp5
 70
     1
102
RTVSPropertyOp6
 70
     1
102
RTVSPropertyOp7
 70
     1
102
RTVSPropertyOp8
 70
     1
102
RTVSPropertyOp9
 70
     1
102
RTVSPropertyOp10
 70
     1
102
RTVSPropertyOp11
 70
     1
102
RTVSPropertyOp12
 70
     1
102
RTVSPropertyOp13
 70
     1
102
RTVSPropertyOp14
 70
     1
102
RTVSPropertyOp15
 70
     1
102
RTVSPropertyOp16
 70
     1
102
RTVSPropertyOp17
 70
     1
102
RTVSPropertyOp18
 70
     1
102
RTVSPropertyOp19
 70
     1
102
RTVSPropertyOp20
 70
     1
102
RTVSPropertyOp21
 70
     1
102
RTVSPropertyOp22
 70
     1
102
RTVSPropertyOp23
 70
     1
102
RTVSPropertyOp24
 70
     1
102
RTVSPropertyOp25
 70
     1
102
RTVSPropertyOp26
 70
     1
102
RTVSPropertyOp27
 70
     1
102
RTVSPropertyOp28
 70
     1
102
RTVSPropertyOp29
 70
     1
102
RTVSPropertyOp30
 70
     1
102
RTVSPropertyOp31
 70
     1
102
RTVSPropertyOp32
 70
     1
102
RTVSPropertyOp33
 70
     1
102
RTVSPropertyOp34
 70
     1
102
RTVSPropertyOp35
 70
     1
102
RTVSPropertyOp36
 70
     1
102
RTVSPropertyOp37
 70
     1
102
RTVSPropertyOp38
 70
     1
102
RTVSPropertyOp39
 70
     1
102
RTVSPropertyOp40
 70
     1
102
RTVSPropertyOp41
 70
     1
102
RTVSPropertyOp42
 70
     1
102
RTVSPropertyOp43
 70
     1
102
RTVSPropertyOp44
 70
     1
102
RTVSPropertyOp45
 70
     1
102
RTVSPropertyOp46
 70
     1
102
RTVSPropertyOp47
 70
     1
102
RTVSPropertyOp48
 70
     1
102
RTVSPropertyOp49
 70
     1
102
RTVSPropertyOp50
 70
     1
102
RTVSPropertyOp51
 70
     0
102
RTVSPropertyOp52
 70
     0
102
RTVSPropertyOp53
 70
     1
102
RTVSPropertyOp54
 70
     1
102
RTVSPropertyOp55
 70
     1
102
RTVSPropertyOp56
 70
     1
102
RTVSPropertyOp57
 70
     1
102
RTVSPropertyOp58
 70
     1
102
RTVSPropertyOp59
 70
     1
102
RTVSPropertyOp60
 70
     1
102
RTVSPropertyOp61
 70
     1
102
RTVSPropertyOp62
 70
     1
  0
XRECORD
  5
470
102
{ACAD_REACTORS
330
46F
102
}
330
46F
100
AcDbXrecord
280
     1
102
RTVSPost2010Prop28
280
     0
102
RTVSPost2010PropOp28
 70
     1
102
RTVSPost2010Prop29
280
     1
102
RTVSPost2010PropOp29
 70
     1
102
RTVSPost2010Prop30
280
     1
102
RTVSPost2010PropOp30
 70
     1
102
RTVSPost2010Prop31
280
     0
102
RTVSPost2010PropOp31
 70
     1
102
RTVSPost2010Prop32
280
     0
102
RTVSPost2010PropOp32
 70
     1
102
RTVSPost2010Prop33
280
     0
102
RTVSPost2010PropOp33
 70
     1
102
RTVSPost2010Prop34
280
     0
102
RTVSPost2010PropOp34
 70
     1
102
RTVSPost2010Prop35
280
     0
102
RTVSPost2010PropOp35
 70
     1
102
RTVSPost2010Prop36
280
     0
102
RTVSPost2010PropOp36
 70
     1
102
RTVSPost2010Prop37
 90
       50
102
RTVSPost2010PropOp37
 70
     0
102
RTVSPost2010Prop38
140
0.0
102
RTVSPost2010PropOp38
 70
     0
102
RTVSPost2010Prop39
140
1.0
102
RTVSPost2010PropOp39
 70
     0
102
RTVSPost2010Prop40
 90
        0
102
RTVSPost2010PropOp40
 70
     0
102
RTVSPost2010Prop41ColorIndex
 90
       18
102
RTVSPost2010Prop41ColorRGB
 90
        0
102
RTVSPost2010PropOp41
 70
     0
102
RTVSPost2010Prop42
 90
       50
102
RTVSPost2010PropOp42
 70
     0
102
RTVSPost2010Prop43
 90
        3
102
RTVSPost2010PropOp43
 70
     0
102
RTVSPost2010Prop44ColorIndex
 90
        5
102
RTVSPost2010Prop44ColorRGB
 90
      255
102
RTVSPost2010PropOp44
 70
     0
102
RTVSPost2010Prop45
280
     0
102
RTVSPost2010PropOp45
 70
     1
102
RTVSPost2010Prop46
 90
       50
102
RTVSPost2010PropOp46
 70
     0
102
RTVSPost2010Prop47
 90
       50
102
RTVSPost2010PropOp47
 70
     0
102
RTVSPost2010Prop48
 90
       50
102
RTVSPost2010PropOp48
 70
     0
102
RTVSPost2010Prop49
280
     0
102
RTVSPost2010PropOp49
 70
     1
102
RTVSPost2010Prop50
 90
       50
102
RTVSPost2010PropOp50
 70
     0
102
RTVSPost2010Prop51ColorIndex
 90
      256
102
RTVSPost2010Prop51ColorRGB
 90
-16777216
102
RTVSPost2010PropOp51
 70
     0
102
RTVSPost2010Prop52
140
1.0
102
RTVSPost2010PropOp52
 70
     0
102
RTVSPost2010Prop53
 90
        2
102
RTVSPost2010PropOp53
 70
     0
102
RTVSPost2010Prop54
  1
strokes_ogs.tif
102
RTVSPost2010PropOp54
 70
     0
102
RTVSPost2010Prop55
280
     0
102
RTVSPost2010PropOp55
 70
     1
102
RTVSPost2010Prop56
140
1.0
102
RTVSPost2010PropOp56
 70
     0
102
RTVSPost2010Prop57
140
1.0
102
RTVSPost2010PropOp57
 70
     0
102
RTVSPropertyOp0
 70
     0
102
RTVSPropertyOp1
 70
     0
102
RTVSPropertyOp2
 70
     0
102
RTVSPropertyOp3
 70
     0
102
RTVSPropertyOp4
 70
     0
102
RTVSPropertyOp5
 70
     0
102
RTVSPropertyOp6
 70
     0
102
RTVSPropertyOp7
 70
     0
102
RTVSPropertyOp8
 70
     0
102
RTVSPropertyOp9
 70
     0
102
RTVSPropertyOp10
 70
     0
102
RTVSPropertyOp11
 70
     0
102
RTVSPropertyOp12
 70
     0
102
RTVSPropertyOp13
 70
     0
102
RTVSPropertyOp14
 70
     2
102
RTVSPropertyOp15
 70
     0
102
RTVSPropertyOp16
 70
     0
102
RTVSPropertyOp17
 70
     0
102
RTVSPropertyOp18
 70
     0
102
RTVSPropertyOp19
 70
     0
102
RTVSPropertyOp20
 70
     0
102
RTVSPropertyOp21
 70
     0
102
RTVSPropertyOp22
 70
     0
102
RTVSPropertyOp23
 70
     0
102
RTVSPropertyOp24
 70
     0
102
RTVSPropertyOp25
 70
     0
102
RTVSPropertyOp26
 70
     0
102
RTVSPropertyOp27
 70
     0
102
RTVSPropertyOp28
 70
     1
102
RTVSPropertyOp29
 70
     1
102
RTVSPropertyOp30
 70
     1
102
RTVSPropertyOp31
 70
     1
102
RTVSPropertyOp32
 70
     1
102
RTVSPropertyOp33
 70
     1
102
RTVSPropertyOp34
 70
     1
102
RTVSPropertyOp35
 70
     1
102
RTVSPropertyOp36
 70
     1
102
RTVSPropertyOp37
 70
     0
102
RTVSPropertyOp38
 70
     0
102
RTVSPropertyOp39
 70
     0
102
RTVSPropertyOp40
 70
     0
102
RTVSPropertyOp41
 70
     0
102
RTVSPropertyOp42
 70
     0
102
RTVSPropertyOp43
 70
     0
102
RTVSPropertyOp44
 70
     0
102
RTVSPropertyOp45
 70
     1
102
RTVSPropertyOp46
 70
     0
102
RTVSPropertyOp47
 70
     0
102
RTVSPropertyOp48
 70
     0
102
RTVSPropertyOp49
 70
     1
102
RTVSPropertyOp50
 70
     0
102
RTVSPropertyOp51
 70
     0
102
RTVSPropertyOp52
 70
     0
102
RTVSPropertyOp53
 70
     0
102
RTVSPropertyOp54
 70
     0
102
RTVSPropertyOp55
 70
     1
102
RTVSPropertyOp56
 70
     0
102
RTVSPropertyOp57
 70
     0
102
RTVSPropertyOp58
 70
     0
102
RTVSPropertyOp59
 70
     0
102
RTVSPropertyOp60
 70
     0
102
RTVSPropertyOp61
 70
     0
102
RTVSPropertyOp62
 70
     0
  0
XRECORD
  5
456
102
{ACAD_REACTORS
330
455
102
}
330
455
100
AcDbXrecord
280
     1
102
RTVSPost2010Prop28
280
     0
102
RTVSPost2010PropOp28
 70
     1
102
RTVSPost2010Prop29
280
     1
102
RTVSPost2010PropOp29
 70
     1
102
RTVSPost2010Prop30
280
     1
102
RTVSPost2010PropOp30
 70
     1
102
RTVSPost2010Prop31
280
     0
102
RTVSPost2010PropOp31
 70
     1
102
RTVSPost2010Prop32
280
     0
102
RTVSPost2010PropOp32
 70
     1
102
RTVSPost2010Prop33
280
     0
102
RTVSPost2010PropOp33
 70
     1
102
RTVSPost2010Prop34
280
     0
102
RTVSPost2010PropOp34
 70
     1
102
RTVSPost2010Prop35
280
     0
102
RTVSPost2010PropOp35
 70
     1
102
RTVSPost2010Prop36
280
     0
102
RTVSPost2010PropOp36
 70
     1
102
RTVSPost2010Prop37
 90
       50
102
RTVSPost2010PropOp37
 70
     1
102
RTVSPost2010Prop38
140
0.0
102
RTVSPost2010PropOp38
 70
     1
102
RTVSPost2010Prop39
140
1.0
102
RTVSPost2010PropOp39
 70
     1
102
RTVSPost2010Prop40
 90
        0
102
RTVSPost2010PropOp40
 70
     1
102
RTVSPost2010Prop41ColorIndex
 90
       18
102
RTVSPost2010Prop41ColorRGB
 90
        0
102
RTVSPost2010PropOp41
 70
     1
102
RTVSPost2010Prop42
 90
       50
102
RTVSPost2010PropOp42
 70
     1
102
RTVSPost2010Prop43
 90
        3
102
RTVSPost2010PropOp43
 70
     1
102
RTVSPost2010Prop44ColorIndex
 90
        5
102
RTVSPost2010Prop44ColorRGB
 90
      255
102
RTVSPost2010PropOp44
 70
     1
102
RTVSPost2010Prop45
280
     0
102
RTVSPost2010PropOp45
 70
     1
102
RTVSPost2010Prop46
 90
       50
102
RTVSPost2010PropOp46
 70
     1
102
RTVSPost2010Prop47
 90
       50
102
RTVSPost2010PropOp47
 70
     1
102
RTVSPost2010Prop48
 90
       50
102
RTVSPost2010PropOp48
 70
     1
102
RTVSPost2010Prop49
280
     0
102
RTVSPost2010PropOp49
 70
     1
102
RTVSPost2010Prop50
 90
       50
102
RTVSPost2010PropOp50
 70
     1
102
RTVSPost2010Prop51ColorIndex
 90
      256
102
RTVSPost2010Prop51ColorRGB
 90
-16777216
102
RTVSPost2010PropOp51
 70
     0
102
RTVSPost2010Prop52
140
1.0
102
RTVSPost2010PropOp52
 70
     0
102
RTVSPost2010Prop53
 90
        2
102
RTVSPost2010PropOp53
 70
     1
102
RTVSPost2010Prop54
  1
strokes_ogs.tif
102
RTVSPost2010PropOp54
 70
     1
102
RTVSPost2010Prop55
280
     0
102
RTVSPost2010PropOp55
 70
     1
102
RTVSPost2010Prop56
140
1.0
102
RTVSPost2010PropOp56
 70
     1
102
RTVSPost2010Prop57
140
1.0
102
RTVSPost2010PropOp57
 70
     1
102
RTVSPropertyOp0
 70
     1
102
RTVSPropertyOp1
 70
     1
102
RTVSPropertyOp2
 70
     1
102
RTVSPropertyOp3
 70
     1
102
RTVSPropertyOp4
 70
     1
102
RTVSPropertyOp5
 70
     1
102
RTVSPropertyOp6
 70
     1
102
RTVSPropertyOp7
 70
     1
102
RTVSPropertyOp8
 70
     1
102
RTVSPropertyOp9
 70
     1
102
RTVSPropertyOp10
 70
     1
102
RTVSPropertyOp11
 70
     1
102
RTVSPropertyOp12
 70
     1
102
RTVSPropertyOp13
 70
     1
102
RTVSPropertyOp14
 70
     1
102
RTVSPropertyOp15
 70
     1
102
RTVSPropertyOp16
 70
     1
102
RTVSPropertyOp17
 70
     1
102
RTVSPropertyOp18
 70
     1
102
RTVSPropertyOp19
 70
     1
102
RTVSPropertyOp20
 70
     1
102
RTVSPropertyOp21
 70
     1
102
RTVSPropertyOp22
 70
     1
102
RTVSPropertyOp23
 70
     1
102
RTVSPropertyOp24
 70
     1
102
RTVSPropertyOp25
 70
     1
102
RTVSPropertyOp26
 70
     1
102
RTVSPropertyOp27
 70
     1
102
RTVSPropertyOp28
 70
     1
102
RTVSPropertyOp29
 70
     1
102
RTVSPropertyOp30
 70
     1
102
RTVSPropertyOp31
 70
     1
102
RTVSPropertyOp32
 70
     1
102
RTVSPropertyOp33
 70
     1
102
RTVSPropertyOp34
 70
     1
102
RTVSPropertyOp35
 70
     1
102
RTVSPropertyOp36
 70
     1
102
RTVSPropertyOp37
 70
     1
102
RTVSPropertyOp38
 70
     1
102
RTVSPropertyOp39
 70
     1
102
RTVSPropertyOp40
 70
     1
102
RTVSPropertyOp41
 70
     1
102
RTVSPropertyOp42
 70
     1
102
RTVSPropertyOp43
 70
     1
102
RTVSPropertyOp44
 70
     1
102
RTVSPropertyOp45
 70
     1
102
RTVSPropertyOp46
 70
     1
102
RTVSPropertyOp47
 70
     1
102
RTVSPropertyOp48
 70
     1
102
RTVSPropertyOp49
 70
     1
102
RTVSPropertyOp50
 70
     1
102
RTVSPropertyOp51
 70
     0
102
RTVSPropertyOp52
 70
     0
102
RTVSPropertyOp53
 70
     1
102
RTVSPropertyOp54
 70
     1
102
RTVSPropertyOp55
 70
     1
102
RTVSPropertyOp56
 70
     1
102
RTVSPropertyOp57
 70
     1
102
RTVSPropertyOp58
 70
     1
102
RTVSPropertyOp59
 70
     1
102
RTVSPropertyOp60
 70
     1
102
RTVSPropertyOp61
 70
     1
102
RTVSPropertyOp62
 70
     1
  0
XRECORD
  5
46C
102
{ACAD_REACTORS
330
46B
102
}
330
46B
100
AcDbXrecord
280
     1
102
RTVSPost2010Prop28
280
     0
102
RTVSPost2010PropOp28
 70
     1
102
RTVSPost2010Prop29
280
     1
102
RTVSPost2010PropOp29
 70
     1
102
RTVSPost2010Prop30
280
     1
102
RTVSPost2010PropOp30
 70
     1
102
RTVSPost2010Prop31
280
     0
102
RTVSPost2010PropOp31
 70
     1
102
RTVSPost2010Prop32
280
     0
102
RTVSPost2010PropOp32
 70
     1
102
RTVSPost2010Prop33
280
     0
102
RTVSPost2010PropOp33
 70
     1
102
RTVSPost2010Prop34
280
     0
102
RTVSPost2010PropOp34
 70
     1
102
RTVSPost2010Prop35
280
     0
102
RTVSPost2010PropOp35
 70
     1
102
RTVSPost2010Prop36
280
     0
102
RTVSPost2010PropOp36
 70
     1
102
RTVSPost2010Prop37
 90
       50
102
RTVSPost2010PropOp37
 70
     1
102
RTVSPost2010Prop38
140
0.0
102
RTVSPost2010PropOp38
 70
     1
102
RTVSPost2010Prop39
140
1.0
102
RTVSPost2010PropOp39
 70
     1
102
RTVSPost2010Prop40
 90
        0
102
RTVSPost2010PropOp40
 70
     1
102
RTVSPost2010Prop41ColorIndex
 90
       18
102
RTVSPost2010Prop41ColorRGB
 90
        0
102
RTVSPost2010PropOp41
 70
     1
102
RTVSPost2010Prop42
 90
       50
102
RTVSPost2010PropOp42
 70
     1
102
RTVSPost2010Prop43
 90
        3
102
RTVSPost2010PropOp43
 70
     1
102
RTVSPost2010Prop44ColorIndex
 90
        5
102
RTVSPost2010Prop44ColorRGB
 90
      255
102
RTVSPost2010PropOp44
 70
     1
102
RTVSPost2010Prop45
280
     0
102
RTVSPost2010PropOp45
 70
     1
102
RTVSPost2010Prop46
 90
       50
102
RTVSPost2010PropOp46
 70
     1
102
RTVSPost2010Prop47
 90
       50
102
RTVSPost2010PropOp47
 70
     1
102
RTVSPost2010Prop48
 90
       50
102
RTVSPost2010PropOp48
 70
     1
102
RTVSPost2010Prop49
280
     0
102
RTVSPost2010PropOp49
 70
     1
102
RTVSPost2010Prop50
 90
       50
102
RTVSPost2010PropOp50
 70
     1
102
RTVSPost2010Prop51ColorIndex
 90
      256
102
RTVSPost2010Prop51ColorRGB
 90
-16777216
102
RTVSPost2010PropOp51
 70
     0
102
RTVSPost2010Prop52
140
1.0
102
RTVSPost2010PropOp52
 70
     0
102
RTVSPost2010Prop53
 90
        2
102
RTVSPost2010PropOp53
 70
     1
102
RTVSPost2010Prop54
  1
strokes_ogs.tif
102
RTVSPost2010PropOp54
 70
     1
102
RTVSPost2010Prop55
280
     0
102
RTVSPost2010PropOp55
 70
     1
102
RTVSPost2010Prop56
140
1.0
102
RTVSPost2010PropOp56
 70
     1
102
RTVSPost2010Prop57
140
1.0
102
RTVSPost2010PropOp57
 70
     1
102
RTVSPropertyOp0
 70
     1
102
RTVSPropertyOp1
 70
     1
102
RTVSPropertyOp2
 70
     1
102
RTVSPropertyOp3
 70
     1
102
RTVSPropertyOp4
 70
     1
102
RTVSPropertyOp5
 70
     1
102
RTVSPropertyOp6
 70
     1
102
RTVSPropertyOp7
 70
     1
102
RTVSPropertyOp8
 70
     1
102
RTVSPropertyOp9
 70
     1
102
RTVSPropertyOp10
 70
     1
102
RTVSPropertyOp11
 70
     1
102
RTVSPropertyOp12
 70
     1
102
RTVSPropertyOp13
 70
     1
102
RTVSPropertyOp14
 70
     1
102
RTVSPropertyOp15
 70
     1
102
RTVSPropertyOp16
 70
     1
102
RTVSPropertyOp17
 70
     1
102
RTVSPropertyOp18
 70
     1
102
RTVSPropertyOp19
 70
     1
102
RTVSPropertyOp20
 70
     1
102
RTVSPropertyOp21
 70
     1
102
RTVSPropertyOp22
 70
     1
102
RTVSPropertyOp23
 70
     1
102
RTVSPropertyOp24
 70
     1
102
RTVSPropertyOp25
 70
     1
102
RTVSPropertyOp26
 70
     1
102
RTVSPropertyOp27
 70
     1
102
RTVSPropertyOp28
 70
     1
102
RTVSPropertyOp29
 70
     1
102
RTVSPropertyOp30
 70
     1
102
RTVSPropertyOp31
 70
     1
102
RTVSPropertyOp32
 70
     1
102
RTVSPropertyOp33
 70
     1
102
RTVSPropertyOp34
 70
     1
102
RTVSPropertyOp35
 70
     1
102
RTVSPropertyOp36
 70
     1
102
RTVSPropertyOp37
 70
     1
102
RTVSPropertyOp38
 70
     1
102
RTVSPropertyOp39
 70
     1
102
RTVSPropertyOp40
 70
     1
102
RTVSPropertyOp41
 70
     1
102
RTVSPropertyOp42
 70
     1
102
RTVSPropertyOp43
 70
     1
102
RTVSPropertyOp44
 70
     1
102
RTVSPropertyOp45
 70
     1
102
RTVSPropertyOp46
 70
     1
102
RTVSPropertyOp47
 70
     1
102
RTVSPropertyOp48
 70
     1
102
RTVSPropertyOp49
 70
     1
102
RTVSPropertyOp50
 70
     1
102
RTVSPropertyOp51
 70
     0
102
RTVSPropertyOp52
 70
     0
102
RTVSPropertyOp53
 70
     1
102
RTVSPropertyOp54
 70
     1
102
RTVSPropertyOp55
 70
     1
102
RTVSPropertyOp56
 70
     1
102
RTVSPropertyOp57
 70
     1
102
RTVSPropertyOp58
 70
     1
102
RTVSPropertyOp59
 70
     1
102
RTVSPropertyOp60
 70
     1
102
RTVSPropertyOp61
 70
     1
102
RTVSPropertyOp62
 70
     1
  0
XRECORD
  5
46A
102
{ACAD_REACTORS
330
469
102
}
330
469
100
AcDbXrecord
280
     1
102
RTVSPost2010Prop28
280
     0
102
RTVSPost2010PropOp28
 70
     1
102
RTVSPost2010Prop29
280
     1
102
RTVSPost2010PropOp29
 70
     1
102
RTVSPost2010Prop30
280
     1
102
RTVSPost2010PropOp30
 70
     1
102
RTVSPost2010Prop31
280
     0
102
RTVSPost2010PropOp31
 70
     1
102
RTVSPost2010Prop32
280
     0
102
RTVSPost2010PropOp32
 70
     1
102
RTVSPost2010Prop33
280
     0
102
RTVSPost2010PropOp33
 70
     1
102
RTVSPost2010Prop34
280
     0
102
RTVSPost2010PropOp34
 70
     1
102
RTVSPost2010Prop35
280
     0
102
RTVSPost2010PropOp35
 70
     1
102
RTVSPost2010Prop36
280
     0
102
RTVSPost2010PropOp36
 70
     1
102
RTVSPost2010Prop37
 90
       50
102
RTVSPost2010PropOp37
 70
     1
102
RTVSPost2010Prop38
140
0.0
102
RTVSPost2010PropOp38
 70
     1
102
RTVSPost2010Prop39
140
1.0
102
RTVSPost2010PropOp39
 70
     1
102
RTVSPost2010Prop40
 90
        0
102
RTVSPost2010PropOp40
 70
     1
102
RTVSPost2010Prop41ColorIndex
 90
       18
102
RTVSPost2010Prop41ColorRGB
 90
        0
102
RTVSPost2010PropOp41
 70
     1
102
RTVSPost2010Prop42
 90
       50
102
RTVSPost2010PropOp42
 70
     1
102
RTVSPost2010Prop43
 90
        3
102
RTVSPost2010PropOp43
 70
     1
102
RTVSPost2010Prop44ColorIndex
 90
        5
102
RTVSPost2010Prop44ColorRGB
 90
      255
102
RTVSPost2010PropOp44
 70
     1
102
RTVSPost2010Prop45
280
     0
102
RTVSPost2010PropOp45
 70
     1
102
RTVSPost2010Prop46
 90
       50
102
RTVSPost2010PropOp46
 70
     1
102
RTVSPost2010Prop47
 90
       50
102
RTVSPost2010PropOp47
 70
     1
102
RTVSPost2010Prop48
 90
       50
102
RTVSPost2010PropOp48
 70
     1
102
RTVSPost2010Prop49
280
     0
102
RTVSPost2010PropOp49
 70
     1
102
RTVSPost2010Prop50
 90
       50
102
RTVSPost2010PropOp50
 70
     1
102
RTVSPost2010Prop51ColorIndex
 90
      256
102
RTVSPost2010Prop51ColorRGB
 90
-16777216
102
RTVSPost2010PropOp51
 70
     0
102
RTVSPost2010Prop52
140
1.0
102
RTVSPost2010PropOp52
 70
     0
102
RTVSPost2010Prop53
 90
        2
102
RTVSPost2010PropOp53
 70
     1
102
RTVSPost2010Prop54
  1
strokes_ogs.tif
102
RTVSPost2010PropOp54
 70
     1
102
RTVSPost2010Prop55
280
     0
102
RTVSPost2010PropOp55
 70
     1
102
RTVSPost2010Prop56
140
1.0
102
RTVSPost2010PropOp56
 70
     1
102
RTVSPost2010Prop57
140
1.0
102
RTVSPost2010PropOp57
 70
     1
102
RTVSPropertyOp0
 70
     1
102
RTVSPropertyOp1
 70
     1
102
RTVSPropertyOp2
 70
     1
102
RTVSPropertyOp3
 70
     1
102
RTVSPropertyOp4
 70
     1
102
RTVSPropertyOp5
 70
     1
102
RTVSPropertyOp6
 70
     1
102
RTVSPropertyOp7
 70
     1
102
RTVSPropertyOp8
 70
     1
102
RTVSPropertyOp9
 70
     1
102
RTVSPropertyOp10
 70
     1
102
RTVSPropertyOp11
 70
     1
102
RTVSPropertyOp12
 70
     1
102
RTVSPropertyOp13
 70
     1
102
RTVSPropertyOp14
 70
     1
102
RTVSPropertyOp15
 70
     1
102
RTVSPropertyOp16
 70
     1
102
RTVSPropertyOp17
 70
     1
102
RTVSPropertyOp18
 70
     1
102
RTVSPropertyOp19
 70
     1
102
RTVSPropertyOp20
 70
     1
102
RTVSPropertyOp21
 70
     1
102
RTVSPropertyOp22
 70
     1
102
RTVSPropertyOp23
 70
     1
102
RTVSPropertyOp24
 70
     1
102
RTVSPropertyOp25
 70
     1
102
RTVSPropertyOp26
 70
     1
102
RTVSPropertyOp27
 70
     1
102
RTVSPropertyOp28
 70
     1
102
RTVSPropertyOp29
 70
     1
102
RTVSPropertyOp30
 70
     1
102
RTVSPropertyOp31
 70
     1
102
RTVSPropertyOp32
 70
     1
102
RTVSPropertyOp33
 70
     1
102
RTVSPropertyOp34
 70
     1
102
RTVSPropertyOp35
 70
     1
102
RTVSPropertyOp36
 70
     1
102
RTVSPropertyOp37
 70
     1
102
RTVSPropertyOp38
 70
     1
102
RTVSPropertyOp39
 70
     1
102
RTVSPropertyOp40
 70
     1
102
RTVSPropertyOp41
 70
     1
102
RTVSPropertyOp42
 70
     1
102
RTVSPropertyOp43
 70
     1
102
RTVSPropertyOp44
 70
     1
102
RTVSPropertyOp45
 70
     1
102
RTVSPropertyOp46
 70
     1
102
RTVSPropertyOp47
 70
     1
102
RTVSPropertyOp48
 70
     1
102
RTVSPropertyOp49
 70
     1
102
RTVSPropertyOp50
 70
     1
102
RTVSPropertyOp51
 70
     0
102
RTVSPropertyOp52
 70
     0
102
RTVSPropertyOp53
 70
     1
102
RTVSPropertyOp54
 70
     1
102
RTVSPropertyOp55
 70
     1
102
RTVSPropertyOp56
 70
     1
102
RTVSPropertyOp57
 70
     1
102
RTVSPropertyOp58
 70
     1
102
RTVSPropertyOp59
 70
     1
102
RTVSPropertyOp60
 70
     1
102
RTVSPropertyOp61
 70
     1
102
RTVSPropertyOp62
 70
     1
  0
XRECORD
  5
464
102
{ACAD_REACTORS
330
463
102
}
330
463
100
AcDbXrecord
280
     1
102
RTVSPost2010Prop28
280
     0
102
RTVSPost2010PropOp28
 70
     1
102
RTVSPost2010Prop29
280
     1
102
RTVSPost2010PropOp29
 70
     1
102
RTVSPost2010Prop30
280
     1
102
RTVSPost2010PropOp30
 70
     1
102
RTVSPost2010Prop31
280
     0
102
RTVSPost2010PropOp31
 70
     1
102
RTVSPost2010Prop32
280
     0
102
RTVSPost2010PropOp32
 70
     1
102
RTVSPost2010Prop33
280
     0
102
RTVSPost2010PropOp33
 70
     1
102
RTVSPost2010Prop34
280
     0
102
RTVSPost2010PropOp34
 70
     1
102
RTVSPost2010Prop35
280
     0
102
RTVSPost2010PropOp35
 70
     1
102
RTVSPost2010Prop36
280
     0
102
RTVSPost2010PropOp36
 70
     1
102
RTVSPost2010Prop37
 90
       50
102
RTVSPost2010PropOp37
 70
     1
102
RTVSPost2010Prop38
140
0.0
102
RTVSPost2010PropOp38
 70
     1
102
RTVSPost2010Prop39
140
1.0
102
RTVSPost2010PropOp39
 70
     1
102
RTVSPost2010Prop40
 90
        0
102
RTVSPost2010PropOp40
 70
     1
102
RTVSPost2010Prop41ColorIndex
 90
       18
102
RTVSPost2010Prop41ColorRGB
 90
        0
102
RTVSPost2010PropOp41
 70
     1
102
RTVSPost2010Prop42
 90
       50
102
RTVSPost2010PropOp42
 70
     1
102
RTVSPost2010Prop43
 90
        3
102
RTVSPost2010PropOp43
 70
     1
102
RTVSPost2010Prop44ColorIndex
 90
        5
102
RTVSPost2010Prop44ColorRGB
 90
      255
102
RTVSPost2010PropOp44
 70
     1
102
RTVSPost2010Prop45
280
     0
102
RTVSPost2010PropOp45
 70
     1
102
RTVSPost2010Prop46
 90
       50
102
RTVSPost2010PropOp46
 70
     1
102
RTVSPost2010Prop47
 90
       50
102
RTVSPost2010PropOp47
 70
     1
102
RTVSPost2010Prop48
 90
       50
102
RTVSPost2010PropOp48
 70
     1
102
RTVSPost2010Prop49
280
     0
102
RTVSPost2010PropOp49
 70
     1
102
RTVSPost2010Prop50
 90
       50
102
RTVSPost2010PropOp50
 70
     1
102
RTVSPost2010Prop51ColorIndex
 90
      256
102
RTVSPost2010Prop51ColorRGB
 90
-16777216
102
RTVSPost2010PropOp51
 70
     0
102
RTVSPost2010Prop52
140
1.0
102
RTVSPost2010PropOp52
 70
     0
102
RTVSPost2010Prop53
 90
        2
102
RTVSPost2010PropOp53
 70
     1
102
RTVSPost2010Prop54
  1
strokes_ogs.tif
102
RTVSPost2010PropOp54
 70
     1
102
RTVSPost2010Prop55
280
     0
102
RTVSPost2010PropOp55
 70
     1
102
RTVSPost2010Prop56
140
1.0
102
RTVSPost2010PropOp56
 70
     1
102
RTVSPost2010Prop57
140
1.0
102
RTVSPost2010PropOp57
 70
     1
102
RTVSPropertyOp0
 70
     1
102
RTVSPropertyOp1
 70
     1
102
RTVSPropertyOp2
 70
     1
102
RTVSPropertyOp3
 70
     1
102
RTVSPropertyOp4
 70
     1
102
RTVSPropertyOp5
 70
     1
102
RTVSPropertyOp6
 70
     1
102
RTVSPropertyOp7
 70
     1
102
RTVSPropertyOp8
 70
     1
102
RTVSPropertyOp9
 70
     1
102
RTVSPropertyOp10
 70
     1
102
RTVSPropertyOp11
 70
     1
102
RTVSPropertyOp12
 70
     1
102
RTVSPropertyOp13
 70
     1
102
RTVSPropertyOp14
 70
     1
102
RTVSPropertyOp15
 70
     1
102
RTVSPropertyOp16
 70
     1
102
RTVSPropertyOp17
 70
     1
102
RTVSPropertyOp18
 70
     1
102
RTVSPropertyOp19
 70
     1
102
RTVSPropertyOp20
 70
     1
102
RTVSPropertyOp21
 70
     1
102
RTVSPropertyOp22
 70
     1
102
RTVSPropertyOp23
 70
     1
102
RTVSPropertyOp24
 70
     1
102
RTVSPropertyOp25
 70
     1
102
RTVSPropertyOp26
 70
     1
102
RTVSPropertyOp27
 70
     1
102
RTVSPropertyOp28
 70
     1
102
RTVSPropertyOp29
 70
     1
102
RTVSPropertyOp30
 70
     1
102
RTVSPropertyOp31
 70
     1
102
RTVSPropertyOp32
 70
     1
102
RTVSPropertyOp33
 70
     1
102
RTVSPropertyOp34
 70
     1
102
RTVSPropertyOp35
 70
     1
102
RTVSPropertyOp36
 70
     1
102
RTVSPropertyOp37
 70
     1
102
RTVSPropertyOp38
 70
     1
102
RTVSPropertyOp39
 70
     1
102
RTVSPropertyOp40
 70
     1
102
RTVSPropertyOp41
 70
     1
102
RTVSPropertyOp42
 70
     1
102
RTVSPropertyOp43
 70
     1
102
RTVSPropertyOp44
 70
     1
102
RTVSPropertyOp45
 70
     1
102
RTVSPropertyOp46
 70
     1
102
RTVSPropertyOp47
 70
     1
102
RTVSPropertyOp48
 70
     1
102
RTVSPropertyOp49
 70
     1
102
RTVSPropertyOp50
 70
     1
102
RTVSPropertyOp51
 70
     0
102
RTVSPropertyOp52
 70
     0
102
RTVSPropertyOp53
 70
     1
102
RTVSPropertyOp54
 70
     1
102
RTVSPropertyOp55
 70
     1
102
RTVSPropertyOp56
 70
     1
102
RTVSPropertyOp57
 70
     1
102
RTVSPropertyOp58
 70
     1
102
RTVSPropertyOp59
 70
     1
102
RTVSPropertyOp60
 70
     1
102
RTVSPropertyOp61
 70
     1
102
RTVSPropertyOp62
 70
     1
  0
XRECORD
  5
466
102
{ACAD_REACTORS
330
465
102
}
330
465
100
AcDbXrecord
280
     1
102
RTVSPost2010Prop28
280
     0
102
RTVSPost2010PropOp28
 70
     1
102
RTVSPost2010Prop29
280
     1
102
RTVSPost2010PropOp29
 70
     1
102
RTVSPost2010Prop30
280
     1
102
RTVSPost2010PropOp30
 70
     1
102
RTVSPost2010Prop31
280
     0
102
RTVSPost2010PropOp31
 70
     1
102
RTVSPost2010Prop32
280
     0
102
RTVSPost2010PropOp32
 70
     1
102
RTVSPost2010Prop33
280
     0
102
RTVSPost2010PropOp33
 70
     1
102
RTVSPost2010Prop34
280
     0
102
RTVSPost2010PropOp34
 70
     1
102
RTVSPost2010Prop35
280
     0
102
RTVSPost2010PropOp35
 70
     1
102
RTVSPost2010Prop36
280
     0
102
RTVSPost2010PropOp36
 70
     1
102
RTVSPost2010Prop37
 90
       50
102
RTVSPost2010PropOp37
 70
     1
102
RTVSPost2010Prop38
140
0.0
102
RTVSPost2010PropOp38
 70
     1
102
RTVSPost2010Prop39
140
1.0
102
RTVSPost2010PropOp39
 70
     1
102
RTVSPost2010Prop40
 90
        0
102
RTVSPost2010PropOp40
 70
     1
102
RTVSPost2010Prop41ColorIndex
 90
       18
102
RTVSPost2010Prop41ColorRGB
 90
        0
102
RTVSPost2010PropOp41
 70
     1
102
RTVSPost2010Prop42
 90
       50
102
RTVSPost2010PropOp42
 70
     1
102
RTVSPost2010Prop43
 90
        3
102
RTVSPost2010PropOp43
 70
     1
102
RTVSPost2010Prop44ColorIndex
 90
        5
102
RTVSPost2010Prop44ColorRGB
 90
      255
102
RTVSPost2010PropOp44
 70
     1
102
RTVSPost2010Prop45
280
     0
102
RTVSPost2010PropOp45
 70
     1
102
RTVSPost2010Prop46
 90
       50
102
RTVSPost2010PropOp46
 70
     1
102
RTVSPost2010Prop47
 90
       50
102
RTVSPost2010PropOp47
 70
     1
102
RTVSPost2010Prop48
 90
       50
102
RTVSPost2010PropOp48
 70
     1
102
RTVSPost2010Prop49
280
     0
102
RTVSPost2010PropOp49
 70
     1
102
RTVSPost2010Prop50
 90
       50
102
RTVSPost2010PropOp50
 70
     1
102
RTVSPost2010Prop51ColorIndex
 90
      256
102
RTVSPost2010Prop51ColorRGB
 90
-16777216
102
RTVSPost2010PropOp51
 70
     0
102
RTVSPost2010Prop52
140
1.0
102
RTVSPost2010PropOp52
 70
     0
102
RTVSPost2010Prop53
 90
        2
102
RTVSPost2010PropOp53
 70
     1
102
RTVSPost2010Prop54
  1
strokes_ogs.tif
102
RTVSPost2010PropOp54
 70
     1
102
RTVSPost2010Prop55
280
     0
102
RTVSPost2010PropOp55
 70
     1
102
RTVSPost2010Prop56
140
1.0
102
RTVSPost2010PropOp56
 70
     1
102
RTVSPost2010Prop57
140
1.0
102
RTVSPost2010PropOp57
 70
     1
102
RTVSPropertyOp0
 70
     1
102
RTVSPropertyOp1
 70
     1
102
RTVSPropertyOp2
 70
     1
102
RTVSPropertyOp3
 70
     1
102
RTVSPropertyOp4
 70
     1
102
RTVSPropertyOp5
 70
     1
102
RTVSPropertyOp6
 70
     1
102
RTVSPropertyOp7
 70
     1
102
RTVSPropertyOp8
 70
     1
102
RTVSPropertyOp9
 70
     1
102
RTVSPropertyOp10
 70
     1
102
RTVSPropertyOp11
 70
     1
102
RTVSPropertyOp12
 70
     1
102
RTVSPropertyOp13
 70
     1
102
RTVSPropertyOp14
 70
     1
102
RTVSPropertyOp15
 70
     1
102
RTVSPropertyOp16
 70
     1
102
RTVSPropertyOp17
 70
     1
102
RTVSPropertyOp18
 70
     1
102
RTVSPropertyOp19
 70
     1
102
RTVSPropertyOp20
 70
     1
102
RTVSPropertyOp21
 70
     1
102
RTVSPropertyOp22
 70
     1
102
RTVSPropertyOp23
 70
     1
102
RTVSPropertyOp24
 70
     1
102
RTVSPropertyOp25
 70
     1
102
RTVSPropertyOp26
 70
     1
102
RTVSPropertyOp27
 70
     1
102
RTVSPropertyOp28
 70
     1
102
RTVSPropertyOp29
 70
     1
102
RTVSPropertyOp30
 70
     1
102
RTVSPropertyOp31
 70
     1
102
RTVSPropertyOp32
 70
     1
102
RTVSPropertyOp33
 70
     1
102
RTVSPropertyOp34
 70
     1
102
RTVSPropertyOp35
 70
     1
102
RTVSPropertyOp36
 70
     1
102
RTVSPropertyOp37
 70
     1
102
RTVSPropertyOp38
 70
     1
102
RTVSPropertyOp39
 70
     1
102
RTVSPropertyOp40
 70
     1
102
RTVSPropertyOp41
 70
     1
102
RTVSPropertyOp42
 70
     1
102
RTVSPropertyOp43
 70
     1
102
RTVSPropertyOp44
 70
     1
102
RTVSPropertyOp45
 70
     1
102
RTVSPropertyOp46
 70
     1
102
RTVSPropertyOp47
 70
     1
102
RTVSPropertyOp48
 70
     1
102
RTVSPropertyOp49
 70
     1
102
RTVSPropertyOp50
 70
     1
102
RTVSPropertyOp51
 70
     0
102
RTVSPropertyOp52
 70
     0
102
RTVSPropertyOp53
 70
     1
102
RTVSPropertyOp54
 70
     1
102
RTVSPropertyOp55
 70
     1
102
RTVSPropertyOp56
 70
     1
102
RTVSPropertyOp57
 70
     1
102
RTVSPropertyOp58
 70
     1
102
RTVSPropertyOp59
 70
     1
102
RTVSPropertyOp60
 70
     1
102
RTVSPropertyOp61
 70
     1
102
RTVSPropertyOp62
 70
     1
  0
XRECORD
  5
45C
102
{ACAD_REACTORS
330
45B
102
}
330
45B
100
AcDbXrecord
280
     1
102
RTVSPost2010Prop28
280
     0
102
RTVSPost2010PropOp28
 70
     1
102
RTVSPost2010Prop29
280
     1
102
RTVSPost2010PropOp29
 70
     1
102
RTVSPost2010Prop30
280
     1
102
RTVSPost2010PropOp30
 70
     1
102
RTVSPost2010Prop31
280
     0
102
RTVSPost2010PropOp31
 70
     1
102
RTVSPost2010Prop32
280
     0
102
RTVSPost2010PropOp32
 70
     1
102
RTVSPost2010Prop33
280
     0
102
RTVSPost2010PropOp33
 70
     1
102
RTVSPost2010Prop34
280
     0
102
RTVSPost2010PropOp34
 70
     1
102
RTVSPost2010Prop35
280
     0
102
RTVSPost2010PropOp35
 70
     1
102
RTVSPost2010Prop36
280
     0
102
RTVSPost2010PropOp36
 70
     1
102
RTVSPost2010Prop37
 90
       50
102
RTVSPost2010PropOp37
 70
     1
102
RTVSPost2010Prop38
140
0.0
102
RTVSPost2010PropOp38
 70
     1
102
RTVSPost2010Prop39
140
1.0
102
RTVSPost2010PropOp39
 70
     1
102
RTVSPost2010Prop40
 90
        0
102
RTVSPost2010PropOp40
 70
     1
102
RTVSPost2010Prop41ColorIndex
 90
       18
102
RTVSPost2010Prop41ColorRGB
 90
        0
102
RTVSPost2010PropOp41
 70
     1
102
RTVSPost2010Prop42
 90
       50
102
RTVSPost2010PropOp42
 70
     1
102
RTVSPost2010Prop43
 90
        3
102
RTVSPost2010PropOp43
 70
     1
102
RTVSPost2010Prop44ColorIndex
 90
        5
102
RTVSPost2010Prop44ColorRGB
 90
      255
102
RTVSPost2010PropOp44
 70
     1
102
RTVSPost2010Prop45
280
     0
102
RTVSPost2010PropOp45
 70
     1
102
RTVSPost2010Prop46
 90
       50
102
RTVSPost2010PropOp46
 70
     1
102
RTVSPost2010Prop47
 90
       50
102
RTVSPost2010PropOp47
 70
     1
102
RTVSPost2010Prop48
 90
       50
102
RTVSPost2010PropOp48
 70
     1
102
RTVSPost2010Prop49
280
     0
102
RTVSPost2010PropOp49
 70
     1
102
RTVSPost2010Prop50
 90
       50
102
RTVSPost2010PropOp50
 70
     1
102
RTVSPost2010Prop51ColorIndex
 90
      256
102
RTVSPost2010Prop51ColorRGB
 90
-16777216
102
RTVSPost2010PropOp51
 70
     0
102
RTVSPost2010Prop52
140
1.0
102
RTVSPost2010PropOp52
 70
     0
102
RTVSPost2010Prop53
 90
        2
102
RTVSPost2010PropOp53
 70
     1
102
RTVSPost2010Prop54
  1
strokes_ogs.tif
102
RTVSPost2010PropOp54
 70
     1
102
RTVSPost2010Prop55
280
     0
102
RTVSPost2010PropOp55
 70
     1
102
RTVSPost2010Prop56
140
1.0
102
RTVSPost2010PropOp56
 70
     1
102
RTVSPost2010Prop57
140
1.0
102
RTVSPost2010PropOp57
 70
     1
102
RTVSPropertyOp0
 70
     1
102
RTVSPropertyOp1
 70
     1
102
RTVSPropertyOp2
 70
     1
102
RTVSPropertyOp3
 70
     1
102
RTVSPropertyOp4
 70
     1
102
RTVSPropertyOp5
 70
     1
102
RTVSPropertyOp6
 70
     1
102
RTVSPropertyOp7
 70
     1
102
RTVSPropertyOp8
 70
     1
102
RTVSPropertyOp9
 70
     1
102
RTVSPropertyOp10
 70
     1
102
RTVSPropertyOp11
 70
     1
102
RTVSPropertyOp12
 70
     1
102
RTVSPropertyOp13
 70
     1
102
RTVSPropertyOp14
 70
     1
102
RTVSPropertyOp15
 70
     1
102
RTVSPropertyOp16
 70
     1
102
RTVSPropertyOp17
 70
     1
102
RTVSPropertyOp18
 70
     1
102
RTVSPropertyOp19
 70
     1
102
RTVSPropertyOp20
 70
     1
102
RTVSPropertyOp21
 70
     1
102
RTVSPropertyOp22
 70
     1
102
RTVSPropertyOp23
 70
     1
102
RTVSPropertyOp24
 70
     1
102
RTVSPropertyOp25
 70
     1
102
RTVSPropertyOp26
 70
     1
102
RTVSPropertyOp27
 70
     1
102
RTVSPropertyOp28
 70
     1
102
RTVSPropertyOp29
 70
     1
102
RTVSPropertyOp30
 70
     1
102
RTVSPropertyOp31
 70
     1
102
RTVSPropertyOp32
 70
     1
102
RTVSPropertyOp33
 70
     1
102
RTVSPropertyOp34
 70
     1
102
RTVSPropertyOp35
 70
     1
102
RTVSPropertyOp36
 70
     1
102
RTVSPropertyOp37
 70
     1
102
RTVSPropertyOp38
 70
     1
102
RTVSPropertyOp39
 70
     1
102
RTVSPropertyOp40
 70
     1
102
RTVSPropertyOp41
 70
     1
102
RTVSPropertyOp42
 70
     1
102
RTVSPropertyOp43
 70
     1
102
RTVSPropertyOp44
 70
     1
102
RTVSPropertyOp45
 70
     1
102
RTVSPropertyOp46
 70
     1
102
RTVSPropertyOp47
 70
     1
102
RTVSPropertyOp48
 70
     1
102
RTVSPropertyOp49
 70
     1
102
RTVSPropertyOp50
 70
     1
102
RTVSPropertyOp51
 70
     0
102
RTVSPropertyOp52
 70
     0
102
RTVSPropertyOp53
 70
     1
102
RTVSPropertyOp54
 70
     1
102
RTVSPropertyOp55
 70
     1
102
RTVSPropertyOp56
 70
     1
102
RTVSPropertyOp57
 70
     1
102
RTVSPropertyOp58
 70
     1
102
RTVSPropertyOp59
 70
     1
102
RTVSPropertyOp60
 70
     1
102
RTVSPropertyOp61
 70
     1
102
RTVSPropertyOp62
 70
     1
  0
XRECORD
  5
450
102
{ACAD_REACTORS
330
44F
102
}
330
44F
100
AcDbXrecord
280
     1
102
RTVSPost2010Prop28
280
     0
102
RTVSPost2010PropOp28
 70
     1
102
RTVSPost2010Prop29
280
     1
102
RTVSPost2010PropOp29
 70
     1
102
RTVSPost2010Prop30
280
     1
102
RTVSPost2010PropOp30
 70
     1
102
RTVSPost2010Prop31
280
     0
102
RTVSPost2010PropOp31
 70
     1
102
RTVSPost2010Prop32
280
     0
102
RTVSPost2010PropOp32
 70
     1
102
RTVSPost2010Prop33
280
     0
102
RTVSPost2010PropOp33
 70
     1
102
RTVSPost2010Prop34
280
     0
102
RTVSPost2010PropOp34
 70
     1
102
RTVSPost2010Prop35
280
     0
102
RTVSPost2010PropOp35
 70
     1
102
RTVSPost2010Prop36
280
     0
102
RTVSPost2010PropOp36
 70
     1
102
RTVSPost2010Prop37
 90
       50
102
RTVSPost2010PropOp37
 70
     1
102
RTVSPost2010Prop38
140
0.0
102
RTVSPost2010PropOp38
 70
     1
102
RTVSPost2010Prop39
140
1.0
102
RTVSPost2010PropOp39
 70
     1
102
RTVSPost2010Prop40
 90
        0
102
RTVSPost2010PropOp40
 70
     1
102
RTVSPost2010Prop41ColorIndex
 90
       18
102
RTVSPost2010Prop41ColorRGB
 90
        0
102
RTVSPost2010PropOp41
 70
     1
102
RTVSPost2010Prop42
 90
       50
102
RTVSPost2010PropOp42
 70
     1
102
RTVSPost2010Prop43
 90
        3
102
RTVSPost2010PropOp43
 70
     1
102
RTVSPost2010Prop44ColorIndex
 90
        5
102
RTVSPost2010Prop44ColorRGB
 90
      255
102
RTVSPost2010PropOp44
 70
     1
102
RTVSPost2010Prop45
280
     0
102
RTVSPost2010PropOp45
 70
     1
102
RTVSPost2010Prop46
 90
       50
102
RTVSPost2010PropOp46
 70
     1
102
RTVSPost2010Prop47
 90
       50
102
RTVSPost2010PropOp47
 70
     1
102
RTVSPost2010Prop48
 90
       50
102
RTVSPost2010PropOp48
 70
     1
102
RTVSPost2010Prop49
280
     0
102
RTVSPost2010PropOp49
 70
     1
102
RTVSPost2010Prop50
 90
       50
102
RTVSPost2010PropOp50
 70
     1
102
RTVSPost2010Prop51ColorIndex
 90
      256
102
RTVSPost2010Prop51ColorRGB
 90
-16777216
102
RTVSPost2010PropOp51
 70
     0
102
RTVSPost2010Prop52
140
1.0
102
RTVSPost2010PropOp52
 70
     0
102
RTVSPost2010Prop53
 90
        2
102
RTVSPost2010PropOp53
 70
     1
102
RTVSPost2010Prop54
  1
strokes_ogs.tif
102
RTVSPost2010PropOp54
 70
     1
102
RTVSPost2010Prop55
280
     0
102
RTVSPost2010PropOp55
 70
     1
102
RTVSPost2010Prop56
140
1.0
102
RTVSPost2010PropOp56
 70
     1
102
RTVSPost2010Prop57
140
1.0
102
RTVSPost2010PropOp57
 70
     1
102
RTVSPropertyOp0
 70
     1
102
RTVSPropertyOp1
 70
     1
102
RTVSPropertyOp2
 70
     1
102
RTVSPropertyOp3
 70
     1
102
RTVSPropertyOp4
 70
     1
102
RTVSPropertyOp5
 70
     1
102
RTVSPropertyOp6
 70
     1
102
RTVSPropertyOp7
 70
     1
102
RTVSPropertyOp8
 70
     1
102
RTVSPropertyOp9
 70
     1
102
RTVSPropertyOp10
 70
     1
102
RTVSPropertyOp11
 70
     1
102
RTVSPropertyOp12
 70
     1
102
RTVSPropertyOp13
 70
     1
102
RTVSPropertyOp14
 70
     1
102
RTVSPropertyOp15
 70
     1
102
RTVSPropertyOp16
 70
     1
102
RTVSPropertyOp17
 70
     1
102
RTVSPropertyOp18
 70
     1
102
RTVSPropertyOp19
 70
     1
102
RTVSPropertyOp20
 70
     1
102
RTVSPropertyOp21
 70
     1
102
RTVSPropertyOp22
 70
     1
102
RTVSPropertyOp23
 70
     1
102
RTVSPropertyOp24
 70
     1
102
RTVSPropertyOp25
 70
     1
102
RTVSPropertyOp26
 70
     1
102
RTVSPropertyOp27
 70
     1
102
RTVSPropertyOp28
 70
     1
102
RTVSPropertyOp29
 70
     1
102
RTVSPropertyOp30
 70
     1
102
RTVSPropertyOp31
 70
     1
102
RTVSPropertyOp32
 70
     1
102
RTVSPropertyOp33
 70
     1
102
RTVSPropertyOp34
 70
     1
102
RTVSPropertyOp35
 70
     1
102
RTVSPropertyOp36
 70
     1
102
RTVSPropertyOp37
 70
     1
102
RTVSPropertyOp38
 70
     1
102
RTVSPropertyOp39
 70
     1
102
RTVSPropertyOp40
 70
     1
102
RTVSPropertyOp41
 70
     1
102
RTVSPropertyOp42
 70
     1
102
RTVSPropertyOp43
 70
     1
102
RTVSPropertyOp44
 70
     1
102
RTVSPropertyOp45
 70
     1
102
RTVSPropertyOp46
 70
     1
102
RTVSPropertyOp47
 70
     1
102
RTVSPropertyOp48
 70
     1
102
RTVSPropertyOp49
 70
     1
102
RTVSPropertyOp50
 70
     1
102
RTVSPropertyOp51
 70
     0
102
RTVSPropertyOp52
 70
     0
102
RTVSPropertyOp53
 70
     1
102
RTVSPropertyOp54
 70
     1
102
RTVSPropertyOp55
 70
     1
102
RTVSPropertyOp56
 70
     1
102
RTVSPropertyOp57
 70
     1
102
RTVSPropertyOp58
 70
     1
102
RTVSPropertyOp59
 70
     1
102
RTVSPropertyOp60
 70
     1
102
RTVSPropertyOp61
 70
     1
102
RTVSPropertyOp62
 70
     1
  0
XRECORD
  5
468
102
{ACAD_REACTORS
330
467
102
}
330
467
100
AcDbXrecord
280
     1
102
RTVSPost2010Prop28
280
     0
102
RTVSPost2010PropOp28
 70
     1
102
RTVSPost2010Prop29
280
     1
102
RTVSPost2010PropOp29
 70
     1
102
RTVSPost2010Prop30
280
     1
102
RTVSPost2010PropOp30
 70
     1
102
RTVSPost2010Prop31
280
     0
102
RTVSPost2010PropOp31
 70
     1
102
RTVSPost2010Prop32
280
     0
102
RTVSPost2010PropOp32
 70
     1
102
RTVSPost2010Prop33
280
     0
102
RTVSPost2010PropOp33
 70
     1
102
RTVSPost2010Prop34
280
     0
102
RTVSPost2010PropOp34
 70
     1
102
RTVSPost2010Prop35
280
     0
102
RTVSPost2010PropOp35
 70
     1
102
RTVSPost2010Prop36
280
     0
102
RTVSPost2010PropOp36
 70
     1
102
RTVSPost2010Prop37
 90
       50
102
RTVSPost2010PropOp37
 70
     1
102
RTVSPost2010Prop38
140
0.0
102
RTVSPost2010PropOp38
 70
     1
102
RTVSPost2010Prop39
140
1.0
102
RTVSPost2010PropOp39
 70
     1
102
RTVSPost2010Prop40
 90
        0
102
RTVSPost2010PropOp40
 70
     1
102
RTVSPost2010Prop41ColorIndex
 90
       18
102
RTVSPost2010Prop41ColorRGB
 90
        0
102
RTVSPost2010PropOp41
 70
     1
102
RTVSPost2010Prop42
 90
       50
102
RTVSPost2010PropOp42
 70
     1
102
RTVSPost2010Prop43
 90
        3
102
RTVSPost2010PropOp43
 70
     1
102
RTVSPost2010Prop44ColorIndex
 90
        5
102
RTVSPost2010Prop44ColorRGB
 90
      255
102
RTVSPost2010PropOp44
 70
     1
102
RTVSPost2010Prop45
280
     0
102
RTVSPost2010PropOp45
 70
     1
102
RTVSPost2010Prop46
 90
       50
102
RTVSPost2010PropOp46
 70
     1
102
RTVSPost2010Prop47
 90
       50
102
RTVSPost2010PropOp47
 70
     1
102
RTVSPost2010Prop48
 90
       50
102
RTVSPost2010PropOp48
 70
     1
102
RTVSPost2010Prop49
280
     0
102
RTVSPost2010PropOp49
 70
     1
102
RTVSPost2010Prop50
 90
       50
102
RTVSPost2010PropOp50
 70
     1
102
RTVSPost2010Prop51ColorIndex
 90
      256
102
RTVSPost2010Prop51ColorRGB
 90
-16777216
102
RTVSPost2010PropOp51
 70
     0
102
RTVSPost2010Prop52
140
1.0
102
RTVSPost2010PropOp52
 70
     0
102
RTVSPost2010Prop53
 90
        2
102
RTVSPost2010PropOp53
 70
     1
102
RTVSPost2010Prop54
  1
strokes_ogs.tif
102
RTVSPost2010PropOp54
 70
     1
102
RTVSPost2010Prop55
280
     0
102
RTVSPost2010PropOp55
 70
     1
102
RTVSPost2010Prop56
140
1.0
102
RTVSPost2010PropOp56
 70
     1
102
RTVSPost2010Prop57
140
1.0
102
RTVSPost2010PropOp57
 70
     1
102
RTVSPropertyOp0
 70
     1
102
RTVSPropertyOp1
 70
     1
102
RTVSPropertyOp2
 70
     1
102
RTVSPropertyOp3
 70
     1
102
RTVSPropertyOp4
 70
     1
102
RTVSPropertyOp5
 70
     1
102
RTVSPropertyOp6
 70
     1
102
RTVSPropertyOp7
 70
     1
102
RTVSPropertyOp8
 70
     1
102
RTVSPropertyOp9
 70
     1
102
RTVSPropertyOp10
 70
     1
102
RTVSPropertyOp11
 70
     1
102
RTVSPropertyOp12
 70
     1
102
RTVSPropertyOp13
 70
     1
102
RTVSPropertyOp14
 70
     1
102
RTVSPropertyOp15
 70
     1
102
RTVSPropertyOp16
 70
     1
102
RTVSPropertyOp17
 70
     1
102
RTVSPropertyOp18
 70
     1
102
RTVSPropertyOp19
 70
     1
102
RTVSPropertyOp20
 70
     1
102
RTVSPropertyOp21
 70
     1
102
RTVSPropertyOp22
 70
     1
102
RTVSPropertyOp23
 70
     1
102
RTVSPropertyOp24
 70
     1
102
RTVSPropertyOp25
 70
     1
102
RTVSPropertyOp26
 70
     1
102
RTVSPropertyOp27
 70
     1
102
RTVSPropertyOp28
 70
     1
102
RTVSPropertyOp29
 70
     1
102
RTVSPropertyOp30
 70
     1
102
RTVSPropertyOp31
 70
     1
102
RTVSPropertyOp32
 70
     1
102
RTVSPropertyOp33
 70
     1
102
RTVSPropertyOp34
 70
     1
102
RTVSPropertyOp35
 70
     1
102
RTVSPropertyOp36
 70
     1
102
RTVSPropertyOp37
 70
     1
102
RTVSPropertyOp38
 70
     1
102
RTVSPropertyOp39
 70
     1
102
RTVSPropertyOp40
 70
     1
102
RTVSPropertyOp41
 70
     1
102
RTVSPropertyOp42
 70
     1
102
RTVSPropertyOp43
 70
     1
102
RTVSPropertyOp44
 70
     1
102
RTVSPropertyOp45
 70
     1
102
RTVSPropertyOp46
 70
     1
102
RTVSPropertyOp47
 70
     1
102
RTVSPropertyOp48
 70
     1
102
RTVSPropertyOp49
 70
     1
102
RTVSPropertyOp50
 70
     1
102
RTVSPropertyOp51
 70
     0
102
RTVSPropertyOp52
 70
     0
102
RTVSPropertyOp53
 70
     1
102
RTVSPropertyOp54
 70
     1
102
RTVSPropertyOp55
 70
     1
102
RTVSPropertyOp56
 70
     1
102
RTVSPropertyOp57
 70
     1
102
RTVSPropertyOp58
 70
     1
102
RTVSPropertyOp59
 70
     1
102
RTVSPropertyOp60
 70
     1
102
RTVSPropertyOp61
 70
     1
102
RTVSPropertyOp62
 70
     1
  0
ENDSEC
  0
EOF
