  0
SECTION
  2
HEADER
  9
$ACADVER
  1
AC1021
  9
$ACADMAINTVER
 70
    50
  9
$DWGCODEPAGE
  3
ANSI_932
  9
$LASTSAVEDBY
  1
mino-t
  9
$INSBASE
 10
0.0
 20
0.0
 30
0.0
  9
$EXTMIN
 10
40.0
 20
-0.0000000000002265
 30
0.0
  9
$EXTMAX
 10
940.0000000000003
 20
1404.0
 30
0.0
  9
$LIMMIN
 10
0.0
 20
0.0
  9
$LIMMAX
 10
1050.0
 20
1485.0
  9
$ORTHOMODE
 70
     1
  9
$REGENMODE
 70
     1
  9
$FILLMODE
 70
     1
  9
$QTEXTMODE
 70
     0
  9
$MIRRTEXT
 70
     0
  9
$LTSCALE
 40
40.0
  9
$ATTMODE
 70
     1
  9
$TEXTSIZE
 40
15.0
  9
$TRACEWID
 40
0.05
  9
$TEXTSTYLE
  7
STANDARD
  9
$CLAYER
  8
0
  9
$CELTYPE
  6
BYLAYER
  9
$CECOLOR
 62
   256
  9
$CELTSCALE
 40
1.0
  9
$DISPSILH
 70
     0
  9
$DIMSCALE
 40
5.0
  9
$DIMASZ
 40
2.0
  9
$DIMEXO
 40
0.1
  9
$DIMDLI
 40
7.0
  9
$DIMRND
 40
0.0
  9
$DIMDLE
 40
0.0
  9
$DIMEXE
 40
1.8
  9
$DIMTP
 40
0.0
  9
$DIMTM
 40
0.0
  9
$DIMTXT
 40
3.0
  9
$DIMCEN
 40
0.1
  9
$DIMTSZ
 40
0.0
  9
$DIMTOL
 70
     0
  9
$DIMLIM
 70
     0
  9
$DIMTIH
 70
     0
  9
$DIMTOH
 70
     0
  9
$DIMSE1
 70
     0
  9
$DIMSE2
 70
     0
  9
$DIMTAD
 70
     0
  9
$DIMZIN
 70
     9
  9
$DIMBLK
  1
YAZ1
  9
$DIMASO
 70
     1
  9
$DIMSHO
 70
     1
  9
$DIMPOST
  1

  9
$DIMAPOST
  1

  9
$DIMALT
 70
     0
  9
$DIMALTD
 70
     2
  9
$DIMALTF
 40
25.4
  9
$DIMLFAC
 40
1.0
  9
$DIMTOFL
 70
     1
  9
$DIMTVP
 40
1.0
  9
$DIMTIX
 70
     0
  9
$DIMSOXD
 70
     0
  9
$DIMSAH
 70
     1
  9
$DIMBLK1
  1
YAZ1
  9
$DIMBLK2
  1
YAZ1
  9
$DIMSTYLE
  2
YAZ1
  9
$DIMCLRD
 70
   256
  9
$DIMCLRE
 70
   256
  9
$DIMCLRT
 70
   256
  9
$DIMTFAC
 40
1.0
  9
$DIMGAP
 40
0.0
  9
$DIMJUST
 70
     0
  9
$DIMSD1
 70
     0
  9
$DIMSD2
 70
     0
  9
$DIMTOLJ
 70
     1
  9
$DIMTZIN
 70
     9
  9
$DIMALTZ
 70
     9
  9
$DIMALTTZ
 70
     9
  9
$DIMUPT
 70
     0
  9
$DIMDEC
 70
     3
  9
$DIMTDEC
 70
     3
  9
$DIMALTU
 70
     2
  9
$DIMALTTD
 70
     2
  9
$DIMTXSTY
  7
STANDARD
  9
$DIMAUNIT
 70
     0
  9
$DIMADEC
 70
     0
  9
$DIMALTRND
 40
0.0
  9
$DIMAZIN
 70
     0
  9
$DIMDSEP
 70
    46
  9
$DIMATFIT
 70
     3
  9
$DIMFRAC
 70
     0
  9
$DIMLDRBLK
  1
YAZ1
  9
$DIMLUNIT
 70
     2
  9
$DIMLWD
 70
    -2
  9
$DIMLWE
 70
    -2
  9
$DIMTMOVE
 70
     0
  9
$DIMFXL
 40
1.0
  9
$DIMFXLON
 70
     0
  9
$DIMJOGANG
 40
0.7853981633974483
  9
$DIMTFILL
 70
     0
  9
$DIMTFILLCLR
 70
     0
  9
$DIMARCSYM
 70
     0
  9
$DIMLTYPE
  6

  9
$DIMLTEX1
  6

  9
$DIMLTEX2
  6

  9
$LUNITS
 70
     2
  9
$LUPREC
 70
     3
  9
$SKETCHINC
 40
0.1
  9
$FILLETRAD
 40
0.0
  9
$AUNITS
 70
     0
  9
$AUPREC
 70
     2
  9
$MENU
  1
amecex
  9
$ELEVATION
 40
0.0
  9
$PELEVATION
 40
0.0
  9
$THICKNESS
 40
0.0
  9
$LIMCHECK
 70
     0
  9
$CHAMFERA
 40
0.0
  9
$CHAMFERB
 40
0.0
  9
$CHAMFERC
 40
0.0
  9
$CHAMFERD
 40
0.0
  9
$SKPOLY
 70
     0
  9
$TDCREATE
 40
2453412.776307871
  9
$TDUCREATE
 40
2453412.401307871
  9
$TDUPDATE
 40
2459563.664513889
  9
$TDUUPDATE
 40
2459563.289513889
  9
$TDINDWG
 40
0.1286479514
  9
$TDUSRTIMER
 40
0.1286469329
  9
$USRTIMER
 70
     1
  9
$ANGBASE
 50
0.0
  9
$ANGDIR
 70
     0
  9
$PDMODE
 70
     0
  9
$PDSIZE
 40
0.0
  9
$PLINEWID
 40
0.0
  9
$SPLFRAME
 70
     0
  9
$SPLINETYPE
 70
     6
  9
$SPLINESEGS
 70
     8
  9
$HANDSEED
  5
5633
  9
$SURFTAB1
 70
     6
  9
$SURFTAB2
 70
     6
  9
$SURFTYPE
 70
     6
  9
$SURFU
 70
     6
  9
$SURFV
 70
     6
  9
$UCSBASE
  2

  9
$UCSNAME
  2

  9
$UCSORG
 10
0.0
 20
0.0
 30
0.0
  9
$UCSXDIR
 10
1.0
 20
0.0
 30
0.0
  9
$UCSYDIR
 10
0.0
 20
1.0
 30
0.0
  9
$UCSORTHOREF
  2

  9
$UCSORTHOVIEW
 70
     0
  9
$UCSORGTOP
 10
0.0
 20
0.0
 30
0.0
  9
$UCSORGBOTTOM
 10
0.0
 20
0.0
 30
0.0
  9
$UCSORGLEFT
 10
0.0
 20
0.0
 30
0.0
  9
$UCSORGRIGHT
 10
0.0
 20
0.0
 30
0.0
  9
$UCSORGFRONT
 10
0.0
 20
0.0
 30
0.0
  9
$UCSORGBACK
 10
0.0
 20
0.0
 30
0.0
  9
$PUCSBASE
  2

  9
$PUCSNAME
  2

  9
$PUCSORG
 10
0.0
 20
0.0
 30
0.0
  9
$PUCSXDIR
 10
1.0
 20
0.0
 30
0.0
  9
$PUCSYDIR
 10
0.0
 20
1.0
 30
0.0
  9
$PUCSORTHOREF
  2

  9
$PUCSORTHOVIEW
 70
     0
  9
$PUCSORGTOP
 10
0.0
 20
0.0
 30
0.0
  9
$PUCSORGBOTTOM
 10
0.0
 20
0.0
 30
0.0
  9
$PUCSORGLEFT
 10
0.0
 20
0.0
 30
0.0
  9
$PUCSORGRIGHT
 10
0.0
 20
0.0
 30
0.0
  9
$PUCSORGFRONT
 10
0.0
 20
0.0
 30
0.0
  9
$PUCSORGBACK
 10
0.0
 20
0.0
 30
0.0
  9
$USERI1
 70
     0
  9
$USERI2
 70
     0
  9
$USERI3
 70
     0
  9
$USERI4
 70
     0
  9
$USERI5
 70
     0
  9
$USERR1
 40
30.0
  9
$USERR2
 40
0.0
  9
$USERR3
 40
0.0
  9
$USERR4
 40
0.0
  9
$USERR5
 40
0.0
  9
$WORLDVIEW
 70
     1
  9
$SHADEDGE
 70
     3
  9
$SHADEDIF
 70
    70
  9
$TILEMODE
 70
     1
  9
$MAXACTVP
 70
    16
  9
$PINSBASE
 10
0.0
 20
0.0
 30
0.0
  9
$PLIMCHECK
 70
     0
  9
$PEXTMIN
 10
1.000000000000000E+20
 20
1.000000000000000E+20
 30
1.000000000000000E+20
  9
$PEXTMAX
 10
-1.000000000000000E+20
 20
-1.000000000000000E+20
 30
-1.000000000000000E+20
  9
$PLIMMIN
 10
0.0
 20
0.0
  9
$PLIMMAX
 10
12.0
 20
9.0
  9
$UNITMODE
 70
     0
  9
$VISRETAIN
 70
     0
  9
$PLINEGEN
 70
     0
  9
$PSLTSCALE
 70
     0
  9
$TREEDEPTH
 70
  3020
  9
$CMLSTYLE
  2
STANDARD
  9
$CMLJUST
 70
     0
  9
$CMLSCALE
 40
1.0
  9
$PROXYGRAPHICS
 70
     1
  9
$MEASUREMENT
 70
     0
  9
$CELWEIGHT
370
    -1
  9
$ENDCAPS
280
     0
  9
$JOINSTYLE
280
     0
  9
$LWDISPLAY
290
     0
  9
$INSUNITS
 70
     0
  9
$HYPERLINKBASE
  1

  9
$STYLESHEET
  1

  9
$XEDIT
290
     1
  9
$CEPSNTYPE
380
     0
  9
$PSTYLEMODE
290
     1
  9
$FINGERPRINTGUID
  2
{56938729-07D6-9248-AFA2-080EF6489336}
  9
$VERSIONGUID
  2
{59814DDF-3DFE-5343-844A-67CF8701B8BD}
  9
$EXTNAMES
290
     1
  9
$PSVPSCALE
 40
0.0
  9
$OLESTARTUP
290
     0
  9
$SORTENTS
280
   127
  9
$INDEXCTL
280
     0
  9
$HIDETEXT
280
     0
  9
$XCLIPFRAME
290
     0
  9
$HALOGAP
280
     0
  9
$OBSCOLOR
 70
   257
  9
$OBSLTYPE
280
     0
  9
$INTERSECTIONDISPLAY
280
     0
  9
$INTERSECTIONCOLOR
 70
   257
  9
$DIMASSOC
280
     1
  9
$PROJECTNAME
  1

  9
$CAMERADISPLAY
290
     0
  9
$LENSLENGTH
 40
50.0
  9
$CAMERAHEIGHT
 40
0.0
  9
$STEPSPERSEC
 40
2.0
  9
$STEPSIZE
 40
6.0
  9
$3DDWFPREC
 40
2.0
  9
$PSOLWIDTH
 40
0.25
  9
$PSOLHEIGHT
 40
4.0
  9
$LOFTANG1
 40
1.570796326794896
  9
$LOFTANG2
 40
1.570796326794896
  9
$LOFTMAG1
 40
0.0
  9
$LOFTMAG2
 40
0.0
  9
$LOFTPARAM
 70
     7
  9
$LOFTNORMALS
280
     1
  9
$LATITUDE
 40
37.795
  9
$LONGITUDE
 40
-122.394
  9
$NORTHDIRECTION
 40
0.0
  9
$TIMEZONE
 70
 -8000
  9
$LIGHTGLYPHDISPLAY
280
     1
  9
$TILEMODELIGHTSYNCH
280
     1
  9
$CMATERIAL
347
551B
  9
$SOLIDHIST
280
     0
  9
$SHOWHIST
280
     1
  9
$DWFFRAME
280
     2
  9
$DGNFRAME
280
     0
  9
$REALWORLDSCALE
290
     1
  9
$INTERFERECOLOR
 62
     1
  9
$INTERFEREOBJVS
345
553D
  9
$INTERFEREVPVS
346
553A
  9
$CSHADOW
280
     0
  9
$SHADOWPLANELOCATION
 40
0.0
  0
ENDSEC
  0
SECTION
  2
CLASSES
  0
CLASS
  1
ACDBDICTIONARYWDFLT
  2
AcDbDictionaryWithDefault
  3
ObjectDBX Classes
 90
        0
 91
        1
280
     0
281
     0
  0
CLASS
  1
MATERIAL
  2
AcDbMaterial
  3
ObjectDBX Classes
 90
     1153
 91
        3
280
     0
281
     0
  0
CLASS
  1
VISUALSTYLE
  2
AcDbVisualStyle
  3
ObjectDBX Classes
 90
     4095
 91
       24
280
     0
281
     0
  0
CLASS
  1
TABLESTYLE
  2
AcDbTableStyle
  3
ObjectDBX Classes
 90
     4095
 91
        1
280
     0
281
     0
  0
CLASS
  1
SCALE
  2
AcDbScale
  3
ObjectDBX Classes
 90
     1153
 91
       17
280
     0
281
     0
  0
CLASS
  1
MLEADERSTYLE
  2
AcDbMLeaderStyle
  3
ACDB_MLEADERSTYLE_CLASS
 90
     4095
 91
        1
280
     0
281
     0
  0
CLASS
  1
ACDBSECTIONVIEWSTYLE
  2
AcDbSectionViewStyle
  3
ObjectDBX Classes
 90
     1025
 91
        2
280
     0
281
     0
  0
CLASS
  1
ACDBDETAILVIEWSTYLE
  2
AcDbDetailViewStyle
  3
ObjectDBX Classes
 90
     1025
 91
        2
280
     0
281
     0
  0
CLASS
  1
AMGSETTINGSOBJ
  2
AmgSettingsObj
  3
"AcadM|Product Description: AutoCAD Mechanical|Company: Autodesk, Inc."
 90
     1024
 91
        2
280
     0
281
     0
  0
CLASS
  1
ACME_DOCUMENT
  2
AcMeDbDoc
  3
AcMeServices
 90
     1024
 91
        1
280
     0
281
     0
  0
CLASS
  1
ACMESCOPE
  2
AcMeScope
  3
AcMeServices
 90
     1024
 91
        1
280
     0
281
     0
  0
CLASS
  1
ACMECOMMANDHISTORY
  2
AcMeCommandHistory
  3
AcMeServices
 90
     1024
 91
        1
280
     0
281
     0
  0
CLASS
  1
ACIMSYSVARMAN
  2
AcImSysVarManager
  3
AcMeServices
 90
     1024
 91
        3
280
     0
281
     0
  0
CLASS
  1
ACIMINTSYSVAR
  2
AcImIntSysVar
  3
AcMeServices
 90
     1024
 91
        2
280
     0
281
     0
  0
CLASS
  1
ACMESTATEMGR
  2
AcMeStateMgr
  3
AcMeServices
 90
     1024
 91
        1
280
     0
281
     0
  0
CLASS
  1
ACDBENTITYCACHE
  2
AcMeEntityCache
  3
AcMeServices
 90
     1024
 91
        1
280
     0
281
     0
  0
CLASS
  1
ACGREFMASTER
  2
AcGrefMaster
  3
AcAttribServices
 90
     1024
 91
        1
280
     0
281
     0
  0
CLASS
  1
ACME_DATABASE
  2
AcMeDbDatabase
  3
AcMeServices
 90
     1024
 91
        1
280
     0
281
     0
  0
CLASS
  1
ACRFINSADJUSTERMGR
  2
AcRfInsAdjusterMgr
  3
AcMeServices
 90
     1024
 91
        1
280
     0
281
     0
  0
CLASS
  1
ACGREFACADMASTER
  2
AcGrefacadMaster
  3
AcGrefServices
 90
     1024
 91
        1
280
     0
281
     0
  0
CLASS
  1
AMIMASTER
  2
AmiMaster
  3
AmiServices
 90
     1024
 91
        1
280
     0
281
     0
  0
CLASS
  1
AMDTMENUSTATEMGR
  2
AmdtMenuStateMgr
  3
McadcomServices
 90
     1024
 91
        1
280
     0
281
     0
  0
CLASS
  1
AMDTMCOMMENUSTATE
  2
AmdtMcomMenuState
  3
McadcomServices
 90
     1024
 91
        1
280
     0
281
     0
  0
CLASS
  1
MAPIAMMOUDLE
  2
MApiAmModule
  3
MApiAmServices
 90
     1024
 91
        1
280
     0
281
     0
  0
CLASS
  1
ACIMSTRSYSVAR
  2
AcImStrSysVar
  3
AcMeServices
 90
     1024
 91
        5
280
     0
281
     0
  0
CLASS
  1
AMDTAMMENUSTATE
  2
AmdtAmMenuState
  3
DesignerAssemblies_arx
 90
     1024
 91
        1
280
     0
281
     0
  0
CLASS
  1
ACAMPROJECT
  2
AcAmProject
  3
DesignerAssemblies
 90
     1024
 91
        1
280
     0
281
     0
  0
CLASS
  1
ACAMGRCOMPDEF
  2
AcAmGrCompDef
  3
DesignerAssemblies
 90
     1024
 91
        1
280
     0
281
     0
  0
CLASS
  1
ACAMCOMPDEF
  2
AcAmCompDef
  3
DesignerAssemblies
 90
     1024
 91
        1
280
     0
281
     0
  0
CLASS
  1
ACAMCOMPDEFMGR
  2
AcAmCompDefMgr
  3
DesignerAssemblies
 90
     1024
 91
        1
280
     0
281
     0
  0
CLASS
  1
AMCONTEXTMGR
  2
AcAmContextMgr
  3
DesignerAssemblies
 90
     1024
 91
        1
280
     0
281
     0
  0
CLASS
  1
ACAMCONTEXTMODELER
  2
AcAmContextModeler
  3
DesignerAssemblies
 90
     1024
 91
        1
280
     0
281
     0
  0
CLASS
  1
ACMDATADICTIONARY
  2
AcmDataDictionary
  3
"AcmSymBB|Product Description: AutoCAD Mechanical|Company: Autodesk, Inc."
 90
     1024
 91
        1
280
     0
281
     0
  0
CLASS
  1
ACAMGRCOMPDEFSET
  2
AcAmGrCompDefSet
  3
DesignerAssemblies
 90
     1024
 91
        1
280
     0
281
     0
  0
CLASS
  1
AMDTBROWSERDBTAB
  2
AmdtBrowserDbTab
  3
McadcomServices
 90
     1024
 91
        1
280
     0
281
     0
  0
CLASS
  1
CBROWSERAPPOBJECT
  2
CBrowserAppObject
  3
McadcomServices
 90
     1024
 91
        2
280
     0
281
     0
  0
CLASS
  1
DM_PLACEHOLDER
  2
AcDmSelsetPlaceholder
  3
McadcomServices
 90
     1024
 91
        1
280
     0
281
     0
  0
CLASS
  1
ACMSTANDARDANSI
  2
AcmStandardANSI
  3
"Amdt_StdImp|Product Description: AutoCAD Mechanical|Company: Autodesk, Inc."
 90
     1024
 91
        1
280
     0
281
     0
  0
CLASS
  1
ACMSURFSTANDARDANSI
  2
AcmSurfTextStdANSI
  3
"Amdt_StdImp|Product Description: AutoCAD Mechanical|Company: Autodesk, Inc."
 90
     1024
 91
        1
280
     0
281
     0
  0
CLASS
  1
ACMFCFSTANDARDANSI
  2
AcmFCFStdANSI
  3
"Amdt_StdImp|Product Description: AutoCAD Mechanical|Company: Autodesk, Inc."
 90
     1024
 91
        1
280
     0
281
     0
  0
CLASS
  1
ACMWELDSTANDARDANSI
  2
AcmWeldingStdANSI
  3
"Amdt_StdImp|Product Description: AutoCAD Mechanical|Company: Autodesk, Inc."
 90
     1024
 91
        1
280
     0
281
     0
  0
CLASS
  1
ACMIDSTANDARDANSI
  2
AcmIdStdANSI
  3
"Amdt_StdImp|Product Description: AutoCAD Mechanical|Company: Autodesk, Inc."
 90
     1024
 91
        1
280
     0
281
     0
  0
CLASS
  1
ACMDATUMSTANDARDANSI
  2
AcmDatumStdANSI
  3
"Amdt_StdImp|Product Description: AutoCAD Mechanical|Company: Autodesk, Inc."
 90
     1024
 91
        1
280
     0
281
     0
  0
CLASS
  1
ACMBOMSTANDARDANSI
  2
AcmBOMStdANSI
  3
"Amdt_StdImp|Product Description: AutoCAD Mechanical|Company: Autodesk, Inc."
 90
     1024
 91
        1
280
     0
281
     0
  0
CLASS
  1
ACMDETAILSTANDARDANSI
  2
AmdtDetailSymStdANSI
  3
"Amdt_StdImp|Product Description: AutoCAD Mechanical|Company: Autodesk, Inc."
 90
     1024
 91
        1
280
     0
281
     0
  0
CLASS
  1
ACMSECTIONSTANDARDANSI
  2
AmdtSectionSymStdANSI
  3
"Amdt_StdImp|Product Description: AutoCAD Mechanical|Company: Autodesk, Inc."
 90
     1024
 91
        1
280
     0
281
     0
  0
CLASS
  1
ACMCENTERLINESTANDARDANSI
  2
AmdtCenterLineStdANSI
  3
"Amdt_StdImp|Product Description: AutoCAD Mechanical|Company: Autodesk, Inc."
 90
     1024
 91
        1
280
     0
281
     0
  0
CLASS
  1
ACMTHREADLINESTANDARDANSI
  2
AmdtThreadLineStdANSI
  3
"Amdt_StdImp|Product Description: AutoCAD Mechanical|Company: Autodesk, Inc."
 90
     1024
 91
        1
280
     0
281
     0
  0
CLASS
  1
ACMNOTESTANDARDANSI
  2
AmdtNoteStdANSI
  3
"Amdt_StdImp|Product Description: AutoCAD Mechanical|Company: Autodesk, Inc."
 90
     1024
 91
        1
280
     0
281
     0
  0
CLASS
  1
ACMTAPERSTANDARDANSI
  2
AcmTaperStdANSI
  3
"Amdt_StdImp|Product Description: AutoCAD Mechanical|Company: Autodesk, Inc."
 90
     1024
 91
        1
280
     0
281
     0
  0
CLASS
  1
ACMANOOTATIONVIEWSTANDARDANSI
  2
AmdtAnViewStdANSI
  3
"Amdt_StdImp|Product Description: AutoCAD Mechanical|Company: Autodesk, Inc."
 90
     1024
 91
        1
280
     0
281
     0
  0
CLASS
  1
ACAMGLAYSTD
  2
AcAmgLayStd
  3
"AmgLay|Product Description: AutoCAD Mechanical|Company: Autodesk, Inc."
 90
     1024
 91
        1
280
     0
281
     0
  0
CLASS
  1
ACAMGTITLESTD
  2
AcAmgTitleStd
  3
"AmgTitle|Product Description: AutoCAD Mechanical|Company: Autodesk, Inc."
 90
     1024
 91
        1
280
     0
281
     0
  0
CLASS
  1
ACAMGDIMSTD
  2
AcAmgDimStd
  3
"AmgDim|Product Description: AutoCAD Mechanical|Company: Autodesk, Inc."
 90
     1024
 91
        1
280
     0
281
     0
  0
CLASS
  1
AMGOBJPROPCFG
  2
AmgObjPropCfg
  3
"AmgLay|Product Description: AutoCAD Mechanical|Company: Autodesk, Inc."
 90
     1024
 91
        1
280
     0
281
     0
  0
CLASS
  1
ACAMGHOLECHARTSTDANSI
  2
AcAmgHoleChartStdANSI
  3
"AmgDim" "Product Description: AutoCAD Mechanical|Company: Autodesk, Inc."
 90
     1024
 91
        1
280
     0
281
     0
  0
CLASS
  1
ACMSECTIONSTANDARDCUSTOM
  2
AmdtSectionSymStdCustom
  3
"Amdt_StdImp|Product Description: AutoCAD Mechanical|Company: Autodesk, Inc."
 90
     1024
 91
        1
280
     0
281
     0
  0
CLASS
  1
ACMDETAILTANDARDCUSTOM
  2
AmdtDetailSymStdCustom
  3
"Amdt_StdImp|Product Description: AutoCAD Mechanical|Company: Autodesk, Inc."
 90
     1024
 91
        1
280
     0
281
     0
  0
CLASS
  1
FIELD
  2
AcDbField
  3
ObjectDBX Classes
 90
     1152
 91
        8
280
     0
281
     0
  0
CLASS
  1
FIELDLIST
  2
AcDbFieldList
  3
ObjectDBX Classes
 90
     1152
 91
        1
280
     0
281
     0
  0
CLASS
  1
AMDTNOTETEMPLATEDB
  2
AmdtNoteTemplateDB
  3
"AcmSymBB" "Product Description: AutoCAD Mechanical|Company: Autodesk, Inc."
 90
     1024
 91
        7
280
     0
281
     0
  0
CLASS
  1
DICTIONARYVAR
  2
AcDbDictionaryVar
  3
ObjectDBX Classes
 90
        0
 91
       10
280
     0
281
     0
  0
CLASS
  1
CELLSTYLEMAP
  2
AcDbCellStyleMap
  3
ObjectDBX Classes
 90
     1152
 91
        1
280
     0
281
     0
  0
ENDSEC
  0
SECTION
  2
TABLES
  0
TABLE
  2
VPORT
  5
1C9
330
0
100
AcDbSymbolTable
 70
     1
  0
VPORT
  5
550A
330
1C9
100
AcDbSymbolTableRecord
100
AcDbViewportTableRecord
  2
*ACTIVE
 70
     0
 10
0.0
 20
0.0
 11
1.0
 21
1.0
 12
578.3026833011803
 22
585.0916657765542
 13
0.0
 23
0.0
 14
1.0
 24
1.0
 15
0.0
 25
0.0
 16
0.0
 26
0.0
 36
1.0
 17
0.0
 27
0.0
 37
0.0
 40
2384.896186707119
 41
1.896009673518742
 42
50.0
 43
0.0
 44
0.0
 50
0.0
 51
0.0
 71
     0
 72
   100
 73
     1
 74
     1
 75
     0
 76
     0
 77
     0
 78
     0
281
     0
 65
     0
110
0.0
120
0.0
130
0.0
111
1.0
121
0.0
131
0.0
112
0.0
122
1.0
132
0.0
 79
     0
146
0.0
348
5539
 60
     3
 61
     5
292
     1
282
     1
141
0.0
142
0.0
 63
   250
421
  3355443
1001
ACAD_NAV_VCDISPLAY
1070
     3
  0
ENDTAB
  0
TABLE
  2
LTYPE
  5
1C6
330
0
100
AcDbSymbolTable
 70
    16
  0
LTYPE
  5
1D3
330
1C6
100
AcDbSymbolTableRecord
100
AcDbLinetypeTableRecord
  2
BYBLOCK
 70
     0
  3

 72
    65
 73
     0
 40
0.0
  0
LTYPE
  5
1D4
330
1C6
100
AcDbSymbolTableRecord
100
AcDbLinetypeTableRecord
  2
BYLAYER
 70
     0
  3

 72
    65
 73
     0
 40
0.0
  0
LTYPE
  5
1D5
330
1C6
100
AcDbSymbolTableRecord
100
AcDbLinetypeTableRecord
  2
CONTINUOUS
 70
     0
  3
実線
 72
    65
 73
     0
 40
0.0
  0
LTYPE
  5
5576
330
1C6
100
AcDbSymbolTableRecord
100
AcDbLinetypeTableRecord
  2
HIDDEN
 70
     0
  3
Hidden __ __ __ __ __ __ __ __ __ __ __ __ __ _
 72
    65
 73
     2
 40
0.375
 49
0.25
 74
     0
 49
-0.125
 74
     0
  0
LTYPE
  5
5577
330
1C6
100
AcDbSymbolTableRecord
100
AcDbLinetypeTableRecord
  2
PHANTOM2
 70
     0
  3
Phantom (.5x) ___ _ _ ___ _ _ ___ _ _ ___ _ _
 72
    65
 73
     6
 40
1.25
 49
0.625
 74
     0
 49
-0.125
 74
     0
 49
0.125
 74
     0
 49
-0.125
 74
     0
 49
0.125
 74
     0
 49
-0.125
 74
     0
  0
LTYPE
  5
5578
330
1C6
100
AcDbSymbolTableRecord
100
AcDbLinetypeTableRecord
  2
CENTER
 70
     0
  3
Center ____ _ ____ _ ____ _ ____ _ ____ _ ____
 72
    65
 73
     4
 40
2.0
 49
1.25
 74
     0
 49
-0.25
 74
     0
 49
0.25
 74
     0
 49
-0.25
 74
     0
  0
LTYPE
  5
55B6
330
1C6
100
AcDbSymbolTableRecord
100
AcDbLinetypeTableRecord
  2
Amconstr
 70
     0
  3
_______________________
 72
    65
 73
     2
 40
9999.0
 49
9999.0
 74
     0
 49
0.0
 74
     0
  0
LTYPE
  5
55BC
330
1C6
100
AcDbSymbolTableRecord
100
AcDbLinetypeTableRecord
  2
CENTER2
 70
     0
  3
Center (.5x) ___ _ ___ _ ___ _ ___ _ ___ _ ___
 72
    65
 73
     4
 40
1.125
 49
0.75
 74
     0
 49
-0.125
 74
     0
 49
0.125
 74
     0
 49
-0.125
 74
     0
  0
LTYPE
  5
55BD
330
1C6
100
AcDbSymbolTableRecord
100
AcDbLinetypeTableRecord
  2
HIDDEN2
 70
     0
  3
Hidden (.5x) _ _ _ _ _ _ _ _ _ _ _ _ _ _ _ _ _
 72
    65
 73
     2
 40
0.1875
 49
0.125
 74
     0
 49
-0.0625
 74
     0
  0
LTYPE
  5
55BE
330
1C6
100
AcDbSymbolTableRecord
100
AcDbLinetypeTableRecord
  2
Amzigzag2
 70
     0
  3
/\/-/\/-/\/-/\/-/\/-/\/
 72
    65
 73
     2
 40
0.4401
 49
0.0001
 74
     4
 75
   136
340
55BA
 46
0.0016
 50
0.0
 44
0.0
 45
0.0
 49
-0.4400000000000001
 74
     0
  0
LTYPE
  5
55CD
330
1C6
100
AcDbSymbolTableRecord
100
AcDbLinetypeTableRecord
  2
ACANSTGB
 70
     0
  3
__ . . __ . .
 72
    65
 73
     6
 40
0.35433070866
 49
0.15748031496
 74
     0
 49
-0.03937007874
 74
     0
 49
0.03937007874
 74
     0
 49
-0.03937007874
 74
     0
 49
0.03937007874
 74
     0
 49
-0.03937007874
 74
     0
  0
LTYPE
  5
55CE
330
1C6
100
AcDbSymbolTableRecord
100
AcDbLinetypeTableRecord
  2
ACANSTGL
 70
     0
  3
_ _ _ _ _
 72
    65
 73
     2
 40
0.11811023622
 49
0.07874015748
 74
     0
 49
-0.03937007874
 74
     0
  0
ENDTAB
  0
TABLE
  2
LAYER
  5
1C3
330
0
100
AcDbSymbolTable
 70
     2
  0
LAYER
  5
1D0
102
{ACAD_XDICTIONARY
360
55EE
102
}
330
1C3
100
AcDbSymbolTableRecord
100
AcDbLayerTableRecord
  2
0
 70
     0
 62
     7
  6
CONTINUOUS
370
    -3
390
5519
347
552B
  0
ENDTAB
  0
TABLE
  2
STYLE
  5
1C4
330
0
100
AcDbSymbolTable
 70
     5
  0
STYLE
  5
1D1
330
1C4
100
AcDbSymbolTableRecord
100
AcDbTextStyleTableRecord
  2
STANDARD
 70
     0
 40
0.0
 41
1.0
 50
0.0
 71
     0
 42
15.0
  3
TXT
  4
BIGFONT
  0
STYLE
  5
1E3
330
1C4
100
AcDbSymbolTableRecord
100
AcDbTextStyleTableRecord
  2
SMP-SET
 70
     0
 40
0.0
 41
1.0
 50
0.0
 71
     0
 42
0.2
  3
SIMPLEX
  4
BIGFONT
  0
STYLE
  5
55BA
330
1C4
100
AcDbSymbolTableRecord
100
AcDbTextStyleTableRecord
  2

 70
     1
 40
0.0
 41
1.0
 50
0.0
 71
     0
 42
15.0
  3
genltshp.shx
  4

  0
STYLE
  5
55CC
330
1C4
100
AcDbSymbolTableRecord
100
AcDbTextStyleTableRecord
  2
ACANSGDT
 70
     0
 40
0.0
 41
1.0
 50
0.0
 71
     0
 42
15.0
  3
amgdt.shx
  4

  0
ENDTAB
  0
TABLE
  2
VIEW
  5
1C7
330
0
100
AcDbSymbolTable
 70
     0
  0
ENDTAB
  0
TABLE
  2
UCS
  5
1C8
330
0
100
AcDbSymbolTable
 70
     0
  0
ENDTAB
  0
TABLE
  2
APPID
  5
1CA
330
0
100
AcDbSymbolTable
 70
    10
  0
APPID
  5
1D2
330
1CA
100
AcDbSymbolTableRecord
100
AcDbRegAppTableRecord
  2
ACAD
 70
     0
  0
APPID
  5
286
330
1CA
100
AcDbSymbolTableRecord
100
AcDbRegAppTableRecord
  2
ACE-LT__COPYRIGHT_TRIALSOFT-JPN
 70
     0
  0
APPID
  5
556F
330
1CA
100
AcDbSymbolTableRecord
100
AcDbRegAppTableRecord
  2
MCAD_NO_VIS
 70
     0
  0
APPID
  5
5570
330
1CA
100
AcDbSymbolTableRecord
100
AcDbRegAppTableRecord
  2
ACAD_TEMP_GRAPHIC
 70
     0
  0
APPID
  5
557D
330
1CA
100
AcDbSymbolTableRecord
100
AcDbRegAppTableRecord
  2
ACATTRIBSERVICES
 70
     0
  0
APPID
  5
5595
330
1CA
100
AcDbSymbolTableRecord
100
AcDbRegAppTableRecord
  2
DESIGNERASSEMBLIES
 70
     0
  0
APPID
  5
55B0
330
1CA
100
AcDbSymbolTableRecord
100
AcDbRegAppTableRecord
  2
ACAD_DSTYLE_DIMJAG
 70
     0
  0
APPID
  5
55B1
330
1CA
100
AcDbSymbolTableRecord
100
AcDbRegAppTableRecord
  2
ACAD_DSTYLE_DIMBREAK
 70
     0
  0
APPID
  5
55EA
330
1CA
100
AcDbSymbolTableRecord
100
AcDbRegAppTableRecord
  2
ACAD_NAV_VCDISPLAY
 70
     0
  0
APPID
  5
562E
330
1CA
100
AcDbSymbolTableRecord
100
AcDbRegAppTableRecord
  2
ACAD_MLEADERVER
 70
     0
  0
ENDTAB
  0
TABLE
  2
DIMSTYLE
  5
1CB
330
0
100
AcDbSymbolTable
 70
     7
100
AcDbDimStyleTable
 71
     0
  0
DIMSTYLE
105
1F1
330
1CB
100
AcDbSymbolTableRecord
100
AcDbDimStyleTableRecord
  2
YAZ1
 70
     0
 40
5.0
 41
2.0
 42
0.1
 43
7.0
 44
1.8
 73
     0
 74
     0
 78
     9
140
3.0
141
0.1
145
1.0
147
0.0
172
     1
173
     1
176
   256
177
   256
178
   256
271
     3
272
     3
284
     9
285
     9
286
     9
340
1D1
341
254
342
254
343
254
344
254
  0
DIMSTYLE
105
55AF
102
{ACAD_REACTORS
330
559E
102
}
330
1CB
100
AcDbSymbolTableRecord
100
AcDbDimStyleTableRecord
  2
AM_ANSI
 70
     0
  4
mm
 41
0.12
 42
0.05
 43
0.5
 44
0.1
 47
0.1
 48
0.1
 78
     7
 79
     2
 90
        1
140
0.12
141
0.0
146
0.71
147
0.06
176
   256
177
   256
178
     2
274
     4
284
     7
340
1D1
345
1D3
346
1D3
347
1D3
371
    -1
372
    -1
1001
ACAD_DSTYLE_DIMJAG
1070
   388
1040
1.5
1001
ACAD_DSTYLE_DIMBREAK
1070
   391
1040
0.125
  0
DIMSTYLE
105
55BF
330
1CB
100
AcDbSymbolTableRecord
100
AcDbDimStyleTableRecord
  2
AM_ANSI$3
 70
     0
  4
mm
 41
0.12
 42
0.05
 43
0.5
 44
0.1
 47
0.1
 48
0.1
 78
     7
 79
     2
 90
        1
140
0.12
141
0.0
146
0.71
147
0.06
176
   256
177
   256
178
     2
274
     4
284
     7
288
     1
289
     0
340
1D1
345
1D3
346
1D3
347
1D3
371
    -1
372
    -1
1001
ACAD_DSTYLE_DIMBREAK
1070
   391
1040
0.125
1001
ACAD_DSTYLE_DIMJAG
1070
   388
1040
1.5
  0
DIMSTYLE
105
55C0
330
1CB
100
AcDbSymbolTableRecord
100
AcDbDimStyleTableRecord
  2
AM_ANSI$4
 70
     0
  4
mm
 41
0.12
 42
0.05
 43
0.5
 44
0.1
 47
0.1
 48
0.1
 78
     7
 79
     2
 90
        1
140
0.12
141
0.0
146
0.71
147
0.06
176
   256
177
   256
178
     2
274
     4
284
     7
288
     1
289
     0
340
1D1
345
1D3
346
1D3
347
1D3
371
    -1
372
    -1
1001
ACAD_DSTYLE_DIMBREAK
1070
   391
1040
0.125
1001
ACAD_DSTYLE_DIMJAG
1070
   388
1040
1.5
  0
DIMSTYLE
105
55C1
330
1CB
100
AcDbSymbolTableRecord
100
AcDbDimStyleTableRecord
  2
AM_ANSI$7
 70
     0
  4
mm
 41
0.12
 42
0.05
 43
0.5
 44
0.1
 47
0.1
 48
0.1
 78
     7
 79
     2
 90
        1
140
0.12
141
0.0
146
0.71
147
0.06
176
   256
177
   256
178
     2
274
     4
284
     7
340
1D1
345
1D3
346
1D3
347
1D3
371
    -1
372
    -1
1001
ACAD_DSTYLE_DIMBREAK
1070
   391
1040
0.125
1001
ACAD_DSTYLE_DIMJAG
1070
   388
1040
1.5
  0
DIMSTYLE
105
55C2
330
1CB
100
AcDbSymbolTableRecord
100
AcDbDimStyleTableRecord
  2
AM_ANSI$SF
 70
     0
  4
mm
 41
0.12
 42
0.05
 43
0.5
 44
0.1
 47
0.1
 48
0.1
 75
     1
 76
     1
 78
     7
 79
     2
 90
        1
140
0.12
141
0.0
146
0.71
147
0.06
176
   256
177
   256
178
     2
274
     4
284
     7
340
1D1
345
1D3
346
1D3
347
1D3
371
    -1
372
    -1
1001
ACAD_DSTYLE_DIMBREAK
1070
   391
1040
0.125
1001
ACAD_DSTYLE_DIMJAG
1070
   388
1040
1.5
  0
DIMSTYLE
105
55C7
330
1CB
100
AcDbSymbolTableRecord
100
AcDbDimStyleTableRecord
  2
AM_ANSI$SH
 70
     0
  4
mm
 41
0.12
 42
0.05
 43
0.5
 44
0.1
 47
0.1
 48
0.1
 75
     1
 76
     1
 78
     7
 79
     2
 90
        1
140
0.12
141
0.0
146
0.71
147
0.06
173
     1
176
   256
177
   256
178
     2
274
     4
284
     7
340
1D1
343
55C3
345
1D3
346
1D3
347
1D3
371
    -1
372
    -1
1001
ACAD_DSTYLE_DIMBREAK
1070
   391
1040
0.125
1001
ACAD_DSTYLE_DIMJAG
1070
   388
1040
1.5
  0
ENDTAB
  0
TABLE
  2
BLOCK_RECORD
  5
1C2
330
0
100
AcDbSymbolTable
 70
     4
  0
BLOCK_RECORD
  5
1D9
102
{ACAD_XDICTIONARY
360
54B5
102
}
330
1C2
100
AcDbSymbolTableRecord
100
AcDbBlockTableRecord
  2
*MODEL_SPACE
340
5567
 70
     0
280
     1
281
     0
  0
BLOCK_RECORD
  5
1D6
102
{ACAD_XDICTIONARY
360
54B3
102
}
330
1C2
100
AcDbSymbolTableRecord
100
AcDbBlockTableRecord
  2
*PAPER_SPACE
340
5568
 70
     0
280
     1
281
     0
  0
BLOCK_RECORD
  5
254
330
1C2
100
AcDbSymbolTableRecord
100
AcDbBlockTableRecord
  2
YAZ1
340
0
102
{BLKREFS
331
5408
331
5409
331
540E
331
540F
102
}
 70
     0
280
     1
281
     0
  0
BLOCK_RECORD
  5
55C3
330
1C2
100
AcDbSymbolTableRecord
100
AcDbBlockTableRecord
  2
GENAXEH
340
0
 70
     0
280
     1
281
     0
  0
BLOCK_RECORD
  5
55D0
330
1C2
100
AcDbSymbolTableRecord
100
AcDbBlockTableRecord
  2
_ACMFILLEDHALF
340
0
 70
     0
280
     1
281
     0
  0
ENDTAB
  0
ENDSEC
  0
SECTION
  2
BLOCKS
  0
BLOCK
  5
20A
330
1D9
100
AcDbEntity
  8
0
100
AcDbBlockBegin
  2
*MODEL_SPACE
 70
     0
 10
0.0
 20
0.0
 30
0.0
  3
*MODEL_SPACE
  1

  0
ENDBLK
  5
20B
330
1D9
100
AcDbEntity
  8
0
100
AcDbBlockEnd
  0
BLOCK
  5
208
330
1D6
100
AcDbEntity
 67
     1
  8
0
100
AcDbBlockBegin
  2
*PAPER_SPACE
 70
     0
 10
0.0
 20
0.0
 30
0.0
  3
*PAPER_SPACE
  1

  0
ENDBLK
  5
209
330
1D6
100
AcDbEntity
 67
     1
  8
0
100
AcDbBlockEnd
  0
BLOCK
  5
258
330
254
100
AcDbEntity
  8
0
100
AcDbBlockBegin
  2
YAZ1
 70
     0
 10
0.0
 20
0.0
 30
0.0
  3
YAZ1
  1

  0
LINE
  5
255
330
254
100
AcDbEntity
  8
0
100
AcDbLine
 10
0.0
 20
0.0
 30
0.0
 11
-1.0
 21
-0.2679491924311037
 31
0.0
  0
LINE
  5
256
330
254
100
AcDbEntity
  8
0
100
AcDbLine
 10
0.0
 20
0.0
 30
0.0
 11
-1.0
 21
0.2679491924311037
 31
0.0
  0
LINE
  5
257
330
254
100
AcDbEntity
  8
0
100
AcDbLine
 10
-1.0
 20
0.0
 30
0.0
 11
0.0
 21
0.0
 31
0.0
  0
ENDBLK
  5
259
330
254
100
AcDbEntity
  8
0
100
AcDbBlockEnd
  0
BLOCK
  5
55C5
330
55C3
100
AcDbEntity
  8
0
100
AcDbBlockBegin
  2
GENAXEH
 70
     0
 10
0.0
 20
0.0
 30
0.0
  3
GENAXEH
  1

  0
LINE
  5
55C4
330
55C3
100
AcDbEntity
  8
0
100
AcDbLine
 10
-1.0
 20
0.0
 30
0.0
 11
1.0
 21
0.0
 31
0.0
  0
ENDBLK
  5
55C6
330
55C3
100
AcDbEntity
  8
0
100
AcDbBlockEnd
  0
BLOCK
  5
55D1
330
55D0
100
AcDbEntity
  8
0
100
AcDbBlockBegin
  2
_ACMFILLEDHALF
 70
     0
 10
0.0
 20
0.0
 30
0.0
  3
_ACMFILLEDHALF
  1

  0
TRACE
  5
55D3
330
55D0
100
AcDbEntity
  8
0
 62
     0
100
AcDbTrace
 10
-0.8
 20
0.0
 30
0.0
 11
-1.0
 21
0.166666666
 31
0.0
 12
0.0
 22
0.0
 32
0.0
 13
0.0
 23
0.0
 33
0.0
  0
LINE
  5
55D4
330
55D0
100
AcDbEntity
  8
0
 62
     0
100
AcDbLine
 10
-1.0
 20
0.0
 30
0.0
 11
-0.8
 21
0.0
 31
0.0
  0
ENDBLK
  5
55D2
330
55D0
100
AcDbEntity
  8
0
100
AcDbBlockEnd
  0
ENDSEC
  0
SECTION
  2
ENTITIES
  0
LINE
  5
3A24
330
1D9
100
AcDbEntity
  8
0
100
AcDbLine
 10
798.415316065946
 20
891.2685536889252
 30
0.0
 11
820.4153160659457
 21
891.2685536889252
 31
0.0
  0
LINE
  5
3A33
330
1D9
100
AcDbEntity
  8
0
100
AcDbLine
 10
119.4153160456767
 20
1091.268553688925
 30
0.0
 11
859.4153160659455
 21
1091.268553688925
 31
0.0
  0
LINE
  5
3A39
330
1D9
100
AcDbEntity
  8
0
100
AcDbLine
 10
797.4153160659462
 20
892.268553688925
 30
0.0
 11
797.4153160659462
 21
1091.268553688925
 31
0.0
  0
LINE
  5
3A3A
330
1D9
100
AcDbEntity
  8
0
100
AcDbLine
 10
181.415316045676
 20
892.268553688925
 30
0.0
 11
181.415316045676
 21
1091.268553688925
 31
0.0
  0
LINE
  5
3A3B
330
1D9
100
AcDbEntity
  8
0
100
AcDbLine
 10
157.4153160456762
 20
892.268553688925
 30
0.0
 11
157.4153160456762
 21
1091.268553688925
 31
0.0
  0
LINE
  5
3A3D
330
1D9
100
AcDbEntity
  8
0
100
AcDbLine
 10
139.4153160456767
 20
1091.268553688925
 30
0.0
 11
139.4153160456767
 21
939.654554625255
 31
0.0
  0
LINE
  5
3A3E
330
1D9
100
AcDbEntity
  8
0
100
AcDbLine
 10
221.4153160456779
 20
951.2685536889255
 30
0.0
 11
757.4153160659465
 21
951.2685536889252
 31
0.0
  0
LINE
  5
3A3F
330
1D9
100
AcDbEntity
  8
0
100
AcDbLine
 10
180.415316045676
 20
891.2685536889252
 30
0.0
 11
158.4153160456762
 21
891.2685536889252
 31
0.0
  0
LINE
  5
3A40
330
1D9
100
AcDbEntity
  8
0
100
AcDbLine
 10
158.4153160456762
 20
891.2685536889252
 30
0.0
 11
157.4153160456762
 21
892.268553688925
 31
0.0
  0
LINE
  5
3A41
330
1D9
100
AcDbEntity
  8
0
100
AcDbLine
 10
143.4153160456762
 20
936.7685536889256
 30
0.0
 11
157.4153160456762
 21
936.7685536889256
 31
0.0
  0
LINE
  5
3A42
330
1D9
100
AcDbEntity
  8
0
100
AcDbLine
 10
143.4153160456762
 20
936.7685536889256
 30
0.0
 11
140.7130691624993
 21
937.7818962701168
 31
0.0
  0
ARC
  5
3A43
330
1D9
100
AcDbEntity
  8
0
100
AcDbCircle
 10
141.4153160456762
 20
939.654554625255
 30
0.0
 40
2.0
100
AcDbArc
 50
180.0
 51
249.4439547804124
  0
LINE
  5
3A44
330
1D9
100
AcDbEntity
  8
0
100
AcDbLine
 10
180.415316045676
 20
891.2685536889252
 30
0.0
 11
181.415316045676
 21
892.268553688925
 31
0.0
  0
LINE
  5
3A45
330
1D9
100
AcDbEntity
  8
0
100
AcDbLine
 10
201.4153160456765
 20
948.2685536889253
 30
0.0
 11
181.4153160456765
 21
948.2685536889253
 31
0.0
  0
LINE
  5
3A46
330
1D9
100
AcDbEntity
  8
0
100
AcDbLine
 10
221.4153160456767
 20
951.2685536889252
 30
0.0
 11
201.4153160456765
 21
948.2685536889253
 31
0.0
  0
LINE
  5
3A52
330
1D9
100
AcDbEntity
  8
0
100
AcDbLine
 10
798.415316065946
 20
891.2685536889252
 30
0.0
 11
797.4153160659462
 21
892.268553688925
 31
0.0
  0
LINE
  5
3A53
330
1D9
100
AcDbEntity
  8
0
100
AcDbLine
 10
757.415316065946
 20
951.2685536889252
 30
0.0
 11
777.415316065946
 21
948.2685536889253
 31
0.0
  0
LINE
  5
3A54
330
1D9
100
AcDbEntity
  8
0
100
AcDbLine
 10
777.415316065946
 20
948.2685536889253
 30
0.0
 11
797.4153160659457
 21
948.2685536889253
 31
0.0
  0
LINE
  5
3AB7
330
1D9
100
AcDbEntity
  8
0
100
AcDbLine
 10
452.4635884217707
 20
1111.273066566618
 30
0.0
 11
522.4635884217707
 21
1111.273066566618
 31
0.0
  0
LINE
  5
3AB8
330
1D9
100
AcDbEntity
  8
0
100
AcDbLine
 10
522.4635884217707
 20
1071.273066566618
 30
0.0
 11
452.4635884217707
 21
1071.273066566618
 31
0.0
  0
TEXT
  5
3ABE
330
1D9
100
AcDbEntity
  8
0
100
AcDbText
 10
454.463588421771
 20
1081.273066566618
 30
0.0
 40
5.0
  1
KW
 41
0.6146341463414286
  7
SMP-SET
 72
     5
 11
460.4635884217707
 21
1081.273066566618
 31
0.0
100
AcDbText
  0
LINE
  5
3AC0
330
1D9
100
AcDbEntity
  8
0
100
AcDbLine
 10
462.4635884217708
 20
1078.273066566618
 30
0.0
 11
462.4635884217708
 21
1104.273066566618
 31
0.0
  0
LINE
  5
3AC1
330
1D9
100
AcDbEntity
  8
0
100
AcDbLine
 10
452.4635884217707
 20
1071.273066566618
 30
0.0
 11
452.4635884217707
 21
1111.273066566618
 31
0.0
  0
LINE
  5
3AC2
330
1D9
100
AcDbEntity
  8
0
100
AcDbLine
 10
512.4635884217711
 20
1104.273066566618
 30
0.0
 11
512.4635884217711
 21
1078.273066566618
 31
0.0
  0
LINE
  5
3AC3
330
1D9
100
AcDbEntity
  8
0
100
AcDbLine
 10
512.4635884217711
 20
1078.273066566618
 30
0.0
 11
462.4635884217708
 21
1078.273066566618
 31
0.0
  0
TEXT
  5
3AC5
330
1D9
100
AcDbEntity
  8
0
100
AcDbText
 10
488.652018815408
 20
1073.72201467842
 30
0.0
 40
2.5
  1
G
  7
SMP-SET
100
AcDbText
  0
TEXT
  5
3AC6
330
1D9
100
AcDbEntity
  8
0
100
AcDbText
 10
472.6520188154081
 20
1073.72201467842
 30
0.0
 40
2.5
  1
C
  7
SMP-SET
100
AcDbText
  0
TEXT
  5
3AC7
330
1D9
100
AcDbEntity
  8
0
100
AcDbText
 10
464.6520188154081
 20
1073.72201467842
 30
0.0
 40
2.5
  1
A
  7
SMP-SET
100
AcDbText
  0
TEXT
  5
3AC8
330
1D9
100
AcDbEntity
  8
0
100
AcDbText
 10
468.6520188154081
 20
1073.72201467842
 30
0.0
 40
2.5
  1
B
  7
SMP-SET
100
AcDbText
  0
TEXT
  5
3ACA
330
1D9
100
AcDbEntity
  8
0
100
AcDbText
 10
476.6520188154081
 20
1073.72201467842
 30
0.0
 40
2.5
  1
D
  7
SMP-SET
100
AcDbText
  0
TEXT
  5
3ACB
330
1D9
100
AcDbEntity
  8
0
100
AcDbText
 10
484.652018815408
 20
1073.72201467842
 30
0.0
 40
2.5
  1
F
  7
SMP-SET
100
AcDbText
  0
TEXT
  5
3ACC
330
1D9
100
AcDbEntity
  8
0
100
AcDbText
 10
480.652018815408
 20
1073.72201467842
 30
0.0
 40
2.5
  1
E
  7
SMP-SET
100
AcDbText
  0
TEXT
  5
3ACD
330
1D9
100
AcDbEntity
  8
0
100
AcDbText
 10
500.652018815408
 20
1073.72201467842
 30
0.0
 40
2.5
  1
J
  7
SMP-SET
100
AcDbText
  0
TEXT
  5
3ACE
330
1D9
100
AcDbEntity
  8
0
100
AcDbText
 10
492.652018815408
 20
1073.72201467842
 30
0.0
 40
2.5
  1
H
  7
SMP-SET
100
AcDbText
  0
TEXT
  5
3ACF
330
1D9
100
AcDbEntity
  8
0
100
AcDbText
 10
496.652018815408
 20
1073.72201467842
 30
0.0
 40
2.5
  1
I
  7
SMP-SET
100
AcDbText
  0
TEXT
  5
3AD0
330
1D9
100
AcDbEntity
  8
0
100
AcDbText
 10
504.652018815408
 20
1073.72201467842
 30
0.0
 40
2.5
  1
K
  7
SMP-SET
100
AcDbText
  0
TEXT
  5
3AD1
330
1D9
100
AcDbEntity
  8
0
100
AcDbText
 10
508.652018815408
 20
1073.72201467842
 30
0.0
 40
2.5
  1
L
  7
SMP-SET
100
AcDbText
  0
LINE
  5
3AD2
330
1D9
100
AcDbEntity
  8
0
100
AcDbLine
 10
462.4635884217708
 20
1104.273066566618
 30
0.0
 11
512.4635884217711
 21
1104.273066566618
 31
0.0
  0
TEXT
  5
3AD3
330
1D9
100
AcDbEntity
  8
0
100
AcDbText
 10
454.463588421771
 20
1096.273066566618
 30
0.0
 40
5.0
  1
MF
 41
0.6810810810810424
  7
SMP-SET
 72
     5
 11
460.4635884217707
 21
1096.273066566618
 31
0.0
100
AcDbText
  0
TEXT
  5
3AD4
330
1D9
100
AcDbEntity
  8
0
100
AcDbText
 10
474.4635884217706
 20
1082.773066566618
 30
0.0
 40
5.0
  1
KURASHIKI KAKO CO.,LTD.
 41
0.3700906344410887
  7
SMP-SET
 72
     5
 11
509.4635884217708
 21
1082.773066566618
 31
0.0
100
AcDbText
  0
TEXT
  5
3AD5
330
1D9
100
AcDbEntity
  8
0
 48
3.0
100
AcDbText
 10
465.0635884217713
 20
1092.273066566618
 30
0.0
 40
8.0
  1
KURAFLEX
 41
0.7499999999999961
  7
SMP-SET
 72
     5
 11
509.0635884217711
 21
1092.273066566618
 31
0.0
100
AcDbText
  0
TEXT
  5
3AD6
330
1D9
100
AcDbEntity
  8
0
 48
3.0
100
AcDbText
 10
465.863588421771
 20
1092.273066566618
 30
0.0
 40
8.0
  1
KURAFLEX
 41
0.7500000000000031
  7
SMP-SET
 72
     5
 11
509.8635884217712
 21
1092.273066566618
 31
0.0
100
AcDbText
  0
TEXT
  5
3AD7
330
1D9
100
AcDbEntity
  8
0
 48
3.0
100
AcDbText
 10
465.4635884217706
 20
1091.873066566618
 30
0.0
 40
8.0
  1
KURAFLEX
 41
0.7500000000000019
  7
SMP-SET
 72
     5
 11
509.4635884217708
 21
1091.873066566618
 31
0.0
100
AcDbText
  0
TEXT
  5
3AD8
330
1D9
100
AcDbEntity
  8
0
 48
3.0
100
AcDbText
 10
465.4635884217706
 20
1092.673066566618
 30
0.0
 40
8.0
  1
KURAFLEX
 41
0.7500000000000019
  7
SMP-SET
 72
     5
 11
509.4635884217708
 21
1092.673066566618
 31
0.0
100
AcDbText
  0
TEXT
  5
3AD9
330
1D9
100
AcDbEntity
  8
0
 48
3.0
100
AcDbText
 10
465.1635884217712
 20
1092.273066566618
 30
0.0
 40
8.0
  1
KURAFLEX
 41
0.7499999999999943
  7
SMP-SET
 72
     5
 11
509.1635884217708
 21
1092.273066566618
 31
0.0
100
AcDbText
  0
TEXT
  5
3ADA
330
1D9
100
AcDbEntity
  8
0
 48
3.0
100
AcDbText
 10
465.763588421771
 20
1092.273066566618
 30
0.0
 40
8.0
  1
KURAFLEX
 41
0.75
  7
SMP-SET
 72
     5
 11
509.763588421771
 21
1092.273066566618
 31
0.0
100
AcDbText
  0
TEXT
  5
3ADB
330
1D9
100
AcDbEntity
  8
0
 48
3.0
100
AcDbText
 10
465.4635884217706
 20
1091.973066566618
 30
0.0
 40
8.0
  1
KURAFLEX
 41
0.7500000000000019
  7
SMP-SET
 72
     5
 11
509.4635884217708
 21
1091.973066566618
 31
0.0
100
AcDbText
  0
TEXT
  5
3ADC
330
1D9
100
AcDbEntity
  8
0
 48
3.0
100
AcDbText
 10
465.4635884217706
 20
1092.573066566618
 30
0.0
 40
8.0
  1
KURAFLEX
 41
0.7500000000000019
  7
SMP-SET
 72
     5
 11
509.4635884217708
 21
1092.573066566618
 31
0.0
100
AcDbText
  0
TEXT
  5
3ADD
330
1D9
100
AcDbEntity
  8
0
 48
3.0
100
AcDbText
 10
465.263588421771
 20
1092.273066566618
 30
0.0
 40
8.0
  1
KURAFLEX
 41
0.75
  7
SMP-SET
 72
     5
 11
509.263588421771
 21
1092.273066566618
 31
0.0
100
AcDbText
  0
TEXT
  5
3ADE
330
1D9
100
AcDbEntity
  8
0
 48
3.0
100
AcDbText
 10
465.6635884217712
 20
1092.273066566618
 30
0.0
 40
8.0
  1
KURAFLEX
 41
0.7499999999999972
  7
SMP-SET
 72
     5
 11
509.663588421771
 21
1092.273066566618
 31
0.0
100
AcDbText
  0
TEXT
  5
3ADF
330
1D9
100
AcDbEntity
  8
0
 48
3.0
100
AcDbText
 10
465.4635884217706
 20
1092.073066566618
 30
0.0
 40
8.0
  1
KURAFLEX
 41
0.7500000000000019
  7
SMP-SET
 72
     5
 11
509.4635884217708
 21
1092.073066566618
 31
0.0
100
AcDbText
  0
TEXT
  5
3AE0
330
1D9
100
AcDbEntity
  8
0
 48
3.0
100
AcDbText
 10
465.4635884217706
 20
1092.473066566618
 30
0.0
 40
8.0
  1
KURAFLEX
 41
0.7500000000000019
  7
SMP-SET
 72
     5
 11
509.4635884217708
 21
1092.473066566618
 31
0.0
100
AcDbText
  0
TEXT
  5
3AE1
330
1D9
100
AcDbEntity
  8
0
 48
3.0
100
AcDbText
 10
465.4635884217706
 20
1092.173066566618
 30
0.0
 40
8.0
  1
KURAFLEX
 41
0.7500000000000019
  7
SMP-SET
 72
     5
 11
509.4635884217708
 21
1092.173066566618
 31
0.0
100
AcDbText
  0
TEXT
  5
3AE2
330
1D9
100
AcDbEntity
  8
0
 48
3.0
100
AcDbText
 10
465.4635884217706
 20
1092.373066566618
 30
0.0
 40
8.0
  1
KURAFLEX
 41
0.7500000000000019
  7
SMP-SET
 72
     5
 11
509.4635884217708
 21
1092.373066566618
 31
0.0
100
AcDbText
  0
TEXT
  5
3AE3
330
1D9
100
AcDbEntity
  8
0
 48
3.0
100
AcDbText
 10
465.3635884217711
 20
1092.273066566618
 30
0.0
 40
8.0
  1
KURAFLEX
 41
0.75
  7
SMP-SET
 72
     5
 11
509.3635884217711
 21
1092.273066566618
 31
0.0
100
AcDbText
  0
TEXT
  5
3AE4
330
1D9
100
AcDbEntity
  8
0
 48
3.0
100
AcDbText
 10
465.5635884217713
 20
1092.273066566618
 30
0.0
 40
8.0
  1
KURAFLEX
 41
0.7499999999999968
  7
SMP-SET
 72
     5
 11
509.5635884217712
 21
1092.273066566618
 31
0.0
100
AcDbText
  0
TEXT
  5
3AE5
330
1D9
100
AcDbEntity
  8
0
 48
3.0
100
AcDbText
 10
465.4635884217706
 20
1092.273066566618
 30
0.0
 40
8.0
  1
KURAFLEX
 41
0.7500000000000019
  7
SMP-SET
 72
     5
 11
509.4635884217708
 21
1092.273066566618
 31
0.0
100
AcDbText
  0
TEXT
  5
3AE6
330
1D9
100
AcDbEntity
  8
0
100
AcDbText
 10
474.1194407035709
 20
1106.261689662747
 30
0.0
 40
3.0
  1
2
  7
SMP-SET
100
AcDbText
  0
TEXT
  5
3AE7
330
1D9
100
AcDbEntity
  8
0
100
AcDbText
 10
464.1194407035706
 20
1106.261689662747
 30
0.0
 40
3.0
  1
0
  7
SMP-SET
100
AcDbText
  0
TEXT
  5
3AE8
330
1D9
100
AcDbEntity
  8
0
100
AcDbText
 10
469.1194407035707
 20
1106.261689662747
 30
0.0
 40
3.0
  1
1
  7
SMP-SET
100
AcDbText
  0
TEXT
  5
3AE9
330
1D9
100
AcDbEntity
  8
0
100
AcDbText
 10
484.1194407035708
 20
1106.261689662747
 30
0.0
 40
3.0
  1
4
  7
SMP-SET
100
AcDbText
  0
TEXT
  5
3AEA
330
1D9
100
AcDbEntity
  8
0
100
AcDbText
 10
479.1194407035709
 20
1106.261689662747
 30
0.0
 40
3.0
  1
3
  7
SMP-SET
100
AcDbText
  0
TEXT
  5
3AEB
330
1D9
100
AcDbEntity
  8
0
100
AcDbText
 10
499.1194407035711
 20
1106.261689662747
 30
0.0
 40
3.0
  1
7
  7
SMP-SET
100
AcDbText
  0
TEXT
  5
3AEC
330
1D9
100
AcDbEntity
  8
0
100
AcDbText
 10
494.119440703571
 20
1106.261689662747
 30
0.0
 40
3.0
  1
6
  7
SMP-SET
100
AcDbText
  0
TEXT
  5
3AED
330
1D9
100
AcDbEntity
  8
0
100
AcDbText
 10
489.119440703571
 20
1106.261689662747
 30
0.0
 40
3.0
  1
5
  7
SMP-SET
100
AcDbText
  0
TEXT
  5
3AEE
330
1D9
100
AcDbEntity
  8
0
100
AcDbText
 10
504.1194407035709
 20
1106.261689662747
 30
0.0
 40
3.0
  1
8
  7
SMP-SET
100
AcDbText
  0
TEXT
  5
3AEF
330
1D9
100
AcDbEntity
  8
0
100
AcDbText
 10
509.1194407035708
 20
1106.261689662747
 30
0.0
 40
3.0
  1
9
  7
SMP-SET
100
AcDbText
  0
TEXT
  5
3B50
330
1D9
100
AcDbEntity
  8
0
100
AcDbText
 10
515.7016702852428
 20
1080.273066566618
 30
0.0
 40
2.0
  1
200
 41
0.875
  7
SMP-SET
 72
     5
 11
520.2016702852428
 21
1080.273066566618
 31
0.0
100
AcDbText
  0
LINE
  5
3B51
330
1D9
100
AcDbEntity
  8
0
100
AcDbLine
 10
522.4635884217707
 20
1111.273066566618
 30
0.0
 11
522.4635884217707
 21
1071.273066566618
 31
0.0
  0
TEXT
  5
3B52
330
1D9
100
AcDbEntity
  8
0
100
AcDbText
 10
515.7016702852428
 20
1075.273066566618
 30
0.0
 40
2.0
  1
300
 41
0.875
  7
SMP-SET
 72
     5
 11
520.2016702852428
 21
1075.273066566618
 31
0.0
100
AcDbText
  0
TEXT
  5
3B53
330
1D9
100
AcDbEntity
  8
0
100
AcDbText
 10
515.7016702852428
 20
1077.773066566618
 30
0.0
 40
2.0
  1
250
 41
0.875
  7
SMP-SET
 72
     5
 11
520.2016702852428
 21
1077.773066566618
 31
0.0
100
AcDbText
  0
TEXT
  5
3B54
330
1D9
100
AcDbEntity
  8
0
100
AcDbText
 10
517.2016702852427
 20
1097.773066566618
 30
0.0
 40
2.0
  1
40
 41
0.9264705882353293
  7
SMP-SET
 72
     5
 11
520.2016702852428
 21
1097.773066566618
 31
0.0
100
AcDbText
  0
TEXT
  5
3B55
330
1D9
100
AcDbEntity
  8
0
100
AcDbText
 10
515.7016702852428
 20
1082.773066566618
 30
0.0
 40
2.0
  1
150
 41
0.9450000000000001
  7
SMP-SET
 72
     5
 11
520.2016702852428
 21
1082.773066566618
 31
0.0
100
AcDbText
  0
TEXT
  5
3B56
330
1D9
100
AcDbEntity
  8
0
100
AcDbText
 10
515.7016702852428
 20
1085.273066566618
 30
0.0
 40
2.0
  1
125
 41
0.9450000000000001
  7
SMP-SET
 72
     5
 11
520.2016702852428
 21
1085.273066566618
 31
0.0
100
AcDbText
  0
TEXT
  5
3B57
330
1D9
100
AcDbEntity
  8
0
100
AcDbText
 10
515.7016702852428
 20
1087.773066566618
 30
0.0
 40
2.0
  1
100
 41
0.9450000000000001
  7
SMP-SET
 72
     5
 11
520.2016702852428
 21
1087.773066566618
 31
0.0
100
AcDbText
  0
TEXT
  5
3B58
330
1D9
100
AcDbEntity
  8
0
100
AcDbText
 10
517.2016702852427
 20
1092.773066566618
 30
0.0
 40
2.0
  1
65
 41
0.9264705882353291
  7
SMP-SET
 72
     5
 11
520.2016702852428
 21
1092.773066566618
 31
0.0
100
AcDbText
  0
TEXT
  5
3B59
330
1D9
100
AcDbEntity
  8
0
100
AcDbText
 10
517.2016702852427
 20
1090.273066566618
 30
0.0
 40
2.0
  1
80
 41
0.9264705882353293
  7
SMP-SET
 72
     5
 11
520.2016702852428
 21
1090.273066566618
 31
0.0
100
AcDbText
  0
TEXT
  5
3B5A
330
1D9
100
AcDbEntity
  8
0
100
AcDbText
 10
517.2016702852427
 20
1095.273066566618
 30
0.0
 40
2.0
  1
50
 41
0.9264705882353293
  7
SMP-SET
 72
     5
 11
520.2016702852428
 21
1095.273066566618
 31
0.0
100
AcDbText
  0
TEXT
  5
3B5B
330
1D9
100
AcDbEntity
  8
0
100
AcDbText
 10
517.2016702852427
 20
1105.273066566618
 30
0.0
 40
2.0
  1
20
 41
0.9264705882353293
  7
SMP-SET
 72
     5
 11
520.2016702852428
 21
1105.273066566618
 31
0.0
100
AcDbText
  0
TEXT
  5
3B5C
330
1D9
100
AcDbEntity
  8
0
100
AcDbText
 10
517.2016702852427
 20
1102.773066566618
 30
0.0
 40
2.0
  1
25
 41
0.9264705882353293
  7
SMP-SET
 72
     5
 11
520.2016702852428
 21
1102.773066566618
 31
0.0
100
AcDbText
  0
TEXT
  5
3B5D
330
1D9
100
AcDbEntity
  8
0
100
AcDbText
 10
517.2016702852427
 20
1100.273066566618
 30
0.0
 40
2.0
  1
32
 41
0.9264705882353293
  7
SMP-SET
 72
     5
 11
520.2016702852428
 21
1100.273066566618
 31
0.0
100
AcDbText
  0
LINE
  5
3BD5
330
1D9
100
AcDbEntity
  8
0
100
AcDbLine
 10
821.4153160659456
 20
892.268553688925
 30
0.0
 11
821.4153160659456
 21
1091.268553688925
 31
0.0
  0
LINE
  5
3BD6
330
1D9
100
AcDbEntity
  8
0
100
AcDbLine
 10
839.4153160659456
 20
1091.268553688925
 30
0.0
 11
839.4153160659456
 21
939.654554625255
 31
0.0
  0
LINE
  5
3BD8
330
1D9
100
AcDbEntity
  8
0
100
AcDbLine
 10
820.4153160659457
 20
891.2685536889252
 30
0.0
 11
821.4153160659456
 21
892.268553688925
 31
0.0
  0
LINE
  5
3BD9
330
1D9
100
AcDbEntity
  8
0
100
AcDbLine
 10
835.4153160659459
 20
936.7685536889256
 30
0.0
 11
821.4153160659456
 21
936.7685536889256
 31
0.0
  0
LINE
  5
3BDA
330
1D9
100
AcDbEntity
  8
0
100
AcDbLine
 10
835.4153160659459
 20
936.7685536889256
 30
0.0
 11
838.1175629491227
 21
937.7818962701168
 31
0.0
  0
ARC
  5
3BDB
330
1D9
100
AcDbEntity
  8
0
100
AcDbCircle
 10
837.4153160659457
 20
939.654554625255
 30
0.0
 40
2.0
100
AcDbArc
 50
290.5560452195875
 51
0.0
  0
LINE
  5
3C69
330
1D9
100
AcDbEntity
  8
0
100
AcDbLine
 10
139.4153160456767
 20
1105.020722373633
 30
0.0
 11
139.4153160456767
 21
1091.268553688925
 31
0.0
  0
LINE
  5
3C6A
330
1D9
100
AcDbEntity
  8
0
100
AcDbLine
 10
139.4153160456767
 20
1091.268553688925
 30
0.0
 11
139.4153160456767
 21
1242.882552752595
 31
0.0
  0
LINE
  5
3C6B
330
1D9
100
AcDbEntity
  8
0
100
AcDbLine
 10
157.4153160456762
 20
1290.268553688926
 30
0.0
 11
157.4153160456762
 21
1091.268553688925
 31
0.0
  0
LINE
  5
3C6C
330
1D9
100
AcDbEntity
  8
0
100
AcDbLine
 10
181.415316045676
 20
1290.268553688926
 30
0.0
 11
181.415316045676
 21
1091.268553688925
 31
0.0
  0
LINE
  5
3C6D
330
1D9
100
AcDbEntity
  8
0
100
AcDbLine
 10
201.4153160456765
 20
1234.268553688925
 30
0.0
 11
181.4153160456765
 21
1234.268553688925
 31
0.0
  0
ARC
  5
3C6E
330
1D9
100
AcDbEntity
  8
0
100
AcDbCircle
 10
141.4153160456762
 20
1242.882552752595
 30
0.0
 40
2.0
100
AcDbArc
 50
110.5560452195875
 51
180.0
  0
LINE
  5
3C6F
330
1D9
100
AcDbEntity
  8
0
100
AcDbLine
 10
143.4153160456762
 20
1245.768553688925
 30
0.0
 11
157.4153160456762
 21
1245.768553688925
 31
0.0
  0
LINE
  5
3C70
330
1D9
100
AcDbEntity
  8
0
100
AcDbLine
 10
143.4153160456762
 20
1245.768553688925
 30
0.0
 11
140.7130691624993
 21
1244.755211107734
 31
0.0
  0
LINE
  5
3C71
330
1D9
100
AcDbEntity
  8
0
100
AcDbLine
 10
180.415316045676
 20
1291.268553688925
 30
0.0
 11
158.4153160456762
 21
1291.268553688925
 31
0.0
  0
LINE
  5
3C72
330
1D9
100
AcDbEntity
  8
0
100
AcDbLine
 10
158.4153160456762
 20
1291.268553688925
 30
0.0
 11
157.4153160456762
 21
1290.268553688926
 31
0.0
  0
LINE
  5
3C73
330
1D9
100
AcDbEntity
  8
0
100
AcDbLine
 10
180.415316045676
 20
1291.268553688925
 30
0.0
 11
181.415316045676
 21
1290.268553688926
 31
0.0
  0
LINE
  5
3C74
330
1D9
100
AcDbEntity
  8
0
100
AcDbLine
 10
221.4153160456767
 20
1231.268553688925
 30
0.0
 11
201.4153160456765
 21
1234.268553688925
 31
0.0
  0
LINE
  5
3C75
330
1D9
100
AcDbEntity
  8
0
100
AcDbLine
 10
139.4153160456767
 20
1077.516385004217
 30
0.0
 11
139.4153160456767
 21
1091.268553688925
 31
0.0
  0
LINE
  5
3C76
330
1D9
100
AcDbEntity
  8
0
100
AcDbLine
 10
221.4153160456779
 20
1231.268553688925
 30
0.0
 11
757.4153160659465
 21
1231.268553688925
 31
0.0
  0
LINE
  5
3C77
330
1D9
100
AcDbEntity
  8
0
100
AcDbLine
 10
798.415316065946
 20
1291.268553688925
 30
0.0
 11
820.4153160659457
 21
1291.268553688925
 31
0.0
  0
LINE
  5
3C78
330
1D9
100
AcDbEntity
  8
0
100
AcDbLine
 10
797.4153160659462
 20
1290.268553688926
 30
0.0
 11
797.4153160659462
 21
1091.268553688925
 31
0.0
  0
LINE
  5
3C79
330
1D9
100
AcDbEntity
  8
0
100
AcDbLine
 10
798.415316065946
 20
1291.268553688925
 30
0.0
 11
797.4153160659462
 21
1290.268553688926
 31
0.0
  0
LINE
  5
3C7A
330
1D9
100
AcDbEntity
  8
0
100
AcDbLine
 10
757.415316065946
 20
1231.268553688925
 30
0.0
 11
777.415316065946
 21
1234.268553688925
 31
0.0
  0
LINE
  5
3C7B
330
1D9
100
AcDbEntity
  8
0
100
AcDbLine
 10
777.415316065946
 20
1234.268553688925
 30
0.0
 11
797.4153160659457
 21
1234.268553688925
 31
0.0
  0
LINE
  5
3C7C
330
1D9
100
AcDbEntity
  8
0
100
AcDbLine
 10
839.4153160659456
 20
1091.268553688925
 30
0.0
 11
839.4153160659456
 21
1242.882552752595
 31
0.0
  0
LINE
  5
3C7D
330
1D9
100
AcDbEntity
  8
0
100
AcDbLine
 10
821.4153160659456
 20
1290.268553688926
 30
0.0
 11
821.4153160659456
 21
1091.268553688925
 31
0.0
  0
ARC
  5
3C7E
330
1D9
100
AcDbEntity
  8
0
100
AcDbCircle
 10
837.4153160659457
 20
1242.882552752595
 30
0.0
 40
2.0
100
AcDbArc
 50
0.0
 51
69.44395478041243
  0
LINE
  5
3C7F
330
1D9
100
AcDbEntity
  8
0
100
AcDbLine
 10
820.4153160659457
 20
1291.268553688925
 30
0.0
 11
821.4153160659456
 21
1290.268553688926
 31
0.0
  0
LINE
  5
3C80
330
1D9
100
AcDbEntity
  8
0
100
AcDbLine
 10
835.4153160659459
 20
1245.768553688925
 30
0.0
 11
821.4153160659456
 21
1245.768553688925
 31
0.0
  0
LINE
  5
3C81
330
1D9
100
AcDbEntity
  8
0
100
AcDbLine
 10
835.4153160659459
 20
1245.768553688925
 30
0.0
 11
838.1175629491227
 21
1244.755211107734
 31
0.0
  0
LINE
  5
4378
330
1D9
100
AcDbEntity
  8
0
100
AcDbLine
 10
777.415316055811
 20
236.3064995622689
 30
0.0
 11
757.4153160558111
 21
239.3064995622689
 31
0.0
  0
LINE
  5
4380
330
1D9
100
AcDbEntity
  8
0
100
AcDbLine
 10
119.4203160558112
 20
405.3064995622689
 30
0.0
 11
859.290316055811
 21
405.3064995622689
 31
0.0
  0
LINE
  5
4384
330
1D9
100
AcDbEntity
  8
0
100
AcDbLine
 10
139.4153160558111
 20
225.2945608640505
 30
0.0
 11
139.4153160558111
 21
405.3064995622689
 31
0.0
  0
LINE
  5
4385
330
1D9
100
AcDbEntity
  8
0
100
AcDbLine
 10
157.4153160558115
 20
183.8064995622689
 30
0.0
 11
157.4153160558115
 21
405.3064995622689
 31
0.0
  0
LINE
  5
4386
330
1D9
100
AcDbEntity
  8
0
100
AcDbLine
 10
181.415316055811
 20
183.8064995622689
 30
0.0
 11
181.4153160558106
 21
405.3064995622689
 31
0.0
  0
LINE
  5
4387
330
1D9
100
AcDbEntity
  8
0
100
AcDbLine
 10
221.2953160558106
 20
239.3064995622686
 30
0.0
 11
757.4153160558137
 21
239.3064995622686
 31
0.0
  0
LINE
  5
438A
330
1D9
100
AcDbEntity
  8
0
100
AcDbLine
 10
180.415316055811
 20
182.8064995622689
 30
0.0
 11
158.4153160558114
 21
182.8064995622689
 31
0.0
  0
LINE
  5
438B
330
1D9
100
AcDbEntity
  8
0
100
AcDbLine
 10
158.4153160558114
 20
182.8064995622689
 30
0.0
 11
157.4153160558115
 21
183.8064995622689
 31
0.0
  0
LINE
  5
438C
330
1D9
100
AcDbEntity
  8
0
100
AcDbLine
 10
180.415316055811
 20
182.8064995622689
 30
0.0
 11
181.415316055811
 21
183.8064995622689
 31
0.0
  0
LINE
  5
438E
330
1D9
100
AcDbEntity
  8
0
100
AcDbLine
 10
181.295316055811
 20
236.3064995622686
 30
0.0
 11
201.295316055811
 21
236.3064995622686
 31
0.0
  0
ARC
  5
438F
330
1D9
100
AcDbEntity
  8
0
100
AcDbCircle
 10
141.4153160558111
 20
225.2945608640505
 30
0.0
 40
2.0
100
AcDbArc
 50
180.0
 51
253.3007557660083
  0
LINE
  5
4390
330
1D9
100
AcDbEntity
  8
0
100
AcDbLine
 10
157.4153160558115
 20
222.3064995622686
 30
0.0
 11
144.4153160558105
 21
222.3064995622686
 31
0.0
  0
LINE
  5
4391
330
1D9
100
AcDbEntity
  8
0
100
AcDbLine
 10
144.4153160558111
 20
222.3064995622689
 30
0.0
 11
140.8406202846784
 21
223.3789082936084
 31
0.0
  0
LINE
  5
4392
330
1D9
100
AcDbEntity
  8
0
100
AcDbLine
 10
201.295316055811
 20
236.3064995622686
 30
0.0
 11
221.295316055811
 21
239.3064995622686
 31
0.0
  0
TEXT
  5
442A
330
1D9
100
AcDbEntity
  8
0
100
AcDbText
 10
512.8239182787393
 20
401.8022948561743
 30
0.0
 40
2.0
  1
100
 41
0.9450000000000478
  7
SMP-SET
 72
     5
 11
517.3239182787396
 21
401.8022948561743
 31
0.0
100
AcDbText
  0
LINE
  5
442B
330
1D9
100
AcDbEntity
  8
0
100
AcDbLine
 10
509.5858364152681
 20
418.3022948561743
 30
0.0
 11
509.5858364152681
 21
392.3022948561741
 31
0.0
  0
LINE
  5
442C
330
1D9
100
AcDbEntity
  8
0
100
AcDbLine
 10
519.5858364152677
 20
425.3022948561739
 30
0.0
 11
519.5858364152677
 21
385.3022948561743
 31
0.0
  0
LINE
  5
442D
330
1D9
100
AcDbEntity
  8
0
100
AcDbLine
 10
459.5858364152681
 20
392.3022948561741
 30
0.0
 11
459.5858364152681
 21
418.3022948561743
 31
0.0
  0
LINE
  5
442E
330
1D9
100
AcDbEntity
  8
0
100
AcDbLine
 10
449.585836415268
 20
385.3022948561743
 30
0.0
 11
449.585836415268
 21
425.3022948561739
 31
0.0
  0
TEXT
  5
4430
330
1D9
100
AcDbEntity
  8
0
100
AcDbText
 10
471.5858364152681
 20
396.8022948561742
 30
0.0
 40
5.0
  1
KURASHIKI KAKO CO.,LTD.
 41
0.3700906344410869
  7
SMP-SET
 72
     5
 11
506.585836415268
 21
396.8022948561742
 31
0.0
100
AcDbText
  0
LINE
  5
4431
330
1D9
100
AcDbEntity
  8
0
100
AcDbLine
 10
509.5858364152681
 20
392.3022948561741
 30
0.0
 11
459.5858364152681
 21
392.3022948561741
 31
0.0
  0
LINE
  5
4432
330
1D9
100
AcDbEntity
  8
0
100
AcDbLine
 10
519.5858364152677
 20
385.3022948561743
 30
0.0
 11
449.585836415268
 21
385.3022948561743
 31
0.0
  0
TEXT
  5
4433
330
1D9
100
AcDbEntity
  8
0
100
AcDbText
 10
451.5858364152681
 20
395.3022948561741
 30
0.0
 40
5.0
  1
KW
 41
0.6146341463414577
  7
SMP-SET
 72
     5
 11
457.585836415268
 21
395.3022948561741
 31
0.0
100
AcDbText
  0
TEXT
  5
4434
330
1D9
100
AcDbEntity
  8
0
100
AcDbText
 10
461.7742668089053
 20
387.7512429679772
 30
0.0
 40
2.5
  1
A
  7
SMP-SET
100
AcDbText
  0
TEXT
  5
4435
330
1D9
100
AcDbEntity
  8
0
100
AcDbText
 10
469.7742668089053
 20
387.7512429679772
 30
0.0
 40
2.5
  1
C
  7
SMP-SET
100
AcDbText
  0
TEXT
  5
4436
330
1D9
100
AcDbEntity
  8
0
100
AcDbText
 10
473.7742668089053
 20
387.7512429679772
 30
0.0
 40
2.5
  1
D
  7
SMP-SET
100
AcDbText
  0
TEXT
  5
4437
330
1D9
100
AcDbEntity
  8
0
100
AcDbText
 10
465.7742668089053
 20
387.7512429679772
 30
0.0
 40
2.5
  1
B
  7
SMP-SET
100
AcDbText
  0
TEXT
  5
4439
330
1D9
100
AcDbEntity
  8
0
100
AcDbText
 10
481.7742668089051
 20
387.7512429679772
 30
0.0
 40
2.5
  1
F
  7
SMP-SET
100
AcDbText
  0
TEXT
  5
443A
330
1D9
100
AcDbEntity
  8
0
100
AcDbText
 10
485.7742668089051
 20
387.7512429679772
 30
0.0
 40
2.5
  1
G
  7
SMP-SET
100
AcDbText
  0
TEXT
  5
443B
330
1D9
100
AcDbEntity
  8
0
100
AcDbText
 10
477.7742668089053
 20
387.7512429679772
 30
0.0
 40
2.5
  1
E
  7
SMP-SET
100
AcDbText
  0
TEXT
  5
443C
330
1D9
100
AcDbEntity
  8
0
100
AcDbText
 10
497.774266808905
 20
387.7512429679772
 30
0.0
 40
2.5
  1
J
  7
SMP-SET
100
AcDbText
  0
TEXT
  5
443D
330
1D9
100
AcDbEntity
  8
0
100
AcDbText
 10
489.774266808905
 20
387.7512429679772
 30
0.0
 40
2.5
  1
H
  7
SMP-SET
100
AcDbText
  0
TEXT
  5
443E
330
1D9
100
AcDbEntity
  8
0
100
AcDbText
 10
493.774266808905
 20
387.7512429679772
 30
0.0
 40
2.5
  1
I
  7
SMP-SET
100
AcDbText
  0
TEXT
  5
443F
330
1D9
100
AcDbEntity
  8
0
100
AcDbText
 10
512.8239182787393
 20
394.3022948561741
 30
0.0
 40
2.0
  1
200
 41
0.8750000000000442
  7
SMP-SET
 72
     5
 11
517.3239182787396
 21
394.3022948561741
 31
0.0
100
AcDbText
  0
TEXT
  5
4440
330
1D9
100
AcDbEntity
  8
0
100
AcDbText
 10
512.8239182787393
 20
389.3022948561744
 30
0.0
 40
2.0
  1
300
 41
0.8750000000000445
  7
SMP-SET
 72
     5
 11
517.3239182787396
 21
389.3022948561744
 31
0.0
100
AcDbText
  0
TEXT
  5
4441
330
1D9
100
AcDbEntity
  8
0
100
AcDbText
 10
512.8239182787393
 20
391.8022948561743
 30
0.0
 40
2.0
  1
250
 41
0.8750000000000444
  7
SMP-SET
 72
     5
 11
517.3239182787396
 21
391.8022948561743
 31
0.0
100
AcDbText
  0
TEXT
  5
4442
330
1D9
100
AcDbEntity
  8
0
100
AcDbText
 10
512.8239182787393
 20
396.8022948561742
 30
0.0
 40
2.0
  1
150
 41
0.9450000000000478
  7
SMP-SET
 72
     5
 11
517.3239182787396
 21
396.8022948561742
 31
0.0
100
AcDbText
  0
TEXT
  5
4443
330
1D9
100
AcDbEntity
  8
0
100
AcDbText
 10
512.8239182787393
 20
399.3022948561741
 30
0.0
 40
2.0
  1
125
 41
0.9450000000000475
  7
SMP-SET
 72
     5
 11
517.3239182787396
 21
399.3022948561741
 31
0.0
100
AcDbText
  0
TEXT
  5
4444
330
1D9
100
AcDbEntity
  8
0
100
AcDbText
 10
501.774266808905
 20
387.7512429679772
 30
0.0
 40
2.5
  1
K
  7
SMP-SET
100
AcDbText
  0
TEXT
  5
4445
330
1D9
100
AcDbEntity
  8
0
100
AcDbText
 10
505.774266808905
 20
387.7512429679772
 30
0.0
 40
2.5
  1
L
  7
SMP-SET
100
AcDbText
  0
TEXT
  5
4446
330
1D9
100
AcDbEntity
  8
0
100
AcDbText
 10
476.2416886970678
 20
420.2909179523055
 30
0.0
 40
3.0
  1
3
  7
SMP-SET
100
AcDbText
  0
TEXT
  5
4447
330
1D9
100
AcDbEntity
  8
0
 48
3.0
100
AcDbText
 10
462.185836415268
 20
406.3022948561743
 30
0.0
 40
8.0
  1
KURAFLEX
 41
0.7500000000000001
  7
SMP-SET
 72
     5
 11
506.185836415268
 21
406.3022948561743
 31
0.0
100
AcDbText
  0
TEXT
  5
4448
330
1D9
100
AcDbEntity
  8
0
 48
3.0
100
AcDbText
 10
462.985836415268
 20
406.3022948561743
 30
0.0
 40
8.0
  1
KURAFLEX
 41
0.7500000000000031
  7
SMP-SET
 72
     5
 11
506.9858364152682
 21
406.3022948561743
 31
0.0
100
AcDbText
  0
TEXT
  5
4449
330
1D9
100
AcDbEntity
  8
0
 48
3.0
100
AcDbText
 10
462.5858364152681
 20
405.9022948561743
 30
0.0
 40
8.0
  1
KURAFLEX
 41
0.7499999999999991
  7
SMP-SET
 72
     5
 11
506.585836415268
 21
405.9022948561743
 31
0.0
100
AcDbText
  0
TEXT
  5
444A
330
1D9
100
AcDbEntity
  8
0
 48
3.0
100
AcDbText
 10
462.5858364152681
 20
406.702294856174
 30
0.0
 40
8.0
  1
KURAFLEX
 41
0.7499999999999991
  7
SMP-SET
 72
     5
 11
506.585836415268
 21
406.702294856174
 31
0.0
100
AcDbText
  0
TEXT
  5
444B
330
1D9
100
AcDbEntity
  8
0
 48
3.0
100
AcDbText
 10
462.2858364152683
 20
406.3022948561743
 30
0.0
 40
8.0
  1
KURAFLEX
 41
0.7500000000000001
  7
SMP-SET
 72
     5
 11
506.2858364152683
 21
406.3022948561743
 31
0.0
100
AcDbText
  0
TEXT
  5
444C
330
1D9
100
AcDbEntity
  8
0
 48
3.0
100
AcDbText
 10
462.8858364152677
 20
406.3022948561743
 30
0.0
 40
8.0
  1
KURAFLEX
 41
0.7500000000000022
  7
SMP-SET
 72
     5
 11
506.8858364152678
 21
406.3022948561743
 31
0.0
100
AcDbText
  0
TEXT
  5
444D
330
1D9
100
AcDbEntity
  8
0
 48
3.0
100
AcDbText
 10
462.5858364152681
 20
406.0022948561742
 30
0.0
 40
8.0
  1
KURAFLEX
 41
0.7499999999999991
  7
SMP-SET
 72
     5
 11
506.585836415268
 21
406.0022948561742
 31
0.0
100
AcDbText
  0
TEXT
  5
444E
330
1D9
100
AcDbEntity
  8
0
 48
3.0
100
AcDbText
 10
462.5858364152681
 20
406.6022948561742
 30
0.0
 40
8.0
  1
KURAFLEX
 41
0.7499999999999991
  7
SMP-SET
 72
     5
 11
506.585836415268
 21
406.6022948561742
 31
0.0
100
AcDbText
  0
TEXT
  5
444F
330
1D9
100
AcDbEntity
  8
0
 48
3.0
100
AcDbText
 10
462.3858364152678
 20
406.3022948561743
 30
0.0
 40
8.0
  1
KURAFLEX
 41
0.7500000000000001
  7
SMP-SET
 72
     5
 11
506.3858364152678
 21
406.3022948561743
 31
0.0
100
AcDbText
  0
TEXT
  5
4450
330
1D9
100
AcDbEntity
  8
0
 48
3.0
100
AcDbText
 10
462.7858364152682
 20
406.3022948561743
 30
0.0
 40
8.0
  1
KURAFLEX
 41
0.750000000000002
  7
SMP-SET
 72
     5
 11
506.7858364152683
 21
406.3022948561743
 31
0.0
100
AcDbText
  0
TEXT
  5
4451
330
1D9
100
AcDbEntity
  8
0
 48
3.0
100
AcDbText
 10
462.5858364152681
 20
406.102294856174
 30
0.0
 40
8.0
  1
KURAFLEX
 41
0.7499999999999991
  7
SMP-SET
 72
     5
 11
506.585836415268
 21
406.102294856174
 31
0.0
100
AcDbText
  0
TEXT
  5
4452
330
1D9
100
AcDbEntity
  8
0
 48
3.0
100
AcDbText
 10
462.5858364152681
 20
406.5022948561743
 30
0.0
 40
8.0
  1
KURAFLEX
 41
0.7499999999999991
  7
SMP-SET
 72
     5
 11
506.585836415268
 21
406.5022948561743
 31
0.0
100
AcDbText
  0
TEXT
  5
4453
330
1D9
100
AcDbEntity
  8
0
 48
3.0
100
AcDbText
 10
462.5858364152681
 20
406.202294856174
 30
0.0
 40
8.0
  1
KURAFLEX
 41
0.7499999999999991
  7
SMP-SET
 72
     5
 11
506.585836415268
 21
406.202294856174
 31
0.0
100
AcDbText
  0
TEXT
  5
4454
330
1D9
100
AcDbEntity
  8
0
 48
3.0
100
AcDbText
 10
462.5858364152681
 20
406.4022948561743
 30
0.0
 40
8.0
  1
KURAFLEX
 41
0.7499999999999991
  7
SMP-SET
 72
     5
 11
506.585836415268
 21
406.4022948561743
 31
0.0
100
AcDbText
  0
TEXT
  5
4455
330
1D9
100
AcDbEntity
  8
0
 48
3.0
100
AcDbText
 10
462.4858364152681
 20
406.3022948561743
 30
0.0
 40
8.0
  1
KURAFLEX
 41
0.7500000000000009
  7
SMP-SET
 72
     5
 11
506.4858364152682
 21
406.3022948561743
 31
0.0
100
AcDbText
  0
TEXT
  5
4456
330
1D9
100
AcDbEntity
  8
0
 48
3.0
100
AcDbText
 10
462.6858364152679
 20
406.3022948561743
 30
0.0
 40
8.0
  1
KURAFLEX
 41
0.7500000000000022
  7
SMP-SET
 72
     5
 11
506.685836415268
 21
406.3022948561743
 31
0.0
100
AcDbText
  0
TEXT
  5
4457
330
1D9
100
AcDbEntity
  8
0
 48
3.0
100
AcDbText
 10
462.5858364152681
 20
406.3022948561743
 30
0.0
 40
8.0
  1
KURAFLEX
 41
0.7499999999999991
  7
SMP-SET
 72
     5
 11
506.585836415268
 21
406.3022948561743
 31
0.0
100
AcDbText
  0
LINE
  5
4458
330
1D9
100
AcDbEntity
  8
0
100
AcDbLine
 10
459.5858364152681
 20
418.3022948561743
 30
0.0
 11
509.5858364152681
 21
418.3022948561743
 31
0.0
  0
LINE
  5
4459
330
1D9
100
AcDbEntity
  8
0
100
AcDbLine
 10
449.585836415268
 20
425.3022948561739
 30
0.0
 11
519.5858364152677
 21
425.3022948561739
 31
0.0
  0
TEXT
  5
445A
330
1D9
100
AcDbEntity
  8
0
100
AcDbText
 10
451.5858364152681
 20
410.3022948561743
 30
0.0
 40
5.0
  1
MF
 41
0.6810810810810747
  7
SMP-SET
 72
     5
 11
457.585836415268
 21
410.3022948561743
 31
0.0
100
AcDbText
  0
TEXT
  5
445B
330
1D9
100
AcDbEntity
  8
0
100
AcDbText
 10
461.241688697068
 20
420.2909179523055
 30
0.0
 40
3.0
  1
0
  7
SMP-SET
100
AcDbText
  0
TEXT
  5
445C
330
1D9
100
AcDbEntity
  8
0
100
AcDbText
 10
471.2416886970681
 20
420.2909179523055
 30
0.0
 40
3.0
  1
2
  7
SMP-SET
100
AcDbText
  0
TEXT
  5
445D
330
1D9
100
AcDbEntity
  8
0
100
AcDbText
 10
466.2416886970681
 20
420.2909179523055
 30
0.0
 40
3.0
  1
1
  7
SMP-SET
100
AcDbText
  0
TEXT
  5
445E
330
1D9
100
AcDbEntity
  8
0
100
AcDbText
 10
501.2416886970678
 20
420.2909179523055
 30
0.0
 40
3.0
  1
8
  7
SMP-SET
100
AcDbText
  0
TEXT
  5
445F
330
1D9
100
AcDbEntity
  8
0
100
AcDbText
 10
481.2416886970678
 20
420.2909179523055
 30
0.0
 40
3.0
  1
4
  7
SMP-SET
100
AcDbText
  0
TEXT
  5
4460
330
1D9
100
AcDbEntity
  8
0
100
AcDbText
 10
486.241688697068
 20
420.2909179523055
 30
0.0
 40
3.0
  1
5
  7
SMP-SET
100
AcDbText
  0
TEXT
  5
4461
330
1D9
100
AcDbEntity
  8
0
100
AcDbText
 10
496.2416886970681
 20
420.2909179523055
 30
0.0
 40
3.0
  1
7
  7
SMP-SET
100
AcDbText
  0
TEXT
  5
4462
330
1D9
100
AcDbEntity
  8
0
100
AcDbText
 10
491.2416886970681
 20
420.2909179523055
 30
0.0
 40
3.0
  1
6
  7
SMP-SET
100
AcDbText
  0
TEXT
  5
4463
330
1D9
100
AcDbEntity
  8
0
100
AcDbText
 10
514.3239182787396
 20
419.3022948561742
 30
0.0
 40
2.0
  1
20
 41
0.926470588235294
  7
SMP-SET
 72
     5
 11
517.3239182787396
 21
419.3022948561742
 31
0.0
100
AcDbText
  0
TEXT
  5
4464
330
1D9
100
AcDbEntity
  8
0
100
AcDbText
 10
514.3239182787396
 20
411.8022948561741
 30
0.0
 40
2.0
  1
40
 41
0.9264705882352942
  7
SMP-SET
 72
     5
 11
517.3239182787396
 21
411.8022948561741
 31
0.0
100
AcDbText
  0
TEXT
  5
4465
330
1D9
100
AcDbEntity
  8
0
100
AcDbText
 10
514.3239182787396
 20
409.3022948561743
 30
0.0
 40
2.0
  1
50
 41
0.9264705882352942
  7
SMP-SET
 72
     5
 11
517.3239182787396
 21
409.3022948561743
 31
0.0
100
AcDbText
  0
TEXT
  5
4466
330
1D9
100
AcDbEntity
  8
0
100
AcDbText
 10
514.3239182787396
 20
416.8022948561739
 30
0.0
 40
2.0
  1
25
 41
0.9264705882352943
  7
SMP-SET
 72
     5
 11
517.3239182787396
 21
416.8022948561739
 31
0.0
100
AcDbText
  0
TEXT
  5
4467
330
1D9
100
AcDbEntity
  8
0
100
AcDbText
 10
514.3239182787396
 20
414.3022948561743
 30
0.0
 40
2.0
  1
32
 41
0.9264705882352942
  7
SMP-SET
 72
     5
 11
517.3239182787396
 21
414.3022948561743
 31
0.0
100
AcDbText
  0
TEXT
  5
4468
330
1D9
100
AcDbEntity
  8
0
100
AcDbText
 10
514.3239182787396
 20
404.3022948561739
 30
0.0
 40
2.0
  1
80
 41
0.9264705882352942
  7
SMP-SET
 72
     5
 11
517.3239182787396
 21
404.3022948561739
 31
0.0
100
AcDbText
  0
TEXT
  5
4469
330
1D9
100
AcDbEntity
  8
0
100
AcDbText
 10
514.3239182787396
 20
406.8022948561742
 30
0.0
 40
2.0
  1
65
 41
0.9264705882352942
  7
SMP-SET
 72
     5
 11
517.3239182787396
 21
406.8022948561742
 31
0.0
100
AcDbText
  0
TEXT
  5
446A
330
1D9
100
AcDbEntity
  8
0
100
AcDbText
 10
506.2416886970678
 20
420.2909179523055
 30
0.0
 40
3.0
  1
9
  7
SMP-SET
100
AcDbText
  0
LINE
  5
4532
330
1D9
100
AcDbEntity
  8
0
100
AcDbLine
 10
797.4153160558111
 20
183.8064995622689
 30
0.0
 11
797.4153160558111
 21
405.3064995622689
 31
0.0
  0
LINE
  5
4533
330
1D9
100
AcDbEntity
  8
0
100
AcDbLine
 10
821.4153160558106
 20
183.8064995622689
 30
0.0
 11
821.4153160558106
 21
405.3064995622689
 31
0.0
  0
LINE
  5
4534
330
1D9
100
AcDbEntity
  8
0
100
AcDbLine
 10
839.4153160558111
 20
225.2945608640505
 30
0.0
 11
839.4153160558111
 21
405.3064995622689
 31
0.0
  0
LINE
  5
4537
330
1D9
100
AcDbEntity
  8
0
100
AcDbLine
 10
798.4153160558109
 20
182.8064995622689
 30
0.0
 11
820.4153160558107
 21
182.8064995622689
 31
0.0
  0
LINE
  5
4538
330
1D9
100
AcDbEntity
  8
0
100
AcDbLine
 10
798.4153160558109
 20
182.8064995622689
 30
0.0
 11
797.4153160558111
 21
183.8064995622689
 31
0.0
  0
LINE
  5
4539
330
1D9
100
AcDbEntity
  8
0
100
AcDbLine
 10
820.4153160558107
 20
182.8064995622689
 30
0.0
 11
821.4153160558106
 21
183.8064995622689
 31
0.0
  0
LINE
  5
453B
330
1D9
100
AcDbEntity
  8
0
100
AcDbLine
 10
821.4153160558106
 20
222.3064995622686
 30
0.0
 11
834.4153160558116
 21
222.3064995622686
 31
0.0
  0
LINE
  5
453C
330
1D9
100
AcDbEntity
  8
0
100
AcDbLine
 10
797.4153160558111
 20
236.3064995622689
 30
0.0
 11
777.415316055811
 21
236.3064995622689
 31
0.0
  0
LINE
  5
453D
330
1D9
100
AcDbEntity
  8
0
100
AcDbLine
 10
834.4153160558111
 20
222.3064995622689
 30
0.0
 11
837.9900118269437
 21
223.3789082936084
 31
0.0
  0
ARC
  5
453E
330
1D9
100
AcDbEntity
  8
0
100
AcDbCircle
 10
837.415316055811
 20
225.2945608640505
 30
0.0
 40
2.0
100
AcDbArc
 50
286.6992442339916
 51
0.0
  0
LINE
  5
45E7
330
1D9
100
AcDbEntity
  8
0
100
AcDbLine
 10
181.415316055811
 20
626.8064995622687
 30
0.0
 11
181.4153160558106
 21
405.3064995622689
 31
0.0
  0
LINE
  5
45E8
330
1D9
100
AcDbEntity
  8
0
100
AcDbLine
 10
157.4153160558115
 20
626.8064995622687
 30
0.0
 11
157.4153160558115
 21
405.3064995622689
 31
0.0
  0
LINE
  5
45E9
330
1D9
100
AcDbEntity
  8
0
100
AcDbLine
 10
139.4153160558111
 20
585.3184382604872
 30
0.0
 11
139.4153160558111
 21
405.3064995622689
 31
0.0
  0
LINE
  5
45EA
330
1D9
100
AcDbEntity
  8
0
100
AcDbLine
 10
181.295316055811
 20
574.3064995622687
 30
0.0
 11
201.295316055811
 21
574.3064995622687
 31
0.0
  0
LINE
  5
45EB
330
1D9
100
AcDbEntity
  8
0
100
AcDbLine
 10
180.415316055811
 20
627.8064995622687
 30
0.0
 11
158.4153160558114
 21
627.8064995622687
 31
0.0
  0
LINE
  5
45EC
330
1D9
100
AcDbEntity
  8
0
100
AcDbLine
 10
158.4153160558114
 20
627.8064995622687
 30
0.0
 11
157.4153160558115
 21
626.8064995622687
 31
0.0
  0
LINE
  5
45ED
330
1D9
100
AcDbEntity
  8
0
100
AcDbLine
 10
180.415316055811
 20
627.8064995622687
 30
0.0
 11
181.415316055811
 21
626.8064995622687
 31
0.0
  0
ARC
  5
45EE
330
1D9
100
AcDbEntity
  8
0
100
AcDbCircle
 10
141.4153160558111
 20
585.3184382604872
 30
0.0
 40
2.0
100
AcDbArc
 50
106.6992442339917
 51
180.0
  0
LINE
  5
45EF
330
1D9
100
AcDbEntity
  8
0
100
AcDbLine
 10
144.4153160558111
 20
588.306499562269
 30
0.0
 11
140.8406202846784
 21
587.2340908309293
 31
0.0
  0
LINE
  5
45F0
330
1D9
100
AcDbEntity
  8
0
100
AcDbLine
 10
157.4153160558115
 20
588.306499562269
 30
0.0
 11
144.4153160558105
 21
588.306499562269
 31
0.0
  0
LINE
  5
45F1
330
1D9
100
AcDbEntity
  8
0
100
AcDbLine
 10
201.295316055811
 20
574.3064995622687
 30
0.0
 11
221.295316055811
 21
571.306499562269
 31
0.0
  0
LINE
  5
45F2
330
1D9
100
AcDbEntity
  8
0
100
AcDbLine
 10
839.4153160558111
 20
585.3184382604872
 30
0.0
 11
839.4153160558111
 21
405.3064995622689
 31
0.0
  0
LINE
  5
45F3
330
1D9
100
AcDbEntity
  8
0
100
AcDbLine
 10
821.4153160558106
 20
626.8064995622687
 30
0.0
 11
821.4153160558106
 21
405.3064995622689
 31
0.0
  0
LINE
  5
45F4
330
1D9
100
AcDbEntity
  8
0
100
AcDbLine
 10
797.4153160558111
 20
626.8064995622687
 30
0.0
 11
797.4153160558111
 21
405.3064995622689
 31
0.0
  0
LINE
  5
45F5
330
1D9
100
AcDbEntity
  8
0
100
AcDbLine
 10
797.4153160558111
 20
574.3064995622687
 30
0.0
 11
777.415316055811
 21
574.3064995622687
 31
0.0
  0
LINE
  5
45F6
330
1D9
100
AcDbEntity
  8
0
100
AcDbLine
 10
777.415316055811
 20
574.3064995622687
 30
0.0
 11
757.4153160558111
 21
571.3064995622687
 31
0.0
  0
LINE
  5
45F7
330
1D9
100
AcDbEntity
  8
0
100
AcDbLine
 10
798.4153160558109
 20
627.8064995622687
 30
0.0
 11
820.4153160558107
 21
627.8064995622687
 31
0.0
  0
LINE
  5
45F8
330
1D9
100
AcDbEntity
  8
0
100
AcDbLine
 10
798.4153160558109
 20
627.8064995622687
 30
0.0
 11
797.4153160558111
 21
626.8064995622687
 31
0.0
  0
LINE
  5
45F9
330
1D9
100
AcDbEntity
  8
0
100
AcDbLine
 10
820.4153160558107
 20
627.8064995622687
 30
0.0
 11
821.4153160558106
 21
626.8064995622687
 31
0.0
  0
ARC
  5
45FA
330
1D9
100
AcDbEntity
  8
0
100
AcDbCircle
 10
837.415316055811
 20
585.3184382604872
 30
0.0
 40
2.0
100
AcDbArc
 50
0.0
 51
73.30075576600823
  0
LINE
  5
45FB
330
1D9
100
AcDbEntity
  8
0
100
AcDbLine
 10
834.4153160558111
 20
588.306499562269
 30
0.0
 11
837.9900118269437
 21
587.2340908309293
 31
0.0
  0
LINE
  5
45FC
330
1D9
100
AcDbEntity
  8
0
100
AcDbLine
 10
821.4153160558106
 20
588.306499562269
 30
0.0
 11
834.4153160558116
 21
588.306499562269
 31
0.0
  0
LINE
  5
45FD
330
1D9
100
AcDbEntity
  8
0
100
AcDbLine
 10
221.2953160558106
 20
571.306499562269
 30
0.0
 11
757.4153160558137
 21
571.306499562269
 31
0.0
  0
TEXT
  5
49DD
330
1D9
100
AcDbEntity
  8
0
100
AcDbText
 10
393.5771864431247
 20
86.03903753651641
 30
0.0
 40
15.0
  1
クラフレックス：KW-300K
100
AcDbText
  0
TEXT
  5
4D86
330
1D9
100
AcDbEntity
  8
0
100
AcDbText
 10
360.9554236064777
 20
843.0071859779321
 30
0.0
 40
15.0
  1
クラフレックス：KW-250K
100
AcDbText
  0
LINE
  5
52F8
330
1D9
100
AcDbEntity
  8
0
100
AcDbLine
 10
40.0
 20
1404.0
 30
0.0
 11
939.9999999999996
 21
1404.0
 31
0.0
  0
LINE
  5
52FA
330
1D9
100
AcDbEntity
  8
0
100
AcDbLine
 10
40.0
 20
1404.0
 30
0.0
 11
40.0
 21
-0.0000000000000044
 31
0.0
  0
LINE
  5
53C9
330
1D9
100
AcDbEntity
  8
0
100
AcDbLine
 10
940.0000000000003
 20
1404.0
 30
0.0
 11
940.0000000000003
 21
-0.0000000000002265
 31
0.0
  0
LINE
  5
53D6
330
1D9
100
AcDbEntity
  8
0
100
AcDbLine
 10
40.0
 20
0.0
 30
0.0
 11
939.9999999999996
 21
0.0
 31
0.0
  0
LINE
  5
53D7
330
1D9
100
AcDbEntity
  8
0
100
AcDbLine
 10
40.0
 20
0.0
 30
0.0
 11
939.9999999999996
 21
0.0
 31
0.0
  0
LINE
  5
5405
330
1D9
100
AcDbEntity
  8
0
100
AcDbLine
 10
139.4153160558111
 20
551.2093965609343
 30
0.0
 11
139.4153160558111
 21
663.4491797767657
 31
0.0
  0
LINE
  5
5406
330
1D9
100
AcDbEntity
  8
0
100
AcDbLine
 10
839.4153160558111
 20
563.7056404108191
 30
0.0
 11
839.4153160558111
 21
663.4491797767657
 31
0.0
  0
LINE
  5
5407
330
1D9
100
AcDbEntity
  8
0
100
AcDbLine
 10
149.4153160558111
 20
654.4491797767657
 30
0.0
 11
829.415316055811
 21
654.4491797767657
 31
0.0
  0
INSERT
  5
5408
330
1D9
100
AcDbEntity
  8
0
100
AcDbBlockReference
  2
YAZ1
 10
139.4153160558111
 20
654.4491797767657
 30
0.0
 41
10.0
 42
10.0
 43
10.0
 50
180.0
  0
INSERT
  5
5409
330
1D9
100
AcDbEntity
  8
0
100
AcDbBlockReference
  2
YAZ1
 10
839.4153160558111
 20
654.4491797767657
 30
0.0
 41
10.0
 42
10.0
 43
10.0
  0
MTEXT
  5
540A
330
1D9
100
AcDbEntity
  8
0
100
AcDbMText
 10
489.4153160558111
 20
669.449179776766
 30
0.0
 40
15.0
 41
0.0
 46
0.0
 71
     5
 72
     5
  1
\A1;700
 73
     1
 44
1.0
1001
ACAD
1000
MTEXTBEGIN
1070
    73
1070
     1
1070
    44
1040
1.0
1070
    74
1070
     0
1000
MTEXTEND
1000
MTEXTBEGIN
1070
    73
1070
     1
1070
    44
1040
1.0
1070
    74
1070
     0
1000
MTEXTEND
1000
MTEXTBEGIN
1070
    73
1070
     1
1070
    44
1040
1.0
1070
    74
1070
     0
1000
MTEXTEND
  0
LINE
  5
540B
330
1D9
100
AcDbEntity
  8
0
100
AcDbLine
 10
139.4153160456766
 20
1230.923324826037
 30
0.0
 11
139.4153160456766
 21
1349.411233903422
 31
0.0
  0
LINE
  5
540C
330
1D9
100
AcDbEntity
  8
0
100
AcDbLine
 10
839.4153160659456
 20
1212.178955114598
 30
0.0
 11
839.4153160659456
 21
1349.411233903422
 31
0.0
  0
LINE
  5
540D
330
1D9
100
AcDbEntity
  8
0
100
AcDbLine
 10
149.4153160456766
 20
1340.411233903422
 30
0.0
 11
829.4153160659456
 21
1340.411233903422
 31
0.0
  0
INSERT
  5
540E
330
1D9
100
AcDbEntity
  8
0
100
AcDbBlockReference
  2
YAZ1
 10
139.4153160456766
 20
1340.411233903422
 30
0.0
 41
10.0
 42
10.0
 43
10.0
 50
180.0
  0
INSERT
  5
540F
330
1D9
100
AcDbEntity
  8
0
100
AcDbBlockReference
  2
YAZ1
 10
839.4153160659456
 20
1340.411233903422
 30
0.0
 41
10.0
 42
10.0
 43
10.0
  0
MTEXT
  5
5410
330
1D9
100
AcDbEntity
  8
0
100
AcDbMText
 10
489.4153160558111
 20
1355.411233903422
 30
0.0
 40
15.0
 41
0.0
 46
0.0
 71
     5
 72
     5
  1
\A1;700
 73
     1
 44
1.0
1001
ACAD
1000
MTEXTBEGIN
1070
    73
1070
     1
1070
    44
1040
1.0
1070
    74
1070
     0
1000
MTEXTEND
1000
MTEXTBEGIN
1070
    73
1070
     1
1070
    44
1040
1.0
1070
    74
1070
     0
1000
MTEXTEND
1000
MTEXTBEGIN
1070
    73
1070
     1
1070
    44
1040
1.0
1070
    74
1070
     0
1000
MTEXTEND
  0
ARC
  5
5411
330
1D9
100
AcDbEntity
  8
0
100
AcDbCircle
 10
472.5449714535566
 20
388.1883694055621
 30
0.0
 40
13.98543804692097
100
AcDbArc
 50
119.9999999999987
 51
125.735727627269
  0
ARC
  5
5412
330
1D9
100
AcDbEntity
  8
0
100
AcDbCircle
 10
462.2512020296659
 20
394.1065298947658
 30
0.0
 40
7.545436949928537
100
AcDbArc
 50
66.77579932696386
 51
76.00518752840304
  0
ARC
  5
5413
330
1D9
100
AcDbEntity
  8
0
100
AcDbCircle
 10
461.9861973415958
 20
405.561345676315
 30
0.0
 40
8.641249115439627
100
AcDbArc
 50
283.9948124715919
 51
293.2242006730362
  0
ARC
  5
5414
330
1D9
100
AcDbEntity
  8
0
100
AcDbCircle
 10
461.9861973415958
 20
405.561345676315
 30
0.0
 40
8.609249115439633
100
AcDbArc
 50
283.9948124715919
 51
293.2242006730362
  0
ARC
  5
5415
330
1D9
100
AcDbEntity
  8
0
100
AcDbCircle
 10
472.5449714535549
 20
410.4162203067818
 30
0.0
 40
13.9854380469173
100
AcDbArc
 50
233.2242006730338
 51
240.0000000000011
  0
ARC
  5
5416
330
1D9
100
AcDbEntity
  8
0
100
AcDbCircle
 10
472.5449714535549
 20
410.4162203067818
 30
0.0
 40
13.9214380469173
100
AcDbArc
 50
233.2242006730338
 51
240.0000000000011
  0
ARC
  5
5417
330
1D9
100
AcDbEntity
  8
0
100
AcDbCircle
 10
465.7047684526926
 20
396.2284482583397
 30
0.0
 40
3.396621761950718
100
AcDbArc
 50
136.0051875284059
 51
154.7026462088874
  0
ARC
  5
5418
330
1D9
100
AcDbEntity
  8
0
100
AcDbCircle
 10
463.2545267867323
 20
400.472391314605
 30
0.0
 40
3.396621761950326
100
AcDbArc
 50
265.2973537911059
 51
283.9948124715967
  0
ARC
  5
5419
330
1D9
100
AcDbEntity
  8
0
100
AcDbCircle
 10
463.0101798763242
 20
397.502022189262
 30
0.0
 40
0.4162194143775789
100
AcDbArc
 50
154.7026462088919
 51
209.9999999999961
  0
ARC
  5
541A
330
1D9
100
AcDbEntity
  8
0
100
AcDbCircle
 10
463.0101798763242
 20
397.5020221892617
 30
0.0
 40
0.4162194143775121
100
AcDbArc
 50
209.9999999999985
 51
265.297353791111
  0
ARC
  5
541B
330
1D9
100
AcDbEntity
  8
0
100
AcDbCircle
 10
463.0101798763242
 20
397.5020221892617
 30
0.0
 40
0.3842194143775154
100
AcDbArc
 50
209.9999999999985
 51
265.297353791111
  0
ARC
  5
541C
330
1D9
100
AcDbEntity
  8
0
100
AcDbCircle
 10
463.0101798763242
 20
397.502022189262
 30
0.0
 40
0.3842194143775822
100
AcDbArc
 50
154.7026462088919
 51
209.9999999999961
  0
ARC
  5
541D
330
1D9
100
AcDbEntity
  8
0
100
AcDbCircle
 10
468.6894372649526
 20
393.3467092789853
 30
0.0
 40
7.545436949930222
100
AcDbArc
 50
130.7431265331715
 51
136.0051875284059
  0
ARC
  5
541E
330
1D9
100
AcDbEntity
  8
0
100
AcDbCircle
 10
465.7047684526923
 20
402.3761414540073
 30
0.0
 40
3.396621761950548
100
AcDbArc
 50
205.2973537911011
 51
223.994812471594
  0
ARC
  5
541F
330
1D9
100
AcDbEntity
  8
0
100
AcDbCircle
 10
463.2545267867321
 20
398.1321983977422
 30
0.0
 40
3.396621761950528
100
AcDbArc
 50
76.00518752840304
 51
94.70264620888896
  0
ARC
  5
5420
330
1D9
100
AcDbEntity
  8
0
100
AcDbCircle
 10
463.0101798763242
 20
401.1025675230853
 30
0.0
 40
0.4162194143775659
100
AcDbArc
 50
94.70264620889953
 51
150.0000000000037
  0
ARC
  5
5421
330
1D9
100
AcDbEntity
  8
0
100
AcDbCircle
 10
463.0101798763242
 20
401.1025675230853
 30
0.0
 40
0.4162194143775428
100
AcDbArc
 50
149.9999999999898
 51
205.2973537910964
  0
ARC
  5
5422
330
1D9
100
AcDbEntity
  8
0
100
AcDbCircle
 10
463.0101798763242
 20
401.1025675230853
 30
0.0
 40
0.3842194143775462
100
AcDbArc
 50
149.9999999999898
 51
205.2973537910964
  0
ARC
  5
5423
330
1D9
100
AcDbEntity
  8
0
100
AcDbCircle
 10
463.0101798763242
 20
401.1025675230853
 30
0.0
 40
0.3842194143775692
100
AcDbArc
 50
94.70264620889953
 51
150.0000000000037
  0
ARC
  5
5424
330
1D9
100
AcDbEntity
  8
0
100
AcDbCircle
 10
468.689437264951
 20
405.2578804333602
 30
0.0
 40
7.545436949927797
100
AcDbArc
 50
223.994812471594
 51
233.2242006730409
  0
ARC
  5
5425
330
1D9
100
AcDbEntity
  8
0
100
AcDbCircle
 10
468.689437264951
 20
405.2578804333602
 30
0.0
 40
7.513436949927797
100
AcDbArc
 50
223.994812471594
 51
233.2242006730409
  0
ARC
  5
5426
330
1D9
100
AcDbEntity
  8
0
100
AcDbCircle
 10
468.5785852688528
 20
401.2060449955757
 30
0.0
 40
3.396621761950365
100
AcDbArc
 50
145.2973537911037
 51
163.9948124715903
  0
ARC
  5
5427
330
1D9
100
AcDbEntity
  8
0
100
AcDbCircle
 10
463.6781019369323
 20
401.2060449955757
 30
0.0
 40
3.396621761950695
100
AcDbArc
 50
16.00518752840475
 51
34.70264620888915
  0
ARC
  5
5428
330
1D9
100
AcDbEntity
  8
0
100
AcDbCircle
 10
469.2465073294615
 20
401.1025675230853
 30
0.0
 40
0.416219414377495
100
AcDbArc
 50
29.99999999999621
 51
85.29735379110595
  0
ARC
  5
5429
330
1D9
100
AcDbEntity
  8
0
100
AcDbCircle
 10
469.2465073294612
 20
401.1025675230853
 30
0.0
 40
0.4162194143775554
100
AcDbArc
 50
334.7026462088988
 51
30.00000000000316
  0
ARC
  5
542A
330
1D9
100
AcDbEntity
  8
0
100
AcDbCircle
 10
466.551918753093
 20
402.3761414540073
 30
0.0
 40
3.396621761950656
100
AcDbArc
 50
316.0051875284058
 51
334.7026462088919
  0
ARC
  5
542B
330
1D9
100
AcDbEntity
  8
0
100
AcDbCircle
 10
469.2465073294612
 20
401.1025675230853
 30
0.0
 40
0.3842194143775588
100
AcDbArc
 50
334.7026462088988
 51
30.00000000000316
  0
ARC
  5
542C
330
1D9
100
AcDbEntity
  8
0
100
AcDbCircle
 10
469.2465073294615
 20
397.502022189262
 30
0.0
 40
0.4162194143775246
100
AcDbArc
 50
329.9999999999968
 51
25.29735379110114
  0
ARC
  5
542D
330
1D9
100
AcDbEntity
  8
0
100
AcDbCircle
 10
466.5519187530933
 20
396.2284482583402
 30
0.0
 40
3.396621761950241
100
AcDbArc
 50
25.29735379110114
 51
43.99481247159406
  0
ARC
  5
542E
330
1D9
100
AcDbEntity
  8
0
100
AcDbCircle
 10
469.2465073294612
 20
397.502022189262
 30
0.0
 40
0.4162194143775606
100
AcDbArc
 50
274.7026462088888
 51
329.9999999999968
  0
ARC
  5
542F
330
1D9
100
AcDbEntity
  8
0
100
AcDbCircle
 10
469.2465073294615
 20
397.502022189262
 30
0.0
 40
0.3842194143775281
100
AcDbArc
 50
329.9999999999968
 51
25.29735379110114
  0
ARC
  5
5430
330
1D9
100
AcDbEntity
  8
0
100
AcDbCircle
 10
463.6781019369323
 20
397.3985447167713
 30
0.0
 40
3.396621761950582
100
AcDbArc
 50
325.2973537911108
 51
343.9948124715952
  0
ARC
  5
5431
330
1D9
100
AcDbEntity
  8
0
100
AcDbCircle
 10
468.5785852688531
 20
397.3985447167713
 30
0.0
 40
3.396621761950693
100
AcDbArc
 50
196.0051875284047
 51
214.7026462088891
  0
ARC
  5
5432
330
1D9
100
AcDbEntity
  8
0
100
AcDbCircle
 10
466.1283436028928
 20
395.7017495223502
 30
0.0
 40
0.4162194143775368
100
AcDbArc
 50
214.7026462088891
 51
269.9999999999949
  0
ARC
  5
5433
330
1D9
100
AcDbEntity
  8
0
100
AcDbCircle
 10
466.1283436028925
 20
395.7017495223502
 30
0.0
 40
0.4162194143775558
100
AcDbArc
 50
270.0
 51
325.2973537911066
  0
ARC
  5
5434
330
1D9
100
AcDbEntity
  8
0
100
AcDbCircle
 10
466.1283436028925
 20
395.7017495223502
 30
0.0
 40
0.3842194143775591
100
AcDbArc
 50
270.0
 51
325.2973537911066
  0
ARC
  5
5435
330
1D9
100
AcDbEntity
  8
0
100
AcDbCircle
 10
466.1283436028928
 20
395.7017495223502
 30
0.0
 40
0.3842194143775399
100
AcDbArc
 50
214.7026462088891
 51
269.9999999999949
  0
ARC
  5
5436
330
1D9
100
AcDbEntity
  8
0
100
AcDbCircle
 10
459.6901083676057
 20
400.0621154719524
 30
0.0
 40
7.545436949929984
100
AcDbArc
 50
6.775799326962013
 51
16.00518752840475
  0
ARC
  5
5437
330
1D9
100
AcDbEntity
  8
0
100
AcDbCircle
 10
459.6901083676057
 20
400.0621154719524
 30
0.0
 40
7.513436949929987
100
AcDbArc
 50
6.775799326962013
 51
16.00518752840475
  0
ARC
  5
5438
330
1D9
100
AcDbEntity
  8
0
100
AcDbCircle
 10
459.6901083676079
 20
398.5424742403943
 30
0.0
 40
7.545436949927792
100
AcDbArc
 50
343.9948124715952
 51
348.8521063160963
  0
ARC
  5
5439
330
1D9
100
AcDbEntity
  8
0
100
AcDbCircle
 10
459.6901083676079
 20
398.5424742403943
 30
0.0
 40
7.513436949927796
100
AcDbArc
 50
343.9948124715952
 51
348.9010980423809
  0
ARC
  5
543A
330
1D9
100
AcDbEntity
  8
0
100
AcDbCircle
 10
472.5449714535571
 20
410.4162203067856
 30
0.0
 40
13.92143804692149
100
AcDbArc
 50
244.5635176768621
 51
246.7757993269636
  0
ARC
  5
543B
330
1D9
100
AcDbEntity
  8
0
100
AcDbCircle
 10
472.5449714535571
 20
410.4162203067856
 30
0.0
 40
13.98543804692149
100
AcDbArc
 50
244.4867715734698
 51
246.7757993269636
  0
ARC
  5
543C
330
1D9
100
AcDbEntity
  8
0
100
AcDbCircle
 10
459.7117157522298
 20
410.4162203067832
 30
0.0
 40
13.98543804691865
100
AcDbArc
 50
299.9999999999987
 51
306.7757993269661
  0
ARC
  5
543D
330
1D9
100
AcDbEntity
  8
0
100
AcDbCircle
 10
459.7117157522298
 20
410.4162203067832
 30
0.0
 40
13.92143804691865
100
AcDbArc
 50
299.9999999999987
 51
306.7757993269661
  0
ARC
  5
543E
330
1D9
100
AcDbEntity
  8
0
100
AcDbCircle
 10
478.9615993042183
 20
399.3022948561733
 30
0.0
 40
13.98543804691868
100
AcDbArc
 50
180.0
 51
180.8005246427199
  0
POLYLINE
  5
543F
330
1D9
100
AcDbEntity
  8
0
100
AcDb2dPolyline
 66
     1
 10
0.0
 20
0.0
 30
0.0
 70
     1
 40
0.4490639999999507
 41
0.4490639999999507
  0
VERTEX
  5
550D
330
543F
100
AcDbEntity
  8
0
100
AcDbVertex
100
AcDb2dVertex
 10
465.8396596028928
 20
399.3022948561737
 30
0.0
 42
1.0
  0
VERTEX
  5
550E
330
543F
100
AcDbEntity
  8
0
100
AcDbVertex
100
AcDb2dVertex
 10
466.4170276028928
 20
399.3022948561737
 30
0.0
 42
1.0
  0
SEQEND
  5
550F
330
543F
100
AcDbEntity
  8
0
  0
ARC
  5
5440
330
1D9
100
AcDbEntity
  8
0
100
AcDbCircle
 10
472.5449714535571
 20
410.4162203067856
 30
0.0
 40
13.98543804692149
100
AcDbArc
 50
239.9999999999966
 51
240.6896992310672
  0
ARC
  5
5441
330
1D9
100
AcDbEntity
  8
0
100
AcDbCircle
 10
472.5449714535571
 20
410.4162203067856
 30
0.0
 40
13.92143804692149
100
AcDbArc
 50
239.9999999999966
 51
240.921340916667
  0
ARC
  5
5442
330
1D9
100
AcDbEntity
  8
0
100
AcDbCircle
 10
461.5407495228656
 20
406.5994421229191
 30
0.0
 40
9.770880910168994
100
AcDbArc
 50
293.2242006730362
 51
301.9026055044727
  0
ARC
  5
5443
330
1D9
100
AcDbEntity
  8
0
100
AcDbCircle
 10
461.5407495228656
 20
406.5994421229191
 30
0.0
 40
9.706880910168999
100
AcDbArc
 50
293.2242006730362
 51
301.9026055044727
  0
ARC
  5
5444
330
1D9
100
AcDbEntity
  8
0
100
AcDbCircle
 10
472.5665788381786
 20
398.5424742403946
 30
0.0
 40
7.545436949928753
100
AcDbArc
 50
190.6994093466281
 51
196.0051875284047
  0
ARC
  5
5445
330
1D9
100
AcDbEntity
  8
0
100
AcDbCircle
 10
478.9615993042183
 20
399.3022948561733
 30
0.0
 40
13.98543804691868
100
AcDbArc
 50
184.099255976006
 51
186.0535392856807
  0
ARC
  5
5446
330
1D9
100
AcDbEntity
  8
0
100
AcDbCircle
 10
472.5449714535549
 20
388.1883694055653
 30
0.0
 40
13.98543804691724
100
AcDbArc
 50
114.3148105519393
 51
119.9999999999987
  0
ARC
  5
5447
330
1D9
100
AcDbEntity
  8
0
100
AcDbCircle
 10
459.7117157522298
 20
388.1883694055637
 30
0.0
 40
13.98543804691913
100
AcDbArc
 50
60.00000000000124
 51
66.77579932696386
  0
ARC
  5
5448
330
1D9
100
AcDbEntity
  8
0
100
AcDbCircle
 10
473.6199137473612
 20
399.7599733345769
 30
0.0
 40
8.641249115439293
100
AcDbArc
 50
163.994812471595
 51
173.2242006730329
  0
ARC
  5
5449
330
1D9
100
AcDbEntity
  8
0
100
AcDbCircle
 10
474.7416555510644
 20
399.6266942383556
 30
0.0
 40
9.770880910169195
100
AcDbArc
 50
173.2242006730379
 51
181.9026055044768
  0
ARC
  5
544A
330
1D9
100
AcDbEntity
  8
0
100
AcDbCircle
 10
462.1026257347485
 20
391.6807482072463
 30
0.0
 40
9.770880910169086
100
AcDbArc
 50
61.16456129043758
 51
61.9026055044744
  0
ARC
  5
544B
330
1D9
100
AcDbEntity
  8
0
100
AcDbCircle
 10
453.2950879015685
 20
399.3022948561737
 30
0.0
 40
13.92143804691723
100
AcDbArc
 50
358.9261000392336
 51
0.0
  0
ARC
  5
544C
330
1D9
100
AcDbEntity
  8
0
100
AcDbCircle
 10
453.2950879015685
 20
399.3022948561737
 30
0.0
 40
13.98543804691723
100
AcDbArc
 50
359.1170580287171
 51
0.0
  0
ARC
  5
544D
330
1D9
100
AcDbEntity
  8
0
100
AcDbCircle
 10
469.0021604190532
 20
400.4723913146055
 30
0.0
 40
3.396621761950798
100
AcDbArc
 50
256.0051875284031
 51
274.7026462088888
  0
ARC
  5
544E
330
1D9
100
AcDbEntity
  8
0
100
AcDbCircle
 10
453.2950879015685
 20
399.3022948561737
 30
0.0
 40
13.98543804691723
100
AcDbArc
 50
354.3048887523564
 51
355.8564434980616
  0
ARC
  5
544F
330
1D9
100
AcDbEntity
  8
0
100
AcDbCircle
 10
453.2950879015685
 20
399.3022948561737
 30
0.0
 40
13.92143804691723
100
AcDbArc
 50
354.4383604175644
 51
355.7143093420596
  0
ARC
  5
5450
330
1D9
100
AcDbEntity
  8
0
100
AcDbCircle
 10
470.0054851761199
 20
404.4980598175826
 30
0.0
 40
7.545436949929697
100
AcDbArc
 50
246.7757993269636
 51
256.0051875284031
  0
ARC
  5
5451
330
1D9
100
AcDbEntity
  8
0
100
AcDbCircle
 10
470.0054851761199
 20
404.4980598175826
 30
0.0
 40
7.513436949929697
100
AcDbArc
 50
246.7757993269636
 51
256.0051875284031
  0
ARC
  5
5452
330
1D9
100
AcDbEntity
  8
0
100
AcDbCircle
 10
469.2465073294612
 20
397.502022189262
 30
0.0
 40
0.3842194143775639
100
AcDbArc
 50
274.7026462088888
 51
329.9999999999968
  0
ARC
  5
5453
330
1D9
100
AcDbEntity
  8
0
100
AcDbCircle
 10
462.7789197197211
 20
392.585565557629
 30
0.0
 40
8.641249115439597
100
AcDbArc
 50
43.99481247159406
 51
48.98569561469733
  0
ARC
  5
5454
330
1D9
100
AcDbEntity
  8
0
100
AcDbCircle
 10
469.0021604190532
 20
398.1321983977417
 30
0.0
 40
3.396621761950743
100
AcDbArc
 50
85.29735379110595
 51
103.9948124715919
  0
ARC
  5
5455
330
1D9
100
AcDbEntity
  8
0
100
AcDbCircle
 10
463.5672499408339
 20
405.2578804333609
 30
0.0
 40
7.545436949928839
100
AcDbArc
 50
306.7757993269589
 51
316.0051875284058
  0
ARC
  5
5456
330
1D9
100
AcDbEntity
  8
0
100
AcDbCircle
 10
463.5672499408339
 20
405.2578804333609
 30
0.0
 40
7.513436949928842
100
AcDbArc
 50
306.7757993269589
 51
316.0051875284058
  0
ARC
  5
5457
330
1D9
100
AcDbEntity
  8
0
100
AcDbCircle
 10
470.0054851761191
 20
394.1065298947667
 30
0.0
 40
7.545436949927692
100
AcDbArc
 50
103.9948124715967
 51
109.8781563158165
  0
ARC
  5
5458
330
1D9
100
AcDbEntity
  8
0
100
AcDbCircle
 10
462.1026257347485
 20
391.6807482072463
 30
0.0
 40
9.770880910169086
100
AcDbArc
 50
53.70491482373778
 51
56.20799840481138
  0
ARC
  5
5459
330
1D9
100
AcDbEntity
  8
0
100
AcDbCircle
 10
453.2950879015646
 20
399.3022948561733
 30
0.0
 40
13.98543804692119
100
AcDbArc
 50
0.0
 51
6.775799326967065
  0
ARC
  5
545A
330
1D9
100
AcDbEntity
  8
0
100
AcDbCircle
 10
453.2950879015646
 20
399.3022948561733
 30
0.0
 40
13.92143804692119
100
AcDbArc
 50
0.0
 51
6.775799326967065
  0
ARC
  5
545B
330
1D9
100
AcDbEntity
  8
0
100
AcDbCircle
 10
469.2465073294615
 20
401.1025675230853
 30
0.0
 40
0.3842194143774984
100
AcDbArc
 50
29.99999999999621
 51
85.29735379110595
  0
ARC
  5
545C
330
1D9
100
AcDbEntity
  8
0
100
AcDbCircle
 10
466.1283436028928
 20
402.9028401899971
 30
0.0
 40
0.4162194143775542
100
AcDbArc
 50
34.70264620889334
 51
90.0
  0
ARC
  5
545D
330
1D9
100
AcDbEntity
  8
0
100
AcDbCircle
 10
466.1283436028928
 20
402.9028401899971
 30
0.0
 40
0.3842194143775577
100
AcDbArc
 50
34.70264620889334
 51
90.0
  0
ARC
  5
545E
330
1D9
100
AcDbEntity
  8
0
100
AcDbCircle
 10
466.1283436028928
 20
402.9028401899971
 30
0.0
 40
0.416219414377451
100
AcDbArc
 50
90.0
 51
145.2973537911108
  0
ARC
  5
545F
330
1D9
100
AcDbEntity
  8
0
100
AcDbCircle
 10
466.1283436028928
 20
402.9028401899971
 30
0.0
 40
0.3842194143774545
100
AcDbArc
 50
90.0
 51
145.2973537911108
  0
ARC
  5
5460
330
1D9
100
AcDbEntity
  8
0
100
AcDbCircle
 10
475.4227234600598
 20
1074.159141116004
 30
0.0
 40
13.98543804692097
100
AcDbArc
 50
120.0000000000013
 51
125.7357276272629
  0
ARC
  5
5461
330
1D9
100
AcDbEntity
  8
0
100
AcDbCircle
 10
465.1289540361692
 20
1080.07730160521
 30
0.0
 40
7.545436949928537
100
AcDbArc
 50
66.77579932696183
 51
76.00518752840304
  0
ARC
  5
5462
330
1D9
100
AcDbEntity
  8
0
100
AcDbCircle
 10
464.8639493480992
 20
1091.532117386758
 30
0.0
 40
8.641249115439627
100
AcDbArc
 50
283.9948124715919
 51
293.2242006730381
  0
ARC
  5
5463
330
1D9
100
AcDbEntity
  8
0
100
AcDbCircle
 10
464.8639493480992
 20
1091.532117386758
 30
0.0
 40
8.609249115439633
100
AcDbArc
 50
283.9948124715919
 51
293.2242006730381
  0
ARC
  5
5464
330
1D9
100
AcDbEntity
  8
0
100
AcDbCircle
 10
475.4227234600581
 20
1096.386992017226
 30
0.0
 40
13.9854380469173
100
AcDbArc
 50
233.2242006730308
 51
239.9999999999987
  0
ARC
  5
5465
330
1D9
100
AcDbEntity
  8
0
100
AcDbCircle
 10
475.4227234600581
 20
1096.386992017226
 30
0.0
 40
13.9214380469173
100
AcDbArc
 50
233.2242006730308
 51
239.9999999999987
  0
ARC
  5
5466
330
1D9
100
AcDbEntity
  8
0
100
AcDbCircle
 10
468.5825204591957
 20
1082.199219968784
 30
0.0
 40
3.396621761950718
100
AcDbArc
 50
136.0051875284021
 51
154.7026462088828
  0
ARC
  5
5467
330
1D9
100
AcDbEntity
  8
0
100
AcDbCircle
 10
466.1322787932355
 20
1086.443163025049
 30
0.0
 40
3.396621761950326
100
AcDbArc
 50
265.2973537911055
 51
283.9948124715967
  0
ARC
  5
5468
330
1D9
100
AcDbEntity
  8
0
100
AcDbCircle
 10
465.8879318828275
 20
1083.472793899706
 30
0.0
 40
0.4162194143775789
100
AcDbArc
 50
154.7026462088828
 51
209.9999999999961
  0
ARC
  5
5469
330
1D9
100
AcDbEntity
  8
0
100
AcDbCircle
 10
465.8879318828271
 20
1083.472793899706
 30
0.0
 40
0.4162194143775121
100
AcDbArc
 50
209.9999999999985
 51
265.2973537911106
  0
ARC
  5
546A
330
1D9
100
AcDbEntity
  8
0
100
AcDbCircle
 10
465.8879318828271
 20
1083.472793899706
 30
0.0
 40
0.3842194143775154
100
AcDbArc
 50
209.9999999999985
 51
265.2973537911106
  0
ARC
  5
546B
330
1D9
100
AcDbEntity
  8
0
100
AcDbCircle
 10
465.8879318828275
 20
1083.472793899706
 30
0.0
 40
0.3842194143775822
100
AcDbArc
 50
154.7026462088828
 51
209.9999999999961
  0
ARC
  5
546C
330
1D9
100
AcDbEntity
  8
0
100
AcDbCircle
 10
471.5671892714561
 20
1079.317480989429
 30
0.0
 40
7.545436949930222
100
AcDbArc
 50
130.7431265331748
 51
136.0051875284021
  0
ARC
  5
546D
330
1D9
100
AcDbEntity
  8
0
100
AcDbCircle
 10
468.5825204591957
 20
1088.34691316445
 30
0.0
 40
3.396621761950548
100
AcDbArc
 50
205.2973537910964
 51
223.9948124715975
  0
ARC
  5
546E
330
1D9
100
AcDbEntity
  8
0
100
AcDbCircle
 10
466.1322787932355
 20
1084.102970108186
 30
0.0
 40
3.396621761950528
100
AcDbArc
 50
76.00518752840304
 51
94.70264620888938
  0
ARC
  5
546F
330
1D9
100
AcDbEntity
  8
0
100
AcDbCircle
 10
465.8879318828276
 20
1087.073339233529
 30
0.0
 40
0.4162194143775659
100
AcDbArc
 50
94.70264620889953
 51
150.0000000000037
  0
ARC
  5
5470
330
1D9
100
AcDbEntity
  8
0
100
AcDbCircle
 10
465.8879318828275
 20
1087.073339233529
 30
0.0
 40
0.4162194143775428
100
AcDbArc
 50
149.999999999981
 51
205.2973537910964
  0
ARC
  5
5471
330
1D9
100
AcDbEntity
  8
0
100
AcDbCircle
 10
465.8879318828275
 20
1087.073339233529
 30
0.0
 40
0.3842194143775462
100
AcDbArc
 50
149.999999999981
 51
205.2973537910964
  0
ARC
  5
5472
330
1D9
100
AcDbEntity
  8
0
100
AcDbCircle
 10
465.8879318828276
 20
1087.073339233529
 30
0.0
 40
0.3842194143775692
100
AcDbArc
 50
94.70264620889953
 51
150.0000000000037
  0
ARC
  5
5473
330
1D9
100
AcDbEntity
  8
0
100
AcDbCircle
 10
471.5671892714543
 20
1091.228652143804
 30
0.0
 40
7.545436949927797
100
AcDbArc
 50
223.9948124715975
 51
233.2242006730471
  0
ARC
  5
5474
330
1D9
100
AcDbEntity
  8
0
100
AcDbCircle
 10
471.5671892714543
 20
1091.228652143804
 30
0.0
 40
7.513436949927797
100
AcDbArc
 50
223.9948124715975
 51
233.2242006730471
  0
ARC
  5
5475
330
1D9
100
AcDbEntity
  8
0
100
AcDbCircle
 10
471.4563372753562
 20
1087.17681670602
 30
0.0
 40
3.396621761950365
100
AcDbArc
 50
145.2973537910994
 51
163.9948124715999
  0
ARC
  5
5476
330
1D9
100
AcDbEntity
  8
0
100
AcDbCircle
 10
466.5558539434355
 20
1087.17681670602
 30
0.0
 40
3.396621761950695
100
AcDbArc
 50
16.00518752839986
 51
34.70264620889752
  0
ARC
  5
5477
330
1D9
100
AcDbEntity
  8
0
100
AcDbCircle
 10
472.1242593359648
 20
1087.073339233529
 30
0.0
 40
0.416219414377495
100
AcDbArc
 50
29.99999999999621
 51
85.29735379110553
  0
ARC
  5
5478
330
1D9
100
AcDbEntity
  8
0
100
AcDbCircle
 10
472.1242593359646
 20
1087.073339233529
 30
0.0
 40
0.4162194143775554
100
AcDbArc
 50
334.7026462089033
 51
29.99999999999876
  0
ARC
  5
5479
330
1D9
100
AcDbEntity
  8
0
100
AcDbCircle
 10
469.4296707595963
 20
1088.34691316445
 30
0.0
 40
3.396621761950656
100
AcDbArc
 50
316.0051875284021
 51
334.7026462088828
  0
ARC
  5
547A
330
1D9
100
AcDbEntity
  8
0
100
AcDbCircle
 10
472.1242593359646
 20
1087.073339233529
 30
0.0
 40
0.3842194143775588
100
AcDbArc
 50
334.7026462089033
 51
29.99999999999876
  0
ARC
  5
547B
330
1D9
100
AcDbEntity
  8
0
100
AcDbCircle
 10
472.1242593359648
 20
1083.472793899706
 30
0.0
 40
0.4162194143775246
100
AcDbArc
 50
330.000000000001
 51
25.29735379109654
  0
ARC
  5
547C
330
1D9
100
AcDbEntity
  8
0
100
AcDbCircle
 10
469.4296707595968
 20
1082.199219968784
 30
0.0
 40
3.396621761950241
100
AcDbArc
 50
25.29735379109654
 51
43.99481247159772
  0
ARC
  5
547D
330
1D9
100
AcDbEntity
  8
0
100
AcDbCircle
 10
472.1242593359646
 20
1083.472793899706
 30
0.0
 40
0.4162194143775606
100
AcDbArc
 50
274.7026462088894
 51
330.000000000001
  0
ARC
  5
547E
330
1D9
100
AcDbEntity
  8
0
100
AcDbCircle
 10
472.1242593359648
 20
1083.472793899706
 30
0.0
 40
0.3842194143775281
100
AcDbArc
 50
330.000000000001
 51
25.29735379109654
  0
ARC
  5
547F
330
1D9
100
AcDbEntity
  8
0
100
AcDbCircle
 10
466.5558539434358
 20
1083.369316427216
 30
0.0
 40
3.396621761950582
100
AcDbArc
 50
325.2973537911023
 51
343.9948124716
  0
ARC
  5
5480
330
1D9
100
AcDbEntity
  8
0
100
AcDbCircle
 10
471.4563372753565
 20
1083.369316427216
 30
0.0
 40
3.396621761950693
100
AcDbArc
 50
196.0051875283998
 51
214.7026462088974
  0
ARC
  5
5481
330
1D9
100
AcDbEntity
  8
0
100
AcDbCircle
 10
469.0060956093961
 20
1081.672521232794
 30
0.0
 40
0.4162194143775368
100
AcDbArc
 50
214.7026462088974
 51
269.9999999999949
  0
ARC
  5
5482
330
1D9
100
AcDbEntity
  8
0
100
AcDbCircle
 10
469.0060956093961
 20
1081.672521232794
 30
0.0
 40
0.4162194143775558
100
AcDbArc
 50
270.0
 51
325.2973537911023
  0
ARC
  5
5483
330
1D9
100
AcDbEntity
  8
0
100
AcDbCircle
 10
469.0060956093961
 20
1081.672521232794
 30
0.0
 40
0.3842194143775591
100
AcDbArc
 50
270.0
 51
325.2973537911023
  0
ARC
  5
5484
330
1D9
100
AcDbEntity
  8
0
100
AcDbCircle
 10
469.0060956093961
 20
1081.672521232794
 30
0.0
 40
0.3842194143775399
100
AcDbArc
 50
214.7026462088974
 51
269.9999999999949
  0
ARC
  5
5485
330
1D9
100
AcDbEntity
  8
0
100
AcDbCircle
 10
462.5678603741091
 20
1086.032887182394
 30
0.0
 40
7.545436949929984
100
AcDbArc
 50
6.775799326967065
 51
16.00518752839986
  0
ARC
  5
5486
330
1D9
100
AcDbEntity
  8
0
100
AcDbCircle
 10
462.5678603741091
 20
1086.032887182394
 30
0.0
 40
7.513436949929987
100
AcDbArc
 50
6.775799326967065
 51
16.00518752839986
  0
ARC
  5
5487
330
1D9
100
AcDbEntity
  8
0
100
AcDbCircle
 10
462.5678603741111
 20
1084.513245950837
 30
0.0
 40
7.545436949927792
100
AcDbArc
 50
343.9948124716
 51
348.8521063161011
  0
ARC
  5
5488
330
1D9
100
AcDbEntity
  8
0
100
AcDbCircle
 10
462.5678603741111
 20
1084.513245950837
 30
0.0
 40
7.513436949927796
100
AcDbArc
 50
343.9948124716
 51
348.9010980423758
  0
ARC
  5
5489
330
1D9
100
AcDbEntity
  8
0
100
AcDbCircle
 10
475.4227234600604
 20
1096.386992017228
 30
0.0
 40
13.92143804692149
100
AcDbArc
 50
244.5635176768621
 51
246.7757993269618
  0
ARC
  5
548A
330
1D9
100
AcDbEntity
  8
0
100
AcDbCircle
 10
475.4227234600604
 20
1096.386992017228
 30
0.0
 40
13.98543804692149
100
AcDbArc
 50
244.4867715734674
 51
246.7757993269618
  0
ARC
  5
548B
330
1D9
100
AcDbEntity
  8
0
100
AcDbCircle
 10
462.5894677587332
 20
1096.386992017227
 30
0.0
 40
13.98543804691865
100
AcDbArc
 50
300.0000000000013
 51
306.7757993269688
  0
ARC
  5
548C
330
1D9
100
AcDbEntity
  8
0
100
AcDbCircle
 10
462.5894677587332
 20
1096.386992017227
 30
0.0
 40
13.92143804691865
100
AcDbArc
 50
300.0000000000013
 51
306.7757993269688
  0
ARC
  5
548D
330
1D9
100
AcDbEntity
  8
0
100
AcDbCircle
 10
481.8393513107218
 20
1085.273066566617
 30
0.0
 40
13.98543804691868
100
AcDbArc
 50
180.0
 51
180.8005246427249
  0
POLYLINE
  5
548E
330
1D9
100
AcDbEntity
  8
0
100
AcDb2dPolyline
 66
     1
 10
0.0
 20
0.0
 30
0.0
 70
     1
 40
0.4490639999999507
 41
0.4490639999999507
  0
VERTEX
  5
5510
330
548E
100
AcDbEntity
  8
0
100
AcDbVertex
100
AcDb2dVertex
 10
468.7174116093962
 20
1085.273066566617
 30
0.0
 42
1.0
  0
VERTEX
  5
5511
330
548E
100
AcDbEntity
  8
0
100
AcDbVertex
100
AcDb2dVertex
 10
469.2947796093961
 20
1085.273066566617
 30
0.0
 42
1.0
  0
SEQEND
  5
5512
330
548E
100
AcDbEntity
  8
0
  0
ARC
  5
548F
330
1D9
100
AcDbEntity
  8
0
100
AcDbCircle
 10
475.4227234600604
 20
1096.386992017228
 30
0.0
 40
13.98543804692149
100
AcDbArc
 50
239.9999999999943
 51
240.6896992310698
  0
ARC
  5
5490
330
1D9
100
AcDbEntity
  8
0
100
AcDbCircle
 10
475.4227234600604
 20
1096.386992017228
 30
0.0
 40
13.92143804692149
100
AcDbArc
 50
239.9999999999943
 51
240.9213409166643
  0
ARC
  5
5491
330
1D9
100
AcDbEntity
  8
0
100
AcDbCircle
 10
464.418501529369
 20
1092.570213833363
 30
0.0
 40
9.770880910168994
100
AcDbArc
 50
293.2242006730381
 51
301.9026055044727
  0
ARC
  5
5492
330
1D9
100
AcDbEntity
  8
0
100
AcDbCircle
 10
464.418501529369
 20
1092.570213833363
 30
0.0
 40
9.706880910168999
100
AcDbArc
 50
293.2242006730381
 51
301.9026055044727
  0
ARC
  5
5493
330
1D9
100
AcDbEntity
  8
0
100
AcDbCircle
 10
475.444330844682
 20
1084.513245950837
 30
0.0
 40
7.545436949928753
100
AcDbArc
 50
190.6994093466181
 51
196.0051875283998
  0
ARC
  5
5494
330
1D9
100
AcDbEntity
  8
0
100
AcDbCircle
 10
481.8393513107218
 20
1085.273066566617
 30
0.0
 40
13.98543804691868
100
AcDbArc
 50
184.099255976006
 51
186.0535392856857
  0
ARC
  5
5495
330
1D9
100
AcDbEntity
  8
0
100
AcDbCircle
 10
475.4227234600581
 20
1074.159141116009
 30
0.0
 40
13.98543804691724
100
AcDbArc
 50
114.3148105519414
 51
120.0000000000013
  0
ARC
  5
5496
330
1D9
100
AcDbEntity
  8
0
100
AcDbCircle
 10
462.5894677587332
 20
1074.159141116008
 30
0.0
 40
13.98543804691913
100
AcDbArc
 50
59.9999999999987
 51
66.77579932696183
  0
ARC
  5
5497
330
1D9
100
AcDbEntity
  8
0
100
AcDbCircle
 10
476.4976657538645
 20
1085.730745045019
 30
0.0
 40
8.641249115439293
100
AcDbArc
 50
163.9948124715999
 51
173.2242006730329
  0
ARC
  5
5498
330
1D9
100
AcDbEntity
  8
0
100
AcDbCircle
 10
477.6194075575674
 20
1085.5974659488
 30
0.0
 40
9.770880910169195
100
AcDbArc
 50
173.2242006730329
 51
181.9026055044768
  0
ARC
  5
5499
330
1D9
100
AcDbEntity
  8
0
100
AcDbCircle
 10
464.9803777412516
 20
1077.651519917689
 30
0.0
 40
9.770880910169086
100
AcDbArc
 50
61.16456129043758
 51
61.90260550447682
  0
ARC
  5
549A
330
1D9
100
AcDbEntity
  8
0
100
AcDbCircle
 10
456.1728399080719
 20
1085.273066566618
 30
0.0
 40
13.92143804691723
100
AcDbArc
 50
358.9261000392285
 51
0.0
  0
ARC
  5
549B
330
1D9
100
AcDbEntity
  8
0
100
AcDbCircle
 10
456.1728399080719
 20
1085.273066566618
 30
0.0
 40
13.98543804691723
100
AcDbArc
 50
359.1170580287222
 51
0.0
  0
ARC
  5
549C
330
1D9
100
AcDbEntity
  8
0
100
AcDbCircle
 10
471.8799124255567
 20
1086.443163025049
 30
0.0
 40
3.396621761950798
100
AcDbArc
 50
256.0051875284031
 51
274.7026462088894
  0
ARC
  5
549D
330
1D9
100
AcDbEntity
  8
0
100
AcDbCircle
 10
456.1728399080719
 20
1085.273066566618
 30
0.0
 40
13.98543804691723
100
AcDbArc
 50
354.3048887523464
 51
355.8564434980715
  0
ARC
  5
549E
330
1D9
100
AcDbEntity
  8
0
100
AcDbCircle
 10
456.1728399080719
 20
1085.273066566618
 30
0.0
 40
13.92143804691723
100
AcDbArc
 50
354.4383604175743
 51
355.7143093420494
  0
ARC
  5
549F
330
1D9
100
AcDbEntity
  8
0
100
AcDbCircle
 10
472.8832371826231
 20
1090.468831528025
 30
0.0
 40
7.545436949929697
100
AcDbArc
 50
246.7757993269618
 51
256.0051875284031
  0
ARC
  5
54A0
330
1D9
100
AcDbEntity
  8
0
100
AcDbCircle
 10
472.8832371826231
 20
1090.468831528025
 30
0.0
 40
7.513436949929697
100
AcDbArc
 50
246.7757993269618
 51
256.0051875284031
  0
ARC
  5
54A1
330
1D9
100
AcDbEntity
  8
0
100
AcDbCircle
 10
472.1242593359646
 20
1083.472793899706
 30
0.0
 40
0.3842194143775639
100
AcDbArc
 50
274.7026462088894
 51
330.000000000001
  0
ARC
  5
54A2
330
1D9
100
AcDbEntity
  8
0
100
AcDbCircle
 10
465.6566717262244
 20
1078.556337268071
 30
0.0
 40
8.641249115439597
100
AcDbArc
 50
43.99481247159772
 51
48.98569561469733
  0
ARC
  5
54A3
330
1D9
100
AcDbEntity
  8
0
100
AcDbCircle
 10
471.8799124255567
 20
1084.102970108186
 30
0.0
 40
3.396621761950743
100
AcDbArc
 50
85.29735379110553
 51
103.9948124715919
  0
ARC
  5
54A4
330
1D9
100
AcDbEntity
  8
0
100
AcDbCircle
 10
466.445001947337
 20
1091.228652143805
 30
0.0
 40
7.545436949928839
100
AcDbArc
 50
306.7757993269649
 51
316.0051875284021
  0
ARC
  5
54A5
330
1D9
100
AcDbEntity
  8
0
100
AcDbCircle
 10
466.445001947337
 20
1091.228652143805
 30
0.0
 40
7.513436949928842
100
AcDbArc
 50
306.7757993269649
 51
316.0051875284021
  0
ARC
  5
54A6
330
1D9
100
AcDbEntity
  8
0
100
AcDbCircle
 10
472.8832371826228
 20
1080.07730160521
 30
0.0
 40
7.545436949927692
100
AcDbArc
 50
103.9948124715967
 51
109.8781563158182
  0
ARC
  5
54A7
330
1D9
100
AcDbEntity
  8
0
100
AcDbCircle
 10
464.9803777412516
 20
1077.651519917689
 30
0.0
 40
9.770880910169086
100
AcDbArc
 50
53.70491482373778
 51
56.20799840481138
  0
ARC
  5
54A8
330
1D9
100
AcDbEntity
  8
0
100
AcDbCircle
 10
456.1728399080677
 20
1085.273066566617
 30
0.0
 40
13.98543804692119
100
AcDbArc
 50
0.0
 51
6.775799326967065
  0
ARC
  5
54A9
330
1D9
100
AcDbEntity
  8
0
100
AcDbCircle
 10
456.1728399080677
 20
1085.273066566617
 30
0.0
 40
13.92143804692119
100
AcDbArc
 50
0.0
 51
6.775799326967065
  0
ARC
  5
54AA
330
1D9
100
AcDbEntity
  8
0
100
AcDbCircle
 10
472.1242593359648
 20
1087.073339233529
 30
0.0
 40
0.3842194143774984
100
AcDbArc
 50
29.99999999999621
 51
85.29735379110553
  0
ARC
  5
54AB
330
1D9
100
AcDbEntity
  8
0
100
AcDbCircle
 10
469.0060956093961
 20
1088.87361190044
 30
0.0
 40
0.4162194143775542
100
AcDbArc
 50
34.70264620889752
 51
90.0
  0
ARC
  5
54AC
330
1D9
100
AcDbEntity
  8
0
100
AcDbCircle
 10
469.0060956093961
 20
1088.87361190044
 30
0.0
 40
0.3842194143775577
100
AcDbArc
 50
34.70264620889752
 51
90.0
  0
ARC
  5
54AD
330
1D9
100
AcDbEntity
  8
0
100
AcDbCircle
 10
469.0060956093961
 20
1088.87361190044
 30
0.0
 40
0.416219414377451
100
AcDbArc
 50
90.0
 51
145.2973537911024
  0
ARC
  5
54AE
330
1D9
100
AcDbEntity
  8
0
100
AcDbCircle
 10
469.0060956093961
 20
1088.87361190044
 30
0.0
 40
0.3842194143774545
100
AcDbArc
 50
90.0
 51
145.2973537911024
  0
ENDSEC
  0
SECTION
  2
OBJECTS
  0
DICTIONARY
  5
1CD
330
0
100
AcDbDictionary
281
     1
  3
ACAD_CIP_PREVIOUS_PRODUCT_INFO
350
5569
  3
ACAD_COLOR
350
554C
  3
ACAD_DETAILVIEWSTYLE
350
5565
  3
ACAD_FIELDLIST
350
55D9
  3
ACAD_GROUP
350
1CE
  3
ACAD_LAYOUT
350
2DE
  3
ACAD_MATERIAL
350
551A
  3
ACAD_MLEADERSTYLE
350
5561
  3
ACAD_MLINESTYLE
350
1CF
  3
ACAD_PLOTSETTINGS
350
2DF
  3
ACAD_PLOTSTYLENAME
350
5518
  3
ACAD_SCALELIST
350
554F
  3
ACAD_SECTIONVIEWSTYLE
350
5563
  3
ACAD_TABLESTYLE
350
554D
  3
ACAD_VISUALSTYLE
350
5533
  3
ACDB_RECOMPOSE_DATA
350
55FD
  3
AcDbVariableDictionary
350
55F0
  3
AcmDictionary
350
5596
  3
AMG
350
556A
  3
AMGSNAPSETTINGS
350
55ED
  0
DICTIONARY
  5
55EE
330
1D0
100
AcDbDictionary
280
     1
281
     1
  3
ADSK_XREC_LAYER_RECONCILED
360
55EF
  0
DICTIONARY
  5
54B5
330
1D9
100
AcDbDictionary
281
     1
  3
ACAD_LAYOUTSELFREF
350
550C
  0
DICTIONARY
  5
54B3
330
1D6
100
AcDbDictionary
281
     1
  3
ACAD_LAYOUTSELFREF
350
550B
  0
XRECORD
  5
5569
102
{ACAD_REACTORS
330
1CD
102
}
330
1CD
100
AcDbXrecord
280
     1
300
AMECH_PP
300
2021
300
87400AMECH_PP_2021_0F
  0
DICTIONARY
  5
554C
102
{ACAD_REACTORS
330
1CD
102
}
330
1CD
100
AcDbDictionary
281
     1
  0
DICTIONARY
  5
5565
102
{ACAD_REACTORS
330
1CD
102
}
330
1CD
100
AcDbDictionary
281
     1
  3
Imperial24
350
5566
  0
FIELDLIST
  5
55D9
102
{ACAD_REACTORS
330
1CD
102
}
330
1CD
100
AcDbIdSet
 90
        8
330
55D7
330
55D8
330
55DA
330
55DB
330
55DF
330
55E0
330
55E1
330
55E2
100
AcDbFieldList
  0
DICTIONARY
  5
1CE
102
{ACAD_REACTORS
330
1CD
102
}
330
1CD
100
AcDbDictionary
281
     1
  0
DICTIONARY
  5
2DE
102
{ACAD_REACTORS
330
1CD
102
}
330
1CD
100
AcDbDictionary
281
     1
  3
Model
350
5567
  3
レイアウト1
350
5568
  0
DICTIONARY
  5
551A
102
{ACAD_REACTORS
330
1CD
102
}
330
1CD
100
AcDbDictionary
281
     1
  3
ByBlock
350
5523
  3
ByLayer
350
551B
  3
Global
350
552B
  0
DICTIONARY
  5
5561
102
{ACAD_REACTORS
330
1CD
102
}
330
1CD
100
AcDbDictionary
281
     1
  3
Standard
350
5562
  0
DICTIONARY
  5
1CF
102
{ACAD_REACTORS
330
1CD
102
}
330
1CD
100
AcDbDictionary
281
     1
  3
STANDARD
350
1DC
  0
DICTIONARY
  5
2DF
102
{ACAD_REACTORS
330
1CD
102
}
330
1CD
100
AcDbDictionary
281
     1
  0
ACDBDICTIONARYWDFLT
  5
5518
102
{ACAD_REACTORS
330
1CD
102
}
330
1CD
100
AcDbDictionary
281
     1
  3
Normal
350
5519
100
AcDbDictionaryWithDefault
340
5519
  0
DICTIONARY
  5
554F
102
{ACAD_REACTORS
330
1CD
102
}
330
1CD
100
AcDbDictionary
281
     1
  3
A0
350
5550
  3
A1
350
5551
  3
A2
350
5552
  3
A3
350
5553
  3
A4
350
5554
  3
A5
350
5555
  3
A6
350
5556
  3
A7
350
5557
  3
A8
350
5558
  3
A9
350
5559
  3
B0
350
555A
  3
B1
350
555B
  3
B2
350
555C
  3
B3
350
555D
  3
B4
350
555E
  3
B5
350
555F
  3
B6
350
5560
  0
DICTIONARY
  5
5563
102
{ACAD_REACTORS
330
1CD
102
}
330
1CD
100
AcDbDictionary
281
     1
  3
Imperial24
350
5564
  0
DICTIONARY
  5
554D
102
{ACAD_REACTORS
330
1CD
102
}
330
1CD
100
AcDbDictionary
281
     1
  3
Standard
350
554E
  0
DICTIONARY
  5
5533
102
{ACAD_REACTORS
330
1CD
102
}
330
1CD
100
AcDbDictionary
281
     1
  3
2dWireframe
350
5539
  3
Basic
350
5538
  3
Brighten
350
553F
  3
ColorChange
350
5543
  3
Conceptual
350
553C
  3
Dim
350
553E
  3
EdgeColorOff
350
554B
  3
Facepattern
350
5542
  3
Flat
350
5534
  3
FlatWithEdges
350
5535
  3
Gouraud
350
5536
  3
GouraudWithEdges
350
5537
  3
Hidden
350
553B
  3
JitterOff
350
5549
  3
Linepattern
350
5541
  3
OverhangOff
350
554A
  3
Realistic
350
553D
  3
Shaded
350
5548
  3
Shaded with edges
350
5547
  3
Shades of Gray
350
5544
  3
Sketchy
350
5545
  3
Thicken
350
5540
  3
Wireframe
350
553A
  3
X-Ray
350
5546
  0
XRECORD
  5
55FD
102
{ACAD_REACTORS
330
1CD
102
}
330
1CD
100
AcDbXrecord
280
     1
 90
        1
330
554E
  0
DICTIONARY
  5
55F0
102
{ACAD_REACTORS
330
1CD
102
}
330
1CD
100
AcDbDictionary
281
     1
  3
CANNOSCALE
350
55F6
  3
CMLEADERSTYLE
350
55F2
  3
CTABLESTYLE
350
55F1
  3
CVIEWDETAILSTYLE
350
55F3
  3
CVIEWSECTIONSTYLE
350
55F4
  3
LAYEREVAL
350
55F8
  3
LAYERNOTIFY
350
55F9
  3
LIGHTINGUNITS
350
55F7
  3
MSLTSCALE
350
55F5
  3
XCLIPFRAME
350
55FA
  0
DICTIONARY
  5
5596
102
{ACAD_REACTORS
330
1CD
102
}
330
1CD
100
AcDbDictionary
281
     1
  3
AcmStdDictionary
350
559D
  0
DICTIONARY
  5
556A
102
{ACAD_REACTORS
330
1CD
102
}
330
1CD
100
AcDbDictionary
281
     1
  0
DICTIONARY
  5
55ED
102
{ACAD_REACTORS
330
1CD
102
}
330
1CD
100
AcDbDictionary
281
     1
  0
XRECORD
  5
55EF
102
{ACAD_REACTORS
330
55EE
102
}
330
55EE
100
AcDbXrecord
280
     1
290
     1
  0
XRECORD
  5
550C
102
{ACAD_REACTORS
330
54B5
102
}
330
54B5
100
AcDbXrecord
280
     1
340
1D9
  0
XRECORD
  5
550B
102
{ACAD_REACTORS
330
54B3
102
}
330
54B3
100
AcDbXrecord
280
     1
340
1D6
  0
ACDBDETAILVIEWSTYLE
  5
5566
102
{ACAD_XDICTIONARY
360
5631
102
}
102
{ACAD_REACTORS
330
5565
330
55CA
102
}
330
5565
100
AcDbModelDocViewStyle
 70
     0
  3
Imperial24
290
     0
100
AcDbDetailViewStyle
 70
     0
 71
     0
 90
        3
 71
     1
340
1D1
 62
   256
 40
0.24
340
0
 62
   256
 40
0.24
300

 40
0.36
280
     3
 71
     2
340
1D5
 90
       25
 62
   256
 71
     3
340
1D1
 62
   256
 40
0.24
 90
        1
 40
0.75
 90
        1
300
%<\AcVar ViewType \f "%tc1">% %<\AcVar ViewDetailId>%\PSCALE %<\AcVar ViewScale \f "%sn">%
 71
     4
340
1D5
 90
       25
 62
   256
340
1D5
 90
       25
 62
   256
280
     0
  0
LAYOUT
  5
5567
102
{ACAD_REACTORS
330
2DE
102
}
330
2DE
100
AcDbPlotSettings
  1

  2
産機2F_DocuPrint 4050
  4

  6

 40
0.0
 41
0.0
 42
0.0
 43
0.0
 44
0.0
 45
0.0
 46
0.0
 47
0.0
 48
0.0
 49
0.0
140
0.0
141
0.0
142
1.0
143
1.0
 70
  1712
 72
     0
 73
     0
 74
     0
  7

 75
     0
147
1.0
 76
     0
 77
     2
 78
   300
148
0.0
149
0.0
100
AcDbLayout
  1
Model
 70
     1
 71
     0
 10
0.0
 20
0.0
 11
12.0
 21
9.0
 12
0.0
 22
0.0
 32
0.0
 14
0.0
 24
0.0
 34
0.0
 15
0.0
 25
0.0
 35
0.0
146
0.0
 13
0.0
 23
0.0
 33
0.0
 16
1.0
 26
0.0
 36
0.0
 17
0.0
 27
1.0
 37
0.0
 76
     0
330
1D9
331
550A
  0
LAYOUT
  5
5568
102
{ACAD_REACTORS
330
2DE
102
}
330
2DE
100
AcDbPlotSettings
  1

  2
産機2F_DocuPrint 4050
  4

  6

 40
0.0
 41
0.0
 42
0.0
 43
0.0
 44
0.0
 45
0.0
 46
0.0
 47
0.0
 48
0.0
 49
0.0
140
0.0
141
0.0
142
1.0
143
1.0
 70
   688
 72
     0
 73
     0
 74
     5
  7

 75
    16
147
1.0
 76
     0
 77
     2
 78
   300
148
0.0
149
0.0
100
AcDbLayout
  1
レイアウト1
 70
     0
 71
     1
 10
0.0
 20
0.0
 11
12.0
 21
9.0
 12
0.0
 22
0.0
 32
0.0
 14
1.000000000000000E+20
 24
1.000000000000000E+20
 34
1.000000000000000E+20
 15
-1.000000000000000E+20
 25
-1.000000000000000E+20
 35
-1.000000000000000E+20
146
0.0
 13
0.0
 23
0.0
 33
0.0
 16
1.0
 26
0.0
 36
0.0
 17
0.0
 27
1.0
 37
0.0
 76
     0
330
1D6
  0
MATERIAL
  5
5523
102
{ACAD_XDICTIONARY
360
5524
102
}
102
{ACAD_REACTORS
330
551A
102
}
330
551A
100
AcDbMaterial
  1
ByBlock
 72
     0
 43
0.0208333333333333
 43
0.0
 43
0.0
 43
0.0
 43
0.0
 43
0.0208333333333333
 43
0.0
 43
0.0
 43
0.0
 43
0.0
 43
1.0
 43
0.0
 43
0.0
 43
0.0
 43
0.0
 43
1.0
 77
     0
 47
0.0208333333333333
 47
0.0
 47
0.0
 47
0.0
 47
0.0
 47
0.0208333333333333
 47
0.0
 47
0.0
 47
0.0
 47
0.0
 47
1.0
 47
0.0
 47
0.0
 47
0.0
 47
0.0
 47
1.0
171
     0
 49
0.0208333333333333
 49
0.0
 49
0.0
 49
0.0
 49
0.0
 49
0.0208333333333333
 49
0.0
 49
0.0
 49
0.0
 49
0.0
 49
1.0
 49
0.0
 49
0.0
 49
0.0
 49
0.0
 49
1.0
175
     0
142
0.0208333333333333
142
0.0
142
0.0
142
0.0
142
0.0
142
0.0208333333333333
142
0.0
142
0.0
142
0.0
142
0.0
142
1.0
142
0.0
142
0.0
142
0.0
142
0.0
142
1.0
179
     0
144
0.0208333333333333
144
0.0
144
0.0
144
0.0
144
0.0
144
0.0208333333333333
144
0.0
144
0.0
144
0.0
144
0.0
144
1.0
144
0.0
144
0.0
144
0.0
144
0.0
144
1.0
147
0.0208333333333333
147
0.0
147
0.0
147
0.0
147
0.0
147
0.0208333333333333
147
0.0
147
0.0
147
0.0
147
0.0
147
1.0
147
0.0
147
0.0
147
0.0
147
0.0
147
1.0
  0
MATERIAL
  5
551B
102
{ACAD_XDICTIONARY
360
551C
102
}
102
{ACAD_REACTORS
330
551A
102
}
330
551A
100
AcDbMaterial
  1
ByLayer
 72
     0
 43
0.0208333333333333
 43
0.0
 43
0.0
 43
0.0
 43
0.0
 43
0.0208333333333333
 43
0.0
 43
0.0
 43
0.0
 43
0.0
 43
1.0
 43
0.0
 43
0.0
 43
0.0
 43
0.0
 43
1.0
 77
     0
 47
0.0208333333333333
 47
0.0
 47
0.0
 47
0.0
 47
0.0
 47
0.0208333333333333
 47
0.0
 47
0.0
 47
0.0
 47
0.0
 47
1.0
 47
0.0
 47
0.0
 47
0.0
 47
0.0
 47
1.0
171
     0
 49
0.0208333333333333
 49
0.0
 49
0.0
 49
0.0
 49
0.0
 49
0.0208333333333333
 49
0.0
 49
0.0
 49
0.0
 49
0.0
 49
1.0
 49
0.0
 49
0.0
 49
0.0
 49
0.0
 49
1.0
175
     0
142
0.0208333333333333
142
0.0
142
0.0
142
0.0
142
0.0
142
0.0208333333333333
142
0.0
142
0.0
142
0.0
142
0.0
142
1.0
142
0.0
142
0.0
142
0.0
142
0.0
142
1.0
179
     0
144
0.0208333333333333
144
0.0
144
0.0
144
0.0
144
0.0
144
0.0208333333333333
144
0.0
144
0.0
144
0.0
144
0.0
144
1.0
144
0.0
144
0.0
144
0.0
144
0.0
144
1.0
147
0.0208333333333333
147
0.0
147
0.0
147
0.0
147
0.0
147
0.0208333333333333
147
0.0
147
0.0
147
0.0
147
0.0
147
1.0
147
0.0
147
0.0
147
0.0
147
0.0
147
1.0
  0
MATERIAL
  5
552B
102
{ACAD_XDICTIONARY
360
552C
102
}
102
{ACAD_REACTORS
330
551A
102
}
330
551A
100
AcDbMaterial
  1
Global
 72
     0
 43
0.0208333333333333
 43
0.0
 43
0.0
 43
0.0
 43
0.0
 43
0.0208333333333333
 43
0.0
 43
0.0
 43
0.0
 43
0.0
 43
1.0
 43
0.0
 43
0.0
 43
0.0
 43
0.0
 43
1.0
 77
     0
 47
0.0208333333333333
 47
0.0
 47
0.0
 47
0.0
 47
0.0
 47
0.0208333333333333
 47
0.0
 47
0.0
 47
0.0
 47
0.0
 47
1.0
 47
0.0
 47
0.0
 47
0.0
 47
0.0
 47
1.0
171
     0
 49
0.0208333333333333
 49
0.0
 49
0.0
 49
0.0
 49
0.0
 49
0.0208333333333333
 49
0.0
 49
0.0
 49
0.0
 49
0.0
 49
1.0
 49
0.0
 49
0.0
 49
0.0
 49
0.0
 49
1.0
175
     0
142
0.0208333333333333
142
0.0
142
0.0
142
0.0
142
0.0
142
0.0208333333333333
142
0.0
142
0.0
142
0.0
142
0.0
142
1.0
142
0.0
142
0.0
142
0.0
142
0.0
142
1.0
179
     0
144
0.0208333333333333
144
0.0
144
0.0
144
0.0
144
0.0
144
0.0208333333333333
144
0.0
144
0.0
144
0.0
144
0.0
144
1.0
144
0.0
144
0.0
144
0.0
144
0.0
144
1.0
147
0.0208333333333333
147
0.0
147
0.0
147
0.0
147
0.0
147
0.0208333333333333
147
0.0
147
0.0
147
0.0
147
0.0
147
1.0
147
0.0
147
0.0
147
0.0
147
0.0
147
1.0
  0
MLEADERSTYLE
  5
5562
102
{ACAD_REACTORS
330
5561
102
}
330
5561
100
AcDbMLeaderStyle
170
     2
171
     1
172
     0
 90
        2
 40
0.0
 41
0.0
173
     1
 91
-1056964608
340
1D3
 92
       -2
290
     1
 42
0.09
291
     1
 43
0.36
  3
Standard
 44
0.18
300

342
1D1
174
     1
178
     6
175
     1
176
     0
 93
-1056964608
 45
0.18
292
     0
297
     0
 46
0.18
 94
-1056964608
 47
1.0
 49
1.0
140
1.0
293
     1
141
0.0
294
     1
177
     0
142
1.0
295
     0
296
     0
143
0.125
1001
ACAD_MLEADERVER
1070
     2
  0
MLINESTYLE
  5
1DC
102
{ACAD_REACTORS
330
1CF
102
}
330
1CF
100
AcDbMlineStyle
  2
STANDARD
 70
     0
  3

 62
     0
 51
90.0
 52
90.0
 71
     2
 49
0.5
 62
   256
  6
BYLAYER
 49
-0.5
 62
   256
  6
BYLAYER
  0
ACDBPLACEHOLDER
  5
5519
102
{ACAD_REACTORS
330
5518
102
}
330
5518
  0
SCALE
  5
5550
102
{ACAD_REACTORS
330
554F
102
}
330
554F
100
AcDbScale
 70
     0
300
1:1
140
1.0
141
1.0
290
     1
  0
SCALE
  5
5551
102
{ACAD_REACTORS
330
554F
102
}
330
554F
100
AcDbScale
 70
     0
300
1/128" = 1'-0"
140
0.0078125
141
12.0
290
     0
  0
SCALE
  5
5552
102
{ACAD_REACTORS
330
554F
102
}
330
554F
100
AcDbScale
 70
     0
300
1/64" = 1'-0"
140
0.015625
141
12.0
290
     0
  0
SCALE
  5
5553
102
{ACAD_REACTORS
330
554F
102
}
330
554F
100
AcDbScale
 70
     0
300
1/32" = 1'-0"
140
0.03125
141
12.0
290
     0
  0
SCALE
  5
5554
102
{ACAD_REACTORS
330
554F
102
}
330
554F
100
AcDbScale
 70
     0
300
1/16" = 1'-0"
140
0.0625
141
12.0
290
     0
  0
SCALE
  5
5555
102
{ACAD_REACTORS
330
554F
102
}
330
554F
100
AcDbScale
 70
     0
300
3/32" = 1'-0"
140
0.09375
141
12.0
290
     0
  0
SCALE
  5
5556
102
{ACAD_REACTORS
330
554F
102
}
330
554F
100
AcDbScale
 70
     0
300
1/8" = 1'-0"
140
0.125
141
12.0
290
     0
  0
SCALE
  5
5557
102
{ACAD_REACTORS
330
554F
102
}
330
554F
100
AcDbScale
 70
     0
300
3/16" = 1'-0"
140
0.1875
141
12.0
290
     0
  0
SCALE
  5
5558
102
{ACAD_REACTORS
330
554F
102
}
330
554F
100
AcDbScale
 70
     0
300
1/4" = 1'-0"
140
0.25
141
12.0
290
     0
  0
SCALE
  5
5559
102
{ACAD_REACTORS
330
554F
102
}
330
554F
100
AcDbScale
 70
     0
300
3/8" = 1'-0"
140
0.375
141
12.0
290
     0
  0
SCALE
  5
555A
102
{ACAD_REACTORS
330
554F
102
}
330
554F
100
AcDbScale
 70
     0
300
1/2" = 1'-0"
140
0.5
141
12.0
290
     0
  0
SCALE
  5
555B
102
{ACAD_REACTORS
330
554F
102
}
330
554F
100
AcDbScale
 70
     0
300
3/4" = 1'-0"
140
0.75
141
12.0
290
     0
  0
SCALE
  5
555C
102
{ACAD_REACTORS
330
554F
102
}
330
554F
100
AcDbScale
 70
     0
300
1" = 1'-0"
140
1.0
141
12.0
290
     0
  0
SCALE
  5
555D
102
{ACAD_REACTORS
330
554F
102
}
330
554F
100
AcDbScale
 70
     0
300
1-1/2" = 1'-0"
140
1.5
141
12.0
290
     0
  0
SCALE
  5
555E
102
{ACAD_REACTORS
330
554F
102
}
330
554F
100
AcDbScale
 70
     0
300
3" = 1'-0"
140
3.0
141
12.0
290
     0
  0
SCALE
  5
555F
102
{ACAD_REACTORS
330
554F
102
}
330
554F
100
AcDbScale
 70
     0
300
6" = 1'-0"
140
6.0
141
12.0
290
     0
  0
SCALE
  5
5560
102
{ACAD_REACTORS
330
554F
102
}
330
554F
100
AcDbScale
 70
     0
300
1'-0" = 1'-0"
140
12.0
141
12.0
290
     0
  0
ACDBSECTIONVIEWSTYLE
  5
5564
102
{ACAD_XDICTIONARY
360
562F
102
}
102
{ACAD_REACTORS
330
5563
330
55C9
102
}
330
5563
100
AcDbModelDocViewStyle
 70
     0
  3
Imperial24
290
     0
100
AcDbSectionViewStyle
 70
     0
 71
     0
 90
       78
 71
     1
340
1D1
 62
   256
 40
0.24
340
0
340
0
 62
   256
 40
0.24
300
I, O, Q, S, X, Z
 40
0.48
 90
        3
 40
0.18
 90
        1
 71
     2
340
1D5
 90
       25
 62
   256
340
1D5
 90
       50
 62
   256
 40
0.24
 40
0.0
 40
0.24
 71
     3
340
1D1
 62
   256
 40
0.24
 90
        1
 40
0.75
 90
        1
300
%<\AcVar ViewType \f "%tc1">% %<\AcVar ViewSectionStartId>%-%<\AcVar ViewSectionEndId>%\PSCALE %<\AcVar ViewScale \f "%sn">%
 71
     4
 62
   256
 62
   257
300
ANSI31
 40
1.0
 90
        0
290
     0
290
     0
 90
        6
 40
0.0
 40
1.570796326794896
 40
0.2617993877991494
 40
1.308996938995747
 40
-0.2617993877991494
 40
1.832595714594046
  0
TABLESTYLE
  5
554E
102
{ACAD_XDICTIONARY
360
55FB
102
}
102
{ACAD_REACTORS
330
554D
102
}
330
554D
100
AcDbTableStyle
  3
Standard
 70
     0
 71
     0
 40
0.06
 41
0.06
280
     0
281
     0
  7
STANDARD
140
0.18
170
     2
 62
     0
 63
     7
283
     0
 90
      512
 91
        0
  1

274
    -2
284
     1
 64
     0
275
    -2
285
     1
 65
     0
276
    -2
286
     1
 66
     0
277
    -2
287
     1
 67
     0
278
    -2
288
     1
 68
     0
279
    -2
289
     1
 69
     0
  7
STANDARD
140
0.25
170
     5
 62
     0
 63
     7
283
     0
 90
      512
 91
        0
  1

274
    -2
284
     1
 64
     0
275
    -2
285
     1
 65
     0
276
    -2
286
     1
 66
     0
277
    -2
287
     1
 67
     0
278
    -2
288
     1
 68
     0
279
    -2
289
     1
 69
     0
  7
STANDARD
140
0.18
170
     5
 62
     0
 63
     7
283
     0
 90
      512
 91
        0
  1

274
    -2
284
     1
 64
     0
275
    -2
285
     1
 65
     0
276
    -2
286
     1
 66
     0
277
    -2
287
     1
 67
     0
278
    -2
288
     1
 68
     0
279
    -2
289
     1
 69
     0
  0
VISUALSTYLE
  5
5539
102
{ACAD_XDICTIONARY
360
5608
102
}
102
{ACAD_REACTORS
330
5533
102
}
330
5533
100
AcDbVisualStyle
  2
2dWireframe
 70
     4
 71
     0
 72
     2
 73
     0
 90
        0
 40
-0.6
 41
-30.0
 62
     5
 63
     7
421
 16777215
 74
     1
 91
        4
 64
     7
 65
   257
 75
     1
175
     1
 42
1.0
 92
        0
 66
   257
 43
1.0
 76
     1
 77
     6
 78
     2
 67
     7
 79
     5
170
     0
171
     0
290
     0
174
     0
 93
        1
 44
0.0
173
     0
291
     0
 45
0.0
1001
ACAD
1000
AcDbSavedByObjectVersion
1070
     0
  0
VISUALSTYLE
  5
5538
102
{ACAD_XDICTIONARY
360
5606
102
}
102
{ACAD_REACTORS
330
5533
102
}
330
5533
100
AcDbVisualStyle
  2
Basic
 70
     7
 71
     1
 72
     0
 73
     1
 90
        0
 40
-0.6
 41
-30.0
 62
     5
 63
     7
421
 16777215
 74
     0
 91
        4
 64
     7
 65
   257
 75
     1
175
     1
 42
1.0
 92
        8
 66
     7
 43
1.0
 76
     1
 77
     6
 78
     2
 67
     7
 79
     5
170
     0
171
     0
290
     0
174
     0
 93
        1
 44
0.0
173
     0
291
     1
 45
0.0
1001
ACAD
1000
AcDbSavedByObjectVersion
1070
     0
  0
VISUALSTYLE
  5
553F
102
{ACAD_XDICTIONARY
360
5614
102
}
102
{ACAD_REACTORS
330
5533
102
}
330
5533
100
AcDbVisualStyle
  2
Brighten
 70
    12
 71
     2
 72
     2
 73
     0
 90
        0
 40
-0.6
 41
-30.0
 62
     5
 63
     7
421
 16777215
 74
     1
 91
        4
 64
     7
 65
   257
 75
     1
175
     1
 42
1.0
 92
        8
 66
     7
 43
1.0
 76
     1
 77
     6
 78
     2
 67
     7
 79
     5
170
     0
171
     0
290
     0
174
     0
 93
        1
 44
50.0
173
     0
291
     1
 45
0.0
1001
ACAD
1000
AcDbSavedByObjectVersion
1070
     0
  0
VISUALSTYLE
  5
5543
102
{ACAD_XDICTIONARY
360
561C
102
}
102
{ACAD_REACTORS
330
5533
102
}
330
5533
100
AcDbVisualStyle
  2
ColorChange
 70
    16
 71
     2
 72
     2
 73
     3
 90
        0
 40
-0.6
 41
-30.0
 62
     5
 63
     8
421
  8421504
 74
     1
 91
        4
 64
     7
 65
   257
 75
     1
175
     1
 42
1.0
 92
        8
 66
     8
424
  8421504
 43
1.0
 76
     1
 77
     6
 78
     2
 67
     7
 79
     5
170
     0
171
     0
290
     0
174
     0
 93
        1
 44
0.0
173
     0
291
     1
 45
0.0
1001
ACAD
1000
AcDbSavedByObjectVersion
1070
     0
  0
VISUALSTYLE
  5
553C
102
{ACAD_XDICTIONARY
360
560E
102
}
102
{ACAD_REACTORS
330
5533
102
}
330
5533
100
AcDbVisualStyle
  2
Conceptual
 70
     9
 71
     3
 72
     2
 73
     0
 90
        0
 40
-0.6
 41
-30.0
 62
     5
 63
     7
421
 16777215
 74
     2
 91
        2
 64
     7
 65
   257
 75
     1
175
     1
 42
179.0
 92
        8
 66
     7
 43
1.0
 76
     1
 77
     6
 78
     2
 67
     7
 79
     3
170
     0
171
     0
290
     0
174
     0
 93
        1
 44
0.0
173
     0
291
     0
 45
0.0
1001
ACAD
1000
AcDbSavedByObjectVersion
1070
     0
  0
VISUALSTYLE
  5
553E
102
{ACAD_XDICTIONARY
360
5612
102
}
102
{ACAD_REACTORS
330
5533
102
}
330
5533
100
AcDbVisualStyle
  2
Dim
 70
    11
 71
     2
 72
     2
 73
     0
 90
        0
 40
-0.6
 41
-30.0
 62
     5
 63
     7
421
 16777215
 74
     1
 91
        4
 64
     7
 65
   257
 75
     1
175
     1
 42
1.0
 92
        8
 66
     7
 43
1.0
 76
     1
 77
     6
 78
     2
 67
     7
 79
     5
170
     0
171
     0
290
     0
174
     0
 93
        1
 44
-50.0
173
     0
291
     1
 45
0.0
1001
ACAD
1000
AcDbSavedByObjectVersion
1070
     0
  0
VISUALSTYLE
  5
554B
102
{ACAD_XDICTIONARY
360
562C
102
}
102
{ACAD_REACTORS
330
5533
102
}
330
5533
100
AcDbVisualStyle
  2
EdgeColorOff
 70
    22
 71
     2
 72
     2
 73
     0
 90
        0
 40
-0.6
 41
-30.0
 62
     5
 63
     7
421
 16777215
 74
     1
 91
        4
 64
     7
 65
   257
 75
     1
175
     1
 42
1.0
 92
        8
 66
     7
 43
1.0
 76
     1
 77
     6
 78
     2
 67
     7
 79
     5
170
     0
171
     0
290
     0
174
     0
 93
        1
 44
0.0
173
     0
291
     1
 45
0.0
1001
ACAD
1000
AcDbSavedByObjectVersion
1070
     0
  0
VISUALSTYLE
  5
5542
102
{ACAD_XDICTIONARY
360
561A
102
}
102
{ACAD_REACTORS
330
5533
102
}
330
5533
100
AcDbVisualStyle
  2
Facepattern
 70
    15
 71
     2
 72
     2
 73
     0
 90
        0
 40
-0.6
 41
-30.0
 62
     5
 63
     7
421
 16777215
 74
     1
 91
        4
 64
     7
 65
   257
 75
     1
175
     1
 42
1.0
 92
        8
 66
     7
 43
1.0
 76
     1
 77
     6
 78
     2
 67
     7
 79
     5
170
     0
171
     0
290
     0
174
     0
 93
        1
 44
0.0
173
     0
291
     1
 45
0.0
1001
ACAD
1000
AcDbSavedByObjectVersion
1070
     0
  0
VISUALSTYLE
  5
5534
102
{ACAD_XDICTIONARY
360
55FE
102
}
102
{ACAD_REACTORS
330
5533
102
}
330
5533
100
AcDbVisualStyle
  2
Flat
 70
     0
 71
     2
 72
     1
 73
     1
 90
        2
 40
-0.6
 41
30.0
 62
     5
 63
     7
421
 16777215
 74
     0
 91
        0
 64
     7
 65
   257
 75
     1
175
     1
 42
1.0
 92
        8
 66
     7
 43
1.0
 76
     1
 77
     6
 78
     2
 67
     7
 79
     5
170
     0
171
     0
290
     0
174
     0
 93
       13
 44
0.0
173
     0
291
     1
 45
0.0
1001
ACAD
1000
AcDbSavedByObjectVersion
1070
     0
  0
VISUALSTYLE
  5
5535
102
{ACAD_XDICTIONARY
360
5600
102
}
102
{ACAD_REACTORS
330
5533
102
}
330
5533
100
AcDbVisualStyle
  2
FlatWithEdges
 70
     1
 71
     2
 72
     1
 73
     1
 90
        2
 40
-0.6
 41
30.0
 62
     5
 63
     7
421
 16777215
 74
     1
 91
        0
 64
     7
 65
   257
 75
     1
175
     1
 42
1.0
 92
        0
 66
   257
 43
1.0
 76
     1
 77
     6
 78
     2
 67
     7
 79
     5
170
     0
171
     0
290
     0
174
     0
 93
       13
 44
0.0
173
     0
291
     1
 45
0.0
1001
ACAD
1000
AcDbSavedByObjectVersion
1070
     0
  0
VISUALSTYLE
  5
5536
102
{ACAD_XDICTIONARY
360
5602
102
}
102
{ACAD_REACTORS
330
5533
102
}
330
5533
100
AcDbVisualStyle
  2
Gouraud
 70
     2
 71
     2
 72
     2
 73
     1
 90
        2
 40
-0.6
 41
30.0
 62
     5
 63
     7
421
 16777215
 74
     0
 91
        0
 64
     7
 65
   257
 75
     1
175
     1
 42
1.0
 92
        0
 66
     7
 43
1.0
 76
     1
 77
     6
 78
     2
 67
     7
 79
     5
170
     0
171
     0
290
     0
174
     0
 93
       13
 44
0.0
173
     0
291
     1
 45
0.0
1001
ACAD
1000
AcDbSavedByObjectVersion
1070
     0
  0
VISUALSTYLE
  5
5537
102
{ACAD_XDICTIONARY
360
5604
102
}
102
{ACAD_REACTORS
330
5533
102
}
330
5533
100
AcDbVisualStyle
  2
GouraudWithEdges
 70
     3
 71
     2
 72
     2
 73
     1
 90
        2
 40
-0.6
 41
30.0
 62
     5
 63
     7
421
 16777215
 74
     1
 91
        0
 64
     7
 65
   257
 75
     1
175
     1
 42
1.0
 92
        0
 66
   257
 43
1.0
 76
     1
 77
     6
 78
     2
 67
     7
 79
     5
170
     0
171
     0
290
     0
174
     0
 93
       13
 44
0.0
173
     0
291
     1
 45
0.0
1001
ACAD
1000
AcDbSavedByObjectVersion
1070
     0
  0
VISUALSTYLE
  5
553B
102
{ACAD_XDICTIONARY
360
560C
102
}
102
{ACAD_REACTORS
330
5533
102
}
330
5533
100
AcDbVisualStyle
  2
Hidden
 70
     6
 71
     1
 72
     2
 73
     2
 90
        0
 40
-0.6
 41
-30.0
 62
     5
 63
     7
421
 16777215
 74
     2
 91
        2
 64
     7
 65
   257
 75
     2
175
     1
 42
40.0
 92
        0
 66
   257
 43
1.0
 76
     1
 77
     6
 78
     2
 67
     7
 79
     3
170
     0
171
     0
290
     0
174
     0
 93
        1
 44
0.0
173
     0
291
     0
 45
0.0
1001
ACAD
1000
AcDbSavedByObjectVersion
1070
     0
  0
VISUALSTYLE
  5
5549
102
{ACAD_XDICTIONARY
360
5628
102
}
102
{ACAD_REACTORS
330
5533
102
}
330
5533
100
AcDbVisualStyle
  2
JitterOff
 70
    20
 71
     2
 72
     2
 73
     0
 90
        0
 40
-0.6
 41
-30.0
 62
     5
 63
     7
421
 16777215
 74
     1
 91
        4
 64
     7
 65
   257
 75
     1
175
     1
 42
1.0
 92
       10
 66
     7
 43
1.0
 76
     1
 77
     6
 78
     2
 67
     7
 79
     5
170
     0
171
     0
290
     0
174
     0
 93
        1
 44
0.0
173
     0
291
     1
 45
0.0
1001
ACAD
1000
AcDbSavedByObjectVersion
1070
     0
  0
VISUALSTYLE
  5
5541
102
{ACAD_XDICTIONARY
360
5618
102
}
102
{ACAD_REACTORS
330
5533
102
}
330
5533
100
AcDbVisualStyle
  2
Linepattern
 70
    14
 71
     2
 72
     2
 73
     0
 90
        0
 40
-0.6
 41
-30.0
 62
     5
 63
     7
421
 16777215
 74
     1
 91
        4
 64
     7
 65
   257
 75
     7
175
     7
 42
1.0
 92
        8
 66
     7
 43
1.0
 76
     1
 77
     6
 78
     2
 67
     7
 79
     5
170
     0
171
     0
290
     0
174
     0
 93
        1
 44
0.0
173
     0
291
     1
 45
0.0
1001
ACAD
1000
AcDbSavedByObjectVersion
1070
     0
  0
VISUALSTYLE
  5
554A
102
{ACAD_XDICTIONARY
360
562A
102
}
102
{ACAD_REACTORS
330
5533
102
}
330
5533
100
AcDbVisualStyle
  2
OverhangOff
 70
    21
 71
     2
 72
     2
 73
     0
 90
        0
 40
-0.6
 41
-30.0
 62
     5
 63
     7
421
 16777215
 74
     1
 91
        4
 64
     7
 65
   257
 75
     1
175
     1
 42
1.0
 92
        9
 66
     7
 43
1.0
 76
     1
 77
     6
 78
     2
 67
     7
 79
     5
170
     0
171
     0
290
     0
174
     0
 93
        1
 44
0.0
173
     0
291
     1
 45
0.0
1001
ACAD
1000
AcDbSavedByObjectVersion
1070
     0
  0
VISUALSTYLE
  5
553D
102
{ACAD_XDICTIONARY
360
5610
102
}
102
{ACAD_REACTORS
330
5533
102
}
330
5533
100
AcDbVisualStyle
  2
Realistic
 70
     8
 71
     2
 72
     3
 73
     0
 90
        2
 40
-0.6
 41
30.0
 62
     5
 63
     7
421
 16777215
 74
     0
 91
        0
 64
     7
 65
   257
 75
     1
175
     1
 42
1.0
 92
        8
 66
   257
 43
1.0
 76
     1
 77
     6
 78
     2
 67
     7
 79
     3
170
     0
171
     0
290
     0
174
     0
 93
       13
 44
0.0
173
     0
291
     0
 45
0.0
1001
ACAD
1000
AcDbSavedByObjectVersion
1070
     0
  0
VISUALSTYLE
  5
5548
102
{ACAD_XDICTIONARY
360
5626
102
}
102
{ACAD_REACTORS
330
5533
102
}
330
5533
100
AcDbVisualStyle
  2
Shaded
 70
    27
 71
     2
 72
     2
 73
     1
 90
        2
 40
-0.6
 41
30.0
 62
     5
 63
     7
421
 16777215
 74
     0
 91
        4
 64
     7
 65
   257
 75
     1
175
     1
 42
1.0
 92
        8
 66
   257
 43
1.0
 76
     1
 77
     6
 78
     2
 67
     8
425
  7895160
 79
     3
170
     0
171
     0
290
     0
174
     0
 93
        5
 44
0.0
173
     0
291
     0
 45
0.0
1001
ACAD
1000
AcDbSavedByObjectVersion
1070
     0
  0
VISUALSTYLE
  5
5547
102
{ACAD_XDICTIONARY
360
5624
102
}
102
{ACAD_REACTORS
330
5533
102
}
330
5533
100
AcDbVisualStyle
  2
Shaded with edges
 70
    26
 71
     2
 72
     2
 73
     1
 90
        2
 40
-0.6
 41
30.0
 62
     5
 63
     7
421
 16777215
 74
     1
 91
        2
 64
     7
 65
   257
 75
     2
175
     1
 42
1.0
 92
        8
 66
   257
 43
1.0
 76
     1
 77
     6
 78
     2
 67
     7
 79
     3
170
     0
171
     0
290
     0
174
     0
 93
        5
 44
0.0
173
     0
291
     0
 45
0.0
1001
ACAD
1000
AcDbSavedByObjectVersion
1070
     0
  0
VISUALSTYLE
  5
5544
102
{ACAD_XDICTIONARY
360
561E
102
}
102
{ACAD_REACTORS
330
5533
102
}
330
5533
100
AcDbVisualStyle
  2
Shades of Gray
 70
    23
 71
     2
 72
     2
 73
     3
 90
        0
 40
-0.6
 41
-30.0
 62
     5
 63
     7
421
 16777215
 74
     2
 91
        2
 64
     7
 65
     7
 75
     1
175
     1
 42
40.0
 92
        8
 66
     7
 43
1.0
 76
     1
 77
     6
 78
     2
 67
     7
 79
     3
170
     0
171
     0
290
     0
174
     0
 93
        1
 44
0.0
173
     0
291
     0
 45
0.0
1001
ACAD
1000
AcDbSavedByObjectVersion
1070
     0
  0
VISUALSTYLE
  5
5545
102
{ACAD_XDICTIONARY
360
5620
102
}
102
{ACAD_REACTORS
330
5533
102
}
330
5533
100
AcDbVisualStyle
  2
Sketchy
 70
    24
 71
     1
 72
     2
 73
     2
 90
        0
 40
-0.6
 41
-30.0
 62
     5
 63
     7
421
 16777215
 74
     2
 91
        2
 64
     7
 65
     7
 75
     1
175
     1
 42
40.0
 92
       11
 66
     7
 43
1.0
 76
     1
 77
     6
 78
     2
 67
     7
 79
     6
170
     0
171
     0
290
     0
174
     0
 93
        1
 44
0.0
173
     0
291
     0
 45
0.0
1001
ACAD
1000
AcDbSavedByObjectVersion
1070
     0
  0
VISUALSTYLE
  5
5540
102
{ACAD_XDICTIONARY
360
5616
102
}
102
{ACAD_REACTORS
330
5533
102
}
330
5533
100
AcDbVisualStyle
  2
Thicken
 70
    13
 71
     2
 72
     2
 73
     0
 90
        0
 40
-0.6
 41
-30.0
 62
     5
 63
     7
421
 16777215
 74
     1
 91
        4
 64
     7
 65
   257
 75
     1
175
     1
 42
1.0
 92
       12
 66
     7
 43
1.0
 76
     1
 77
     6
 78
     2
 67
     7
 79
     5
170
     0
171
     0
290
     0
174
     0
 93
        1
 44
0.0
173
     0
291
     1
 45
0.0
1001
ACAD
1000
AcDbSavedByObjectVersion
1070
     0
  0
VISUALSTYLE
  5
553A
102
{ACAD_XDICTIONARY
360
560A
102
}
102
{ACAD_REACTORS
330
5533
102
}
330
5533
100
AcDbVisualStyle
  2
Wireframe
 70
     5
 71
     0
 72
     2
 73
     0
 90
        0
 40
-0.6
 41
-30.0
 62
     5
 63
     7
421
 16777215
 74
     1
 91
        4
 64
     7
 65
   257
 75
     1
175
     1
 42
1.0
 92
        0
 66
   257
 43
1.0
 76
     1
 77
     6
 78
     2
 67
     7
 79
     3
170
     0
171
     0
290
     0
174
     0
 93
        1
 44
0.0
173
     0
291
     0
 45
0.0
1001
ACAD
1000
AcDbSavedByObjectVersion
1070
     0
  0
VISUALSTYLE
  5
5546
102
{ACAD_XDICTIONARY
360
5622
102
}
102
{ACAD_REACTORS
330
5533
102
}
330
5533
100
AcDbVisualStyle
  2
X-Ray
 70
    25
 71
     2
 72
     2
 73
     1
 90
        1
 40
0.5
 41
-30.0
 62
     5
 63
     7
421
 16777215
 74
     1
 91
        0
 64
     7
 65
   257
 75
     1
175
     1
 42
1.0
 92
        8
 66
     7
 43
1.0
 76
     1
 77
     6
 78
     2
 67
     7
 79
     3
170
     0
171
     0
290
     0
174
     0
 93
       13
 44
0.0
173
     0
291
     0
 45
0.0
1001
ACAD
1000
AcDbSavedByObjectVersion
1070
     0
  0
DICTIONARYVAR
  5
55F6
102
{ACAD_REACTORS
330
55F0
102
}
330
55F0
100
DictionaryVariables
280
     0
  1
1:1
  0
DICTIONARYVAR
  5
55F2
102
{ACAD_REACTORS
330
55F0
102
}
330
55F0
100
DictionaryVariables
280
     0
  1
STANDARD
  0
DICTIONARYVAR
  5
55F1
102
{ACAD_REACTORS
330
55F0
102
}
330
55F0
100
DictionaryVariables
280
     0
  1
STANDARD
  0
DICTIONARYVAR
  5
55F3
102
{ACAD_REACTORS
330
55F0
102
}
330
55F0
100
DictionaryVariables
280
     0
  1
Imperial24
  0
DICTIONARYVAR
  5
55F4
102
{ACAD_REACTORS
330
55F0
102
}
330
55F0
100
DictionaryVariables
280
     0
  1
Imperial24
  0
DICTIONARYVAR
  5
55F8
102
{ACAD_REACTORS
330
55F0
102
}
330
55F0
100
DictionaryVariables
280
     0
  1
1
  0
DICTIONARYVAR
  5
55F9
102
{ACAD_REACTORS
330
55F0
102
}
330
55F0
100
DictionaryVariables
280
     0
  1
15
  0
DICTIONARYVAR
  5
55F7
102
{ACAD_REACTORS
330
55F0
102
}
330
55F0
100
DictionaryVariables
280
     0
  1
0
  0
DICTIONARYVAR
  5
55F5
102
{ACAD_REACTORS
330
55F0
102
}
330
55F0
100
DictionaryVariables
280
     0
  1
0
  0
DICTIONARYVAR
  5
55FA
102
{ACAD_REACTORS
330
55F0
102
}
330
55F0
100
DictionaryVariables
280
     0
  1
2
  0
DICTIONARY
  5
559D
102
{ACAD_REACTORS
330
5596
102
}
330
5596
100
AcDbDictionary
281
     1
  0
DICTIONARY
  5
5631
330
5566
100
AcDbDictionary
280
     1
281
     1
  3
ACAD_XREC_ROUNDTRIP
360
5632
  0
DICTIONARY
  5
5524
330
5523
100
AcDbDictionary
280
     1
281
     1
  3
BUMPTILE
360
5526
  3
DIFFUSETILE
360
5525
  3
OPACITYTILE
360
5529
  3
REFLECTIONTILE
360
5528
  3
REFRACTIONTILE
360
552A
  3
SPECULARTILE
360
5527
  0
DICTIONARY
  5
551C
330
551B
100
AcDbDictionary
280
     1
281
     1
  3
BUMPTILE
360
551E
  3
DIFFUSETILE
360
551D
  3
OPACITYTILE
360
5521
  3
REFLECTIONTILE
360
5520
  3
REFRACTIONTILE
360
5522
  3
SPECULARTILE
360
551F
  0
DICTIONARY
  5
552C
330
552B
100
AcDbDictionary
280
     1
281
     1
  3
BUMPTILE
360
552E
  3
DIFFUSETILE
360
552D
  3
OPACITYTILE
360
5531
  3
REFLECTIONTILE
360
5530
  3
REFRACTIONTILE
360
5532
  3
SPECULARTILE
360
552F
  0
DICTIONARY
  5
562F
330
5564
100
AcDbDictionary
280
     1
281
     1
  3
ACAD_XREC_ROUNDTRIP
360
5630
  0
DICTIONARY
  5
55FB
330
554E
100
AcDbDictionary
280
     1
281
     1
  3
ACAD_ROUNDTRIP_2008_TABLESTYLE_CELLSTYLEMAP
360
55FC
  0
DICTIONARY
  5
5608
330
5539
100
AcDbDictionary
280
     1
281
     1
  3
ACAD_XREC_ROUNDTRIP
360
5609
  0
DICTIONARY
  5
5606
330
5538
100
AcDbDictionary
280
     1
281
     1
  3
ACAD_XREC_ROUNDTRIP
360
5607
  0
DICTIONARY
  5
5614
330
553F
100
AcDbDictionary
280
     1
281
     1
  3
ACAD_XREC_ROUNDTRIP
360
5615
  0
DICTIONARY
  5
561C
330
5543
100
AcDbDictionary
280
     1
281
     1
  3
ACAD_XREC_ROUNDTRIP
360
561D
  0
DICTIONARY
  5
560E
330
553C
100
AcDbDictionary
280
     1
281
     1
  3
ACAD_XREC_ROUNDTRIP
360
560F
  0
DICTIONARY
  5
5612
330
553E
100
AcDbDictionary
280
     1
281
     1
  3
ACAD_XREC_ROUNDTRIP
360
5613
  0
DICTIONARY
  5
562C
330
554B
100
AcDbDictionary
280
     1
281
     1
  3
ACAD_XREC_ROUNDTRIP
360
562D
  0
DICTIONARY
  5
561A
330
5542
100
AcDbDictionary
280
     1
281
     1
  3
ACAD_XREC_ROUNDTRIP
360
561B
  0
DICTIONARY
  5
55FE
330
5534
100
AcDbDictionary
280
     1
281
     1
  3
ACAD_XREC_ROUNDTRIP
360
55FF
  0
DICTIONARY
  5
5600
330
5535
100
AcDbDictionary
280
     1
281
     1
  3
ACAD_XREC_ROUNDTRIP
360
5601
  0
DICTIONARY
  5
5602
330
5536
100
AcDbDictionary
280
     1
281
     1
  3
ACAD_XREC_ROUNDTRIP
360
5603
  0
DICTIONARY
  5
5604
330
5537
100
AcDbDictionary
280
     1
281
     1
  3
ACAD_XREC_ROUNDTRIP
360
5605
  0
DICTIONARY
  5
560C
330
553B
100
AcDbDictionary
280
     1
281
     1
  3
ACAD_XREC_ROUNDTRIP
360
560D
  0
DICTIONARY
  5
5628
330
5549
100
AcDbDictionary
280
     1
281
     1
  3
ACAD_XREC_ROUNDTRIP
360
5629
  0
DICTIONARY
  5
5618
330
5541
100
AcDbDictionary
280
     1
281
     1
  3
ACAD_XREC_ROUNDTRIP
360
5619
  0
DICTIONARY
  5
562A
330
554A
100
AcDbDictionary
280
     1
281
     1
  3
ACAD_XREC_ROUNDTRIP
360
562B
  0
DICTIONARY
  5
5610
330
553D
100
AcDbDictionary
280
     1
281
     1
  3
ACAD_XREC_ROUNDTRIP
360
5611
  0
DICTIONARY
  5
5626
330
5548
100
AcDbDictionary
280
     1
281
     1
  3
ACAD_XREC_ROUNDTRIP
360
5627
  0
DICTIONARY
  5
5624
330
5547
100
AcDbDictionary
280
     1
281
     1
  3
ACAD_XREC_ROUNDTRIP
360
5625
  0
DICTIONARY
  5
561E
330
5544
100
AcDbDictionary
280
     1
281
     1
  3
ACAD_XREC_ROUNDTRIP
360
561F
  0
DICTIONARY
  5
5620
330
5545
100
AcDbDictionary
280
     1
281
     1
  3
ACAD_XREC_ROUNDTRIP
360
5621
  0
DICTIONARY
  5
5616
330
5540
100
AcDbDictionary
280
     1
281
     1
  3
ACAD_XREC_ROUNDTRIP
360
5617
  0
DICTIONARY
  5
560A
330
553A
100
AcDbDictionary
280
     1
281
     1
  3
ACAD_XREC_ROUNDTRIP
360
560B
  0
DICTIONARY
  5
5622
330
5546
100
AcDbDictionary
280
     1
281
     1
  3
ACAD_XREC_ROUNDTRIP
360
5623
  0
XRECORD
  5
5632
102
{ACAD_REACTORS
330
5631
102
}
330
5631
100
AcDbXrecord
280
     1
102
DISPLAYNAME
  1
Imperial24
102
FLAGS
 90
        0
  0
XRECORD
  5
5526
102
{ACAD_REACTORS
330
5524
102
}
330
5524
100
AcDbXrecord
280
     1
270
     1
271
     1
  0
XRECORD
  5
5525
102
{ACAD_REACTORS
330
5524
102
}
330
5524
100
AcDbXrecord
280
     1
270
     1
271
     1
  0
XRECORD
  5
5529
102
{ACAD_REACTORS
330
5524
102
}
330
5524
100
AcDbXrecord
280
     1
270
     1
271
     1
  0
XRECORD
  5
5528
102
{ACAD_REACTORS
330
5524
102
}
330
5524
100
AcDbXrecord
280
     1
270
     1
271
     1
  0
XRECORD
  5
552A
102
{ACAD_REACTORS
330
5524
102
}
330
5524
100
AcDbXrecord
280
     1
270
     1
271
     1
  0
XRECORD
  5
5527
102
{ACAD_REACTORS
330
5524
102
}
330
5524
100
AcDbXrecord
280
     1
270
     1
271
     1
  0
XRECORD
  5
551E
102
{ACAD_REACTORS
330
551C
102
}
330
551C
100
AcDbXrecord
280
     1
270
     1
271
     1
  0
XRECORD
  5
551D
102
{ACAD_REACTORS
330
551C
102
}
330
551C
100
AcDbXrecord
280
     1
270
     1
271
     1
  0
XRECORD
  5
5521
102
{ACAD_REACTORS
330
551C
102
}
330
551C
100
AcDbXrecord
280
     1
270
     1
271
     1
  0
XRECORD
  5
5520
102
{ACAD_REACTORS
330
551C
102
}
330
551C
100
AcDbXrecord
280
     1
270
     1
271
     1
  0
XRECORD
  5
5522
102
{ACAD_REACTORS
330
551C
102
}
330
551C
100
AcDbXrecord
280
     1
270
     1
271
     1
  0
XRECORD
  5
551F
102
{ACAD_REACTORS
330
551C
102
}
330
551C
100
AcDbXrecord
280
     1
270
     1
271
     1
  0
XRECORD
  5
552E
102
{ACAD_REACTORS
330
552C
102
}
330
552C
100
AcDbXrecord
280
     1
270
     1
271
     1
  0
XRECORD
  5
552D
102
{ACAD_REACTORS
330
552C
102
}
330
552C
100
AcDbXrecord
280
     1
270
     1
271
     1
  0
XRECORD
  5
5531
102
{ACAD_REACTORS
330
552C
102
}
330
552C
100
AcDbXrecord
280
     1
270
     1
271
     1
  0
XRECORD
  5
5530
102
{ACAD_REACTORS
330
552C
102
}
330
552C
100
AcDbXrecord
280
     1
270
     1
271
     1
  0
XRECORD
  5
5532
102
{ACAD_REACTORS
330
552C
102
}
330
552C
100
AcDbXrecord
280
     1
270
     1
271
     1
  0
XRECORD
  5
552F
102
{ACAD_REACTORS
330
552C
102
}
330
552C
100
AcDbXrecord
280
     1
270
     1
271
     1
  0
XRECORD
  5
5630
102
{ACAD_REACTORS
330
562F
102
}
330
562F
100
AcDbXrecord
280
     1
102
DISPLAYNAME
  1
Imperial24
102
FLAGS
 90
        0
  0
CELLSTYLEMAP
  5
55FC
102
{ACAD_REACTORS
330
55FB
102
}
330
55FB
100
AcDbCellStyleMap
 90
        3
300
CELLSTYLE
  1
TABLEFORMAT_BEGIN
 90
        5
170
     1
 91
        0
 92
    32768
 62
   257
 93
        1
300
CONTENTFORMAT
  1
CONTENTFORMAT_BEGIN
 90
        0
 91
        0
 92
      512
 93
        0
300

 40
0.0
140
1.0
 94
        5
 62
     0
340
1D1
144
0.25
309
CONTENTFORMAT_END
171
     0
 94
        0
309
TABLEFORMAT_END
  1
CELLSTYLE_BEGIN
 90
        1
 91
        1
300
_TITLE
309
CELLSTYLE_END
300
CELLSTYLE
  1
TABLEFORMAT_BEGIN
 90
        5
170
     1
 91
        0
 92
        0
 62
   257
 93
        1
300
CONTENTFORMAT
  1
CONTENTFORMAT_BEGIN
 90
        0
 91
        0
 92
      512
 93
        0
300

 40
0.0
140
1.0
 94
        5
 62
     0
340
1D1
144
0.18
309
CONTENTFORMAT_END
171
     0
 94
        0
309
TABLEFORMAT_END
  1
CELLSTYLE_BEGIN
 90
        2
 91
        1
300
_HEADER
309
CELLSTYLE_END
300
CELLSTYLE
  1
TABLEFORMAT_BEGIN
 90
        5
170
     1
 91
        0
 92
        0
 62
   257
 93
        1
300
CONTENTFORMAT
  1
CONTENTFORMAT_BEGIN
 90
        0
 91
        0
 92
      512
 93
        0
300

 40
0.0
140
1.0
 94
        2
 62
     0
340
1D1
144
0.18
309
CONTENTFORMAT_END
171
     0
 94
        0
309
TABLEFORMAT_END
  1
CELLSTYLE_BEGIN
 90
        3
 91
        2
300
_DATA
309
CELLSTYLE_END
  0
XRECORD
  5
5609
102
{ACAD_REACTORS
330
5608
102
}
330
5608
100
AcDbXrecord
280
     1
102
RTVSPost2010Prop28
280
     1
102
RTVSPost2010PropOp28
 70
     1
102
RTVSPost2010Prop29
280
     1
102
RTVSPost2010PropOp29
 70
     1
102
RTVSPost2010Prop30
280
     0
102
RTVSPost2010PropOp30
 70
     1
102
RTVSPost2010Prop31
280
     0
102
RTVSPost2010PropOp31
 70
     1
102
RTVSPost2010Prop32
280
     0
102
RTVSPost2010PropOp32
 70
     1
102
RTVSPost2010Prop33
280
     0
102
RTVSPost2010PropOp33
 70
     1
102
RTVSPost2010Prop34
280
     0
102
RTVSPost2010PropOp34
 70
     1
102
RTVSPost2010Prop35
280
     0
102
RTVSPost2010PropOp35
 70
     1
102
RTVSPost2010Prop36
280
     0
102
RTVSPost2010PropOp36
 70
     1
102
RTVSPost2010Prop37
 90
       50
102
RTVSPost2010PropOp37
 70
     1
102
RTVSPost2010Prop38
140
0.0
102
RTVSPost2010PropOp38
 70
     1
102
RTVSPost2010Prop39
140
1.0
102
RTVSPost2010PropOp39
 70
     1
102
RTVSPost2010Prop40
 90
        0
102
RTVSPost2010PropOp40
 70
     1
102
RTVSPost2010Prop41ColorIndex
 90
       18
102
RTVSPost2010Prop41ColorRGB
 90
        0
102
RTVSPost2010PropOp41
 70
     1
102
RTVSPost2010Prop42
 90
       50
102
RTVSPost2010PropOp42
 70
     1
102
RTVSPost2010Prop43
 90
        3
102
RTVSPost2010PropOp43
 70
     1
102
RTVSPost2010Prop44ColorIndex
 90
        5
102
RTVSPost2010Prop44ColorRGB
 90
      255
102
RTVSPost2010PropOp44
 70
     1
102
RTVSPost2010Prop45
280
     0
102
RTVSPost2010PropOp45
 70
     1
102
RTVSPost2010Prop46
 90
       50
102
RTVSPost2010PropOp46
 70
     1
102
RTVSPost2010Prop47
 90
       50
102
RTVSPost2010PropOp47
 70
     1
102
RTVSPost2010Prop48
 90
       50
102
RTVSPost2010PropOp48
 70
     1
102
RTVSPost2010Prop49
280
     0
102
RTVSPost2010PropOp49
 70
     1
102
RTVSPost2010Prop50
 90
       50
102
RTVSPost2010PropOp50
 70
     1
102
RTVSPost2010Prop51ColorIndex
 90
      256
102
RTVSPost2010Prop51ColorRGB
 90
-16777216
102
RTVSPost2010PropOp51
 70
     0
102
RTVSPost2010Prop52
140
1.0
102
RTVSPost2010PropOp52
 70
     0
102
RTVSPost2010Prop53
 90
        2
102
RTVSPost2010PropOp53
 70
     1
102
RTVSPost2010Prop54
  1
strokes_ogs.tif
102
RTVSPost2010PropOp54
 70
     1
102
RTVSPost2010Prop55
280
     0
102
RTVSPost2010PropOp55
 70
     1
102
RTVSPost2010Prop56
140
1.0
102
RTVSPost2010PropOp56
 70
     1
102
RTVSPost2010Prop57
140
1.0
102
RTVSPost2010PropOp57
 70
     1
102
RTVSPropertyOp0
 70
     1
102
RTVSPropertyOp1
 70
     1
102
RTVSPropertyOp2
 70
     1
102
RTVSPropertyOp3
 70
     1
102
RTVSPropertyOp4
 70
     1
102
RTVSPropertyOp5
 70
     1
102
RTVSPropertyOp6
 70
     1
102
RTVSPropertyOp7
 70
     1
102
RTVSPropertyOp8
 70
     1
102
RTVSPropertyOp9
 70
     1
102
RTVSPropertyOp10
 70
     1
102
RTVSPropertyOp11
 70
     1
102
RTVSPropertyOp12
 70
     1
102
RTVSPropertyOp13
 70
     1
102
RTVSPropertyOp14
 70
     1
102
RTVSPropertyOp15
 70
     1
102
RTVSPropertyOp16
 70
     1
102
RTVSPropertyOp17
 70
     1
102
RTVSPropertyOp18
 70
     1
102
RTVSPropertyOp19
 70
     1
102
RTVSPropertyOp20
 70
     1
102
RTVSPropertyOp21
 70
     1
102
RTVSPropertyOp22
 70
     1
102
RTVSPropertyOp23
 70
     1
102
RTVSPropertyOp24
 70
     1
102
RTVSPropertyOp25
 70
     1
102
RTVSPropertyOp26
 70
     1
102
RTVSPropertyOp27
 70
     1
102
RTVSPropertyOp28
 70
     1
102
RTVSPropertyOp29
 70
     1
102
RTVSPropertyOp30
 70
     1
102
RTVSPropertyOp31
 70
     1
102
RTVSPropertyOp32
 70
     1
102
RTVSPropertyOp33
 70
     1
102
RTVSPropertyOp34
 70
     1
102
RTVSPropertyOp35
 70
     1
102
RTVSPropertyOp36
 70
     1
102
RTVSPropertyOp37
 70
     1
102
RTVSPropertyOp38
 70
     1
102
RTVSPropertyOp39
 70
     1
102
RTVSPropertyOp40
 70
     1
102
RTVSPropertyOp41
 70
     1
102
RTVSPropertyOp42
 70
     1
102
RTVSPropertyOp43
 70
     1
102
RTVSPropertyOp44
 70
     1
102
RTVSPropertyOp45
 70
     1
102
RTVSPropertyOp46
 70
     1
102
RTVSPropertyOp47
 70
     1
102
RTVSPropertyOp48
 70
     1
102
RTVSPropertyOp49
 70
     1
102
RTVSPropertyOp50
 70
     1
102
RTVSPropertyOp51
 70
     0
102
RTVSPropertyOp52
 70
     0
102
RTVSPropertyOp53
 70
     1
102
RTVSPropertyOp54
 70
     1
102
RTVSPropertyOp55
 70
     1
102
RTVSPropertyOp56
 70
     1
102
RTVSPropertyOp57
 70
     1
102
RTVSPropertyOp58
 70
     1
102
RTVSPropertyOp59
 70
     1
102
RTVSPropertyOp60
 70
     1
102
RTVSPropertyOp61
 70
     1
102
RTVSPropertyOp62
 70
     1
  0
XRECORD
  5
5607
102
{ACAD_REACTORS
330
5606
102
}
330
5606
100
AcDbXrecord
280
     1
102
RTVSPost2010Prop28
280
     0
102
RTVSPost2010PropOp28
 70
     1
102
RTVSPost2010Prop29
280
     1
102
RTVSPost2010PropOp29
 70
     1
102
RTVSPost2010Prop30
280
     1
102
RTVSPost2010PropOp30
 70
     1
102
RTVSPost2010Prop31
280
     0
102
RTVSPost2010PropOp31
 70
     1
102
RTVSPost2010Prop32
280
     0
102
RTVSPost2010PropOp32
 70
     1
102
RTVSPost2010Prop33
280
     0
102
RTVSPost2010PropOp33
 70
     1
102
RTVSPost2010Prop34
280
     0
102
RTVSPost2010PropOp34
 70
     1
102
RTVSPost2010Prop35
280
     0
102
RTVSPost2010PropOp35
 70
     1
102
RTVSPost2010Prop36
280
     0
102
RTVSPost2010PropOp36
 70
     1
102
RTVSPost2010Prop37
 90
       50
102
RTVSPost2010PropOp37
 70
     1
102
RTVSPost2010Prop38
140
0.0
102
RTVSPost2010PropOp38
 70
     1
102
RTVSPost2010Prop39
140
1.0
102
RTVSPost2010PropOp39
 70
     1
102
RTVSPost2010Prop40
 90
        0
102
RTVSPost2010PropOp40
 70
     1
102
RTVSPost2010Prop41ColorIndex
 90
       18
102
RTVSPost2010Prop41ColorRGB
 90
        0
102
RTVSPost2010PropOp41
 70
     1
102
RTVSPost2010Prop42
 90
       50
102
RTVSPost2010PropOp42
 70
     1
102
RTVSPost2010Prop43
 90
        3
102
RTVSPost2010PropOp43
 70
     1
102
RTVSPost2010Prop44ColorIndex
 90
        5
102
RTVSPost2010Prop44ColorRGB
 90
      255
102
RTVSPost2010PropOp44
 70
     1
102
RTVSPost2010Prop45
280
     0
102
RTVSPost2010PropOp45
 70
     1
102
RTVSPost2010Prop46
 90
       50
102
RTVSPost2010PropOp46
 70
     1
102
RTVSPost2010Prop47
 90
       50
102
RTVSPost2010PropOp47
 70
     1
102
RTVSPost2010Prop48
 90
       50
102
RTVSPost2010PropOp48
 70
     1
102
RTVSPost2010Prop49
280
     0
102
RTVSPost2010PropOp49
 70
     1
102
RTVSPost2010Prop50
 90
       50
102
RTVSPost2010PropOp50
 70
     1
102
RTVSPost2010Prop51ColorIndex
 90
      256
102
RTVSPost2010Prop51ColorRGB
 90
-16777216
102
RTVSPost2010PropOp51
 70
     0
102
RTVSPost2010Prop52
140
1.0
102
RTVSPost2010PropOp52
 70
     0
102
RTVSPost2010Prop53
 90
        2
102
RTVSPost2010PropOp53
 70
     1
102
RTVSPost2010Prop54
  1
strokes_ogs.tif
102
RTVSPost2010PropOp54
 70
     1
102
RTVSPost2010Prop55
280
     0
102
RTVSPost2010PropOp55
 70
     1
102
RTVSPost2010Prop56
140
1.0
102
RTVSPost2010PropOp56
 70
     1
102
RTVSPost2010Prop57
140
1.0
102
RTVSPost2010PropOp57
 70
     1
102
RTVSPropertyOp0
 70
     1
102
RTVSPropertyOp1
 70
     1
102
RTVSPropertyOp2
 70
     1
102
RTVSPropertyOp3
 70
     1
102
RTVSPropertyOp4
 70
     1
102
RTVSPropertyOp5
 70
     1
102
RTVSPropertyOp6
 70
     1
102
RTVSPropertyOp7
 70
     1
102
RTVSPropertyOp8
 70
     1
102
RTVSPropertyOp9
 70
     1
102
RTVSPropertyOp10
 70
     1
102
RTVSPropertyOp11
 70
     1
102
RTVSPropertyOp12
 70
     1
102
RTVSPropertyOp13
 70
     1
102
RTVSPropertyOp14
 70
     1
102
RTVSPropertyOp15
 70
     1
102
RTVSPropertyOp16
 70
     1
102
RTVSPropertyOp17
 70
     1
102
RTVSPropertyOp18
 70
     1
102
RTVSPropertyOp19
 70
     1
102
RTVSPropertyOp20
 70
     1
102
RTVSPropertyOp21
 70
     1
102
RTVSPropertyOp22
 70
     1
102
RTVSPropertyOp23
 70
     1
102
RTVSPropertyOp24
 70
     1
102
RTVSPropertyOp25
 70
     1
102
RTVSPropertyOp26
 70
     1
102
RTVSPropertyOp27
 70
     1
102
RTVSPropertyOp28
 70
     1
102
RTVSPropertyOp29
 70
     1
102
RTVSPropertyOp30
 70
     1
102
RTVSPropertyOp31
 70
     1
102
RTVSPropertyOp32
 70
     1
102
RTVSPropertyOp33
 70
     1
102
RTVSPropertyOp34
 70
     1
102
RTVSPropertyOp35
 70
     1
102
RTVSPropertyOp36
 70
     1
102
RTVSPropertyOp37
 70
     1
102
RTVSPropertyOp38
 70
     1
102
RTVSPropertyOp39
 70
     1
102
RTVSPropertyOp40
 70
     1
102
RTVSPropertyOp41
 70
     1
102
RTVSPropertyOp42
 70
     1
102
RTVSPropertyOp43
 70
     1
102
RTVSPropertyOp44
 70
     1
102
RTVSPropertyOp45
 70
     1
102
RTVSPropertyOp46
 70
     1
102
RTVSPropertyOp47
 70
     1
102
RTVSPropertyOp48
 70
     1
102
RTVSPropertyOp49
 70
     1
102
RTVSPropertyOp50
 70
     1
102
RTVSPropertyOp51
 70
     0
102
RTVSPropertyOp52
 70
     0
102
RTVSPropertyOp53
 70
     1
102
RTVSPropertyOp54
 70
     1
102
RTVSPropertyOp55
 70
     1
102
RTVSPropertyOp56
 70
     1
102
RTVSPropertyOp57
 70
     1
102
RTVSPropertyOp58
 70
     1
102
RTVSPropertyOp59
 70
     1
102
RTVSPropertyOp60
 70
     1
102
RTVSPropertyOp61
 70
     1
102
RTVSPropertyOp62
 70
     1
  0
XRECORD
  5
5615
102
{ACAD_REACTORS
330
5614
102
}
330
5614
100
AcDbXrecord
280
     1
102
RTVSPost2010Prop28
280
     0
102
RTVSPost2010PropOp28
 70
     1
102
RTVSPost2010Prop29
280
     1
102
RTVSPost2010PropOp29
 70
     1
102
RTVSPost2010Prop30
280
     1
102
RTVSPost2010PropOp30
 70
     1
102
RTVSPost2010Prop31
280
     0
102
RTVSPost2010PropOp31
 70
     1
102
RTVSPost2010Prop32
280
     0
102
RTVSPost2010PropOp32
 70
     1
102
RTVSPost2010Prop33
280
     0
102
RTVSPost2010PropOp33
 70
     1
102
RTVSPost2010Prop34
280
     0
102
RTVSPost2010PropOp34
 70
     1
102
RTVSPost2010Prop35
280
     0
102
RTVSPost2010PropOp35
 70
     1
102
RTVSPost2010Prop36
280
     0
102
RTVSPost2010PropOp36
 70
     1
102
RTVSPost2010Prop37
 90
       50
102
RTVSPost2010PropOp37
 70
     1
102
RTVSPost2010Prop38
140
0.0
102
RTVSPost2010PropOp38
 70
     1
102
RTVSPost2010Prop39
140
1.0
102
RTVSPost2010PropOp39
 70
     1
102
RTVSPost2010Prop40
 90
        0
102
RTVSPost2010PropOp40
 70
     1
102
RTVSPost2010Prop41ColorIndex
 90
       18
102
RTVSPost2010Prop41ColorRGB
 90
        0
102
RTVSPost2010PropOp41
 70
     1
102
RTVSPost2010Prop42
 90
       50
102
RTVSPost2010PropOp42
 70
     1
102
RTVSPost2010Prop43
 90
        3
102
RTVSPost2010PropOp43
 70
     1
102
RTVSPost2010Prop44ColorIndex
 90
        5
102
RTVSPost2010Prop44ColorRGB
 90
      255
102
RTVSPost2010PropOp44
 70
     1
102
RTVSPost2010Prop45
280
     0
102
RTVSPost2010PropOp45
 70
     1
102
RTVSPost2010Prop46
 90
       50
102
RTVSPost2010PropOp46
 70
     1
102
RTVSPost2010Prop47
 90
       50
102
RTVSPost2010PropOp47
 70
     1
102
RTVSPost2010Prop48
 90
       50
102
RTVSPost2010PropOp48
 70
     1
102
RTVSPost2010Prop49
280
     0
102
RTVSPost2010PropOp49
 70
     1
102
RTVSPost2010Prop50
 90
       50
102
RTVSPost2010PropOp50
 70
     1
102
RTVSPost2010Prop51ColorIndex
 90
      256
102
RTVSPost2010Prop51ColorRGB
 90
-16777216
102
RTVSPost2010PropOp51
 70
     0
102
RTVSPost2010Prop52
140
1.0
102
RTVSPost2010PropOp52
 70
     0
102
RTVSPost2010Prop53
 90
        2
102
RTVSPost2010PropOp53
 70
     1
102
RTVSPost2010Prop54
  1
strokes_ogs.tif
102
RTVSPost2010PropOp54
 70
     1
102
RTVSPost2010Prop55
280
     0
102
RTVSPost2010PropOp55
 70
     1
102
RTVSPost2010Prop56
140
1.0
102
RTVSPost2010PropOp56
 70
     1
102
RTVSPost2010Prop57
140
1.0
102
RTVSPost2010PropOp57
 70
     1
102
RTVSPropertyOp0
 70
     1
102
RTVSPropertyOp1
 70
     1
102
RTVSPropertyOp2
 70
     1
102
RTVSPropertyOp3
 70
     1
102
RTVSPropertyOp4
 70
     1
102
RTVSPropertyOp5
 70
     1
102
RTVSPropertyOp6
 70
     1
102
RTVSPropertyOp7
 70
     1
102
RTVSPropertyOp8
 70
     1
102
RTVSPropertyOp9
 70
     1
102
RTVSPropertyOp10
 70
     1
102
RTVSPropertyOp11
 70
     1
102
RTVSPropertyOp12
 70
     1
102
RTVSPropertyOp13
 70
     1
102
RTVSPropertyOp14
 70
     1
102
RTVSPropertyOp15
 70
     1
102
RTVSPropertyOp16
 70
     1
102
RTVSPropertyOp17
 70
     1
102
RTVSPropertyOp18
 70
     1
102
RTVSPropertyOp19
 70
     1
102
RTVSPropertyOp20
 70
     1
102
RTVSPropertyOp21
 70
     1
102
RTVSPropertyOp22
 70
     1
102
RTVSPropertyOp23
 70
     1
102
RTVSPropertyOp24
 70
     1
102
RTVSPropertyOp25
 70
     1
102
RTVSPropertyOp26
 70
     1
102
RTVSPropertyOp27
 70
     1
102
RTVSPropertyOp28
 70
     1
102
RTVSPropertyOp29
 70
     1
102
RTVSPropertyOp30
 70
     1
102
RTVSPropertyOp31
 70
     1
102
RTVSPropertyOp32
 70
     1
102
RTVSPropertyOp33
 70
     1
102
RTVSPropertyOp34
 70
     1
102
RTVSPropertyOp35
 70
     1
102
RTVSPropertyOp36
 70
     1
102
RTVSPropertyOp37
 70
     1
102
RTVSPropertyOp38
 70
     1
102
RTVSPropertyOp39
 70
     1
102
RTVSPropertyOp40
 70
     1
102
RTVSPropertyOp41
 70
     1
102
RTVSPropertyOp42
 70
     1
102
RTVSPropertyOp43
 70
     1
102
RTVSPropertyOp44
 70
     1
102
RTVSPropertyOp45
 70
     1
102
RTVSPropertyOp46
 70
     1
102
RTVSPropertyOp47
 70
     1
102
RTVSPropertyOp48
 70
     1
102
RTVSPropertyOp49
 70
     1
102
RTVSPropertyOp50
 70
     1
102
RTVSPropertyOp51
 70
     0
102
RTVSPropertyOp52
 70
     0
102
RTVSPropertyOp53
 70
     1
102
RTVSPropertyOp54
 70
     1
102
RTVSPropertyOp55
 70
     1
102
RTVSPropertyOp56
 70
     1
102
RTVSPropertyOp57
 70
     1
102
RTVSPropertyOp58
 70
     1
102
RTVSPropertyOp59
 70
     1
102
RTVSPropertyOp60
 70
     1
102
RTVSPropertyOp61
 70
     1
102
RTVSPropertyOp62
 70
     1
  0
XRECORD
  5
561D
102
{ACAD_REACTORS
330
561C
102
}
330
561C
100
AcDbXrecord
280
     1
102
RTVSPost2010Prop28
280
     0
102
RTVSPost2010PropOp28
 70
     1
102
RTVSPost2010Prop29
280
     1
102
RTVSPost2010PropOp29
 70
     1
102
RTVSPost2010Prop30
280
     1
102
RTVSPost2010PropOp30
 70
     1
102
RTVSPost2010Prop31
280
     0
102
RTVSPost2010PropOp31
 70
     1
102
RTVSPost2010Prop32
280
     0
102
RTVSPost2010PropOp32
 70
     1
102
RTVSPost2010Prop33
280
     0
102
RTVSPost2010PropOp33
 70
     1
102
RTVSPost2010Prop34
280
     0
102
RTVSPost2010PropOp34
 70
     1
102
RTVSPost2010Prop35
280
     0
102
RTVSPost2010PropOp35
 70
     1
102
RTVSPost2010Prop36
280
     0
102
RTVSPost2010PropOp36
 70
     1
102
RTVSPost2010Prop37
 90
       50
102
RTVSPost2010PropOp37
 70
     1
102
RTVSPost2010Prop38
140
0.0
102
RTVSPost2010PropOp38
 70
     1
102
RTVSPost2010Prop39
140
1.0
102
RTVSPost2010PropOp39
 70
     1
102
RTVSPost2010Prop40
 90
        0
102
RTVSPost2010PropOp40
 70
     1
102
RTVSPost2010Prop41ColorIndex
 90
       18
102
RTVSPost2010Prop41ColorRGB
 90
        0
102
RTVSPost2010PropOp41
 70
     1
102
RTVSPost2010Prop42
 90
       50
102
RTVSPost2010PropOp42
 70
     1
102
RTVSPost2010Prop43
 90
        3
102
RTVSPost2010PropOp43
 70
     1
102
RTVSPost2010Prop44ColorIndex
 90
        5
102
RTVSPost2010Prop44ColorRGB
 90
      255
102
RTVSPost2010PropOp44
 70
     1
102
RTVSPost2010Prop45
280
     0
102
RTVSPost2010PropOp45
 70
     1
102
RTVSPost2010Prop46
 90
       50
102
RTVSPost2010PropOp46
 70
     1
102
RTVSPost2010Prop47
 90
       50
102
RTVSPost2010PropOp47
 70
     1
102
RTVSPost2010Prop48
 90
       50
102
RTVSPost2010PropOp48
 70
     1
102
RTVSPost2010Prop49
280
     0
102
RTVSPost2010PropOp49
 70
     1
102
RTVSPost2010Prop50
 90
       50
102
RTVSPost2010PropOp50
 70
     1
102
RTVSPost2010Prop51ColorIndex
 90
      256
102
RTVSPost2010Prop51ColorRGB
 90
-16777216
102
RTVSPost2010PropOp51
 70
     0
102
RTVSPost2010Prop52
140
1.0
102
RTVSPost2010PropOp52
 70
     0
102
RTVSPost2010Prop53
 90
        2
102
RTVSPost2010PropOp53
 70
     1
102
RTVSPost2010Prop54
  1
strokes_ogs.tif
102
RTVSPost2010PropOp54
 70
     1
102
RTVSPost2010Prop55
280
     0
102
RTVSPost2010PropOp55
 70
     1
102
RTVSPost2010Prop56
140
1.0
102
RTVSPost2010PropOp56
 70
     1
102
RTVSPost2010Prop57
140
1.0
102
RTVSPost2010PropOp57
 70
     1
102
RTVSPropertyOp0
 70
     1
102
RTVSPropertyOp1
 70
     1
102
RTVSPropertyOp2
 70
     1
102
RTVSPropertyOp3
 70
     1
102
RTVSPropertyOp4
 70
     1
102
RTVSPropertyOp5
 70
     1
102
RTVSPropertyOp6
 70
     1
102
RTVSPropertyOp7
 70
     1
102
RTVSPropertyOp8
 70
     1
102
RTVSPropertyOp9
 70
     1
102
RTVSPropertyOp10
 70
     1
102
RTVSPropertyOp11
 70
     1
102
RTVSPropertyOp12
 70
     1
102
RTVSPropertyOp13
 70
     1
102
RTVSPropertyOp14
 70
     1
102
RTVSPropertyOp15
 70
     1
102
RTVSPropertyOp16
 70
     1
102
RTVSPropertyOp17
 70
     1
102
RTVSPropertyOp18
 70
     1
102
RTVSPropertyOp19
 70
     1
102
RTVSPropertyOp20
 70
     1
102
RTVSPropertyOp21
 70
     1
102
RTVSPropertyOp22
 70
     1
102
RTVSPropertyOp23
 70
     1
102
RTVSPropertyOp24
 70
     1
102
RTVSPropertyOp25
 70
     1
102
RTVSPropertyOp26
 70
     1
102
RTVSPropertyOp27
 70
     1
102
RTVSPropertyOp28
 70
     1
102
RTVSPropertyOp29
 70
     1
102
RTVSPropertyOp30
 70
     1
102
RTVSPropertyOp31
 70
     1
102
RTVSPropertyOp32
 70
     1
102
RTVSPropertyOp33
 70
     1
102
RTVSPropertyOp34
 70
     1
102
RTVSPropertyOp35
 70
     1
102
RTVSPropertyOp36
 70
     1
102
RTVSPropertyOp37
 70
     1
102
RTVSPropertyOp38
 70
     1
102
RTVSPropertyOp39
 70
     1
102
RTVSPropertyOp40
 70
     1
102
RTVSPropertyOp41
 70
     1
102
RTVSPropertyOp42
 70
     1
102
RTVSPropertyOp43
 70
     1
102
RTVSPropertyOp44
 70
     1
102
RTVSPropertyOp45
 70
     1
102
RTVSPropertyOp46
 70
     1
102
RTVSPropertyOp47
 70
     1
102
RTVSPropertyOp48
 70
     1
102
RTVSPropertyOp49
 70
     1
102
RTVSPropertyOp50
 70
     1
102
RTVSPropertyOp51
 70
     0
102
RTVSPropertyOp52
 70
     0
102
RTVSPropertyOp53
 70
     1
102
RTVSPropertyOp54
 70
     1
102
RTVSPropertyOp55
 70
     1
102
RTVSPropertyOp56
 70
     1
102
RTVSPropertyOp57
 70
     1
102
RTVSPropertyOp58
 70
     1
102
RTVSPropertyOp59
 70
     1
102
RTVSPropertyOp60
 70
     1
102
RTVSPropertyOp61
 70
     1
102
RTVSPropertyOp62
 70
     1
  0
XRECORD
  5
560F
102
{ACAD_REACTORS
330
560E
102
}
330
560E
100
AcDbXrecord
280
     1
102
RTVSPost2010Prop28
280
     0
102
RTVSPost2010PropOp28
 70
     1
102
RTVSPost2010Prop29
280
     1
102
RTVSPost2010PropOp29
 70
     1
102
RTVSPost2010Prop30
280
     1
102
RTVSPost2010PropOp30
 70
     1
102
RTVSPost2010Prop31
280
     0
102
RTVSPost2010PropOp31
 70
     1
102
RTVSPost2010Prop32
280
     0
102
RTVSPost2010PropOp32
 70
     1
102
RTVSPost2010Prop33
280
     0
102
RTVSPost2010PropOp33
 70
     1
102
RTVSPost2010Prop34
280
     0
102
RTVSPost2010PropOp34
 70
     1
102
RTVSPost2010Prop35
280
     0
102
RTVSPost2010PropOp35
 70
     1
102
RTVSPost2010Prop36
280
     0
102
RTVSPost2010PropOp36
 70
     1
102
RTVSPost2010Prop37
 90
       50
102
RTVSPost2010PropOp37
 70
     1
102
RTVSPost2010Prop38
140
0.0
102
RTVSPost2010PropOp38
 70
     1
102
RTVSPost2010Prop39
140
1.0
102
RTVSPost2010PropOp39
 70
     1
102
RTVSPost2010Prop40
 90
        0
102
RTVSPost2010PropOp40
 70
     1
102
RTVSPost2010Prop41ColorIndex
 90
       18
102
RTVSPost2010Prop41ColorRGB
 90
        0
102
RTVSPost2010PropOp41
 70
     1
102
RTVSPost2010Prop42
 90
       50
102
RTVSPost2010PropOp42
 70
     1
102
RTVSPost2010Prop43
 90
        3
102
RTVSPost2010PropOp43
 70
     1
102
RTVSPost2010Prop44ColorIndex
 90
        5
102
RTVSPost2010Prop44ColorRGB
 90
      255
102
RTVSPost2010PropOp44
 70
     1
102
RTVSPost2010Prop45
280
     0
102
RTVSPost2010PropOp45
 70
     1
102
RTVSPost2010Prop46
 90
       50
102
RTVSPost2010PropOp46
 70
     1
102
RTVSPost2010Prop47
 90
       50
102
RTVSPost2010PropOp47
 70
     1
102
RTVSPost2010Prop48
 90
       50
102
RTVSPost2010PropOp48
 70
     1
102
RTVSPost2010Prop49
280
     0
102
RTVSPost2010PropOp49
 70
     1
102
RTVSPost2010Prop50
 90
       50
102
RTVSPost2010PropOp50
 70
     1
102
RTVSPost2010Prop51ColorIndex
 90
      256
102
RTVSPost2010Prop51ColorRGB
 90
-16777216
102
RTVSPost2010PropOp51
 70
     0
102
RTVSPost2010Prop52
140
1.0
102
RTVSPost2010PropOp52
 70
     0
102
RTVSPost2010Prop53
 90
        2
102
RTVSPost2010PropOp53
 70
     1
102
RTVSPost2010Prop54
  1
strokes_ogs.tif
102
RTVSPost2010PropOp54
 70
     1
102
RTVSPost2010Prop55
280
     0
102
RTVSPost2010PropOp55
 70
     1
102
RTVSPost2010Prop56
140
1.0
102
RTVSPost2010PropOp56
 70
     1
102
RTVSPost2010Prop57
140
1.0
102
RTVSPost2010PropOp57
 70
     1
102
RTVSPropertyOp0
 70
     1
102
RTVSPropertyOp1
 70
     1
102
RTVSPropertyOp2
 70
     1
102
RTVSPropertyOp3
 70
     1
102
RTVSPropertyOp4
 70
     1
102
RTVSPropertyOp5
 70
     1
102
RTVSPropertyOp6
 70
     1
102
RTVSPropertyOp7
 70
     1
102
RTVSPropertyOp8
 70
     1
102
RTVSPropertyOp9
 70
     1
102
RTVSPropertyOp10
 70
     1
102
RTVSPropertyOp11
 70
     1
102
RTVSPropertyOp12
 70
     1
102
RTVSPropertyOp13
 70
     1
102
RTVSPropertyOp14
 70
     1
102
RTVSPropertyOp15
 70
     1
102
RTVSPropertyOp16
 70
     1
102
RTVSPropertyOp17
 70
     1
102
RTVSPropertyOp18
 70
     1
102
RTVSPropertyOp19
 70
     1
102
RTVSPropertyOp20
 70
     1
102
RTVSPropertyOp21
 70
     1
102
RTVSPropertyOp22
 70
     1
102
RTVSPropertyOp23
 70
     1
102
RTVSPropertyOp24
 70
     1
102
RTVSPropertyOp25
 70
     1
102
RTVSPropertyOp26
 70
     1
102
RTVSPropertyOp27
 70
     1
102
RTVSPropertyOp28
 70
     1
102
RTVSPropertyOp29
 70
     1
102
RTVSPropertyOp30
 70
     1
102
RTVSPropertyOp31
 70
     1
102
RTVSPropertyOp32
 70
     1
102
RTVSPropertyOp33
 70
     1
102
RTVSPropertyOp34
 70
     1
102
RTVSPropertyOp35
 70
     1
102
RTVSPropertyOp36
 70
     1
102
RTVSPropertyOp37
 70
     1
102
RTVSPropertyOp38
 70
     1
102
RTVSPropertyOp39
 70
     1
102
RTVSPropertyOp40
 70
     1
102
RTVSPropertyOp41
 70
     1
102
RTVSPropertyOp42
 70
     1
102
RTVSPropertyOp43
 70
     1
102
RTVSPropertyOp44
 70
     1
102
RTVSPropertyOp45
 70
     1
102
RTVSPropertyOp46
 70
     1
102
RTVSPropertyOp47
 70
     1
102
RTVSPropertyOp48
 70
     1
102
RTVSPropertyOp49
 70
     1
102
RTVSPropertyOp50
 70
     1
102
RTVSPropertyOp51
 70
     0
102
RTVSPropertyOp52
 70
     0
102
RTVSPropertyOp53
 70
     1
102
RTVSPropertyOp54
 70
     1
102
RTVSPropertyOp55
 70
     1
102
RTVSPropertyOp56
 70
     1
102
RTVSPropertyOp57
 70
     1
102
RTVSPropertyOp58
 70
     1
102
RTVSPropertyOp59
 70
     1
102
RTVSPropertyOp60
 70
     1
102
RTVSPropertyOp61
 70
     1
102
RTVSPropertyOp62
 70
     1
  0
XRECORD
  5
5613
102
{ACAD_REACTORS
330
5612
102
}
330
5612
100
AcDbXrecord
280
     1
102
RTVSPost2010Prop28
280
     0
102
RTVSPost2010PropOp28
 70
     1
102
RTVSPost2010Prop29
280
     1
102
RTVSPost2010PropOp29
 70
     1
102
RTVSPost2010Prop30
280
     1
102
RTVSPost2010PropOp30
 70
     1
102
RTVSPost2010Prop31
280
     0
102
RTVSPost2010PropOp31
 70
     1
102
RTVSPost2010Prop32
280
     0
102
RTVSPost2010PropOp32
 70
     1
102
RTVSPost2010Prop33
280
     0
102
RTVSPost2010PropOp33
 70
     1
102
RTVSPost2010Prop34
280
     0
102
RTVSPost2010PropOp34
 70
     1
102
RTVSPost2010Prop35
280
     0
102
RTVSPost2010PropOp35
 70
     1
102
RTVSPost2010Prop36
280
     0
102
RTVSPost2010PropOp36
 70
     1
102
RTVSPost2010Prop37
 90
       50
102
RTVSPost2010PropOp37
 70
     1
102
RTVSPost2010Prop38
140
0.0
102
RTVSPost2010PropOp38
 70
     1
102
RTVSPost2010Prop39
140
1.0
102
RTVSPost2010PropOp39
 70
     1
102
RTVSPost2010Prop40
 90
        0
102
RTVSPost2010PropOp40
 70
     1
102
RTVSPost2010Prop41ColorIndex
 90
       18
102
RTVSPost2010Prop41ColorRGB
 90
        0
102
RTVSPost2010PropOp41
 70
     1
102
RTVSPost2010Prop42
 90
       50
102
RTVSPost2010PropOp42
 70
     1
102
RTVSPost2010Prop43
 90
        3
102
RTVSPost2010PropOp43
 70
     1
102
RTVSPost2010Prop44ColorIndex
 90
        5
102
RTVSPost2010Prop44ColorRGB
 90
      255
102
RTVSPost2010PropOp44
 70
     1
102
RTVSPost2010Prop45
280
     0
102
RTVSPost2010PropOp45
 70
     1
102
RTVSPost2010Prop46
 90
       50
102
RTVSPost2010PropOp46
 70
     1
102
RTVSPost2010Prop47
 90
       50
102
RTVSPost2010PropOp47
 70
     1
102
RTVSPost2010Prop48
 90
       50
102
RTVSPost2010PropOp48
 70
     1
102
RTVSPost2010Prop49
280
     0
102
RTVSPost2010PropOp49
 70
     1
102
RTVSPost2010Prop50
 90
       50
102
RTVSPost2010PropOp50
 70
     1
102
RTVSPost2010Prop51ColorIndex
 90
      256
102
RTVSPost2010Prop51ColorRGB
 90
-16777216
102
RTVSPost2010PropOp51
 70
     0
102
RTVSPost2010Prop52
140
1.0
102
RTVSPost2010PropOp52
 70
     0
102
RTVSPost2010Prop53
 90
        2
102
RTVSPost2010PropOp53
 70
     1
102
RTVSPost2010Prop54
  1
strokes_ogs.tif
102
RTVSPost2010PropOp54
 70
     1
102
RTVSPost2010Prop55
280
     0
102
RTVSPost2010PropOp55
 70
     1
102
RTVSPost2010Prop56
140
1.0
102
RTVSPost2010PropOp56
 70
     1
102
RTVSPost2010Prop57
140
1.0
102
RTVSPost2010PropOp57
 70
     1
102
RTVSPropertyOp0
 70
     1
102
RTVSPropertyOp1
 70
     1
102
RTVSPropertyOp2
 70
     1
102
RTVSPropertyOp3
 70
     1
102
RTVSPropertyOp4
 70
     1
102
RTVSPropertyOp5
 70
     1
102
RTVSPropertyOp6
 70
     1
102
RTVSPropertyOp7
 70
     1
102
RTVSPropertyOp8
 70
     1
102
RTVSPropertyOp9
 70
     1
102
RTVSPropertyOp10
 70
     1
102
RTVSPropertyOp11
 70
     1
102
RTVSPropertyOp12
 70
     1
102
RTVSPropertyOp13
 70
     1
102
RTVSPropertyOp14
 70
     1
102
RTVSPropertyOp15
 70
     1
102
RTVSPropertyOp16
 70
     1
102
RTVSPropertyOp17
 70
     1
102
RTVSPropertyOp18
 70
     1
102
RTVSPropertyOp19
 70
     1
102
RTVSPropertyOp20
 70
     1
102
RTVSPropertyOp21
 70
     1
102
RTVSPropertyOp22
 70
     1
102
RTVSPropertyOp23
 70
     1
102
RTVSPropertyOp24
 70
     1
102
RTVSPropertyOp25
 70
     1
102
RTVSPropertyOp26
 70
     1
102
RTVSPropertyOp27
 70
     1
102
RTVSPropertyOp28
 70
     1
102
RTVSPropertyOp29
 70
     1
102
RTVSPropertyOp30
 70
     1
102
RTVSPropertyOp31
 70
     1
102
RTVSPropertyOp32
 70
     1
102
RTVSPropertyOp33
 70
     1
102
RTVSPropertyOp34
 70
     1
102
RTVSPropertyOp35
 70
     1
102
RTVSPropertyOp36
 70
     1
102
RTVSPropertyOp37
 70
     1
102
RTVSPropertyOp38
 70
     1
102
RTVSPropertyOp39
 70
     1
102
RTVSPropertyOp40
 70
     1
102
RTVSPropertyOp41
 70
     1
102
RTVSPropertyOp42
 70
     1
102
RTVSPropertyOp43
 70
     1
102
RTVSPropertyOp44
 70
     1
102
RTVSPropertyOp45
 70
     1
102
RTVSPropertyOp46
 70
     1
102
RTVSPropertyOp47
 70
     1
102
RTVSPropertyOp48
 70
     1
102
RTVSPropertyOp49
 70
     1
102
RTVSPropertyOp50
 70
     1
102
RTVSPropertyOp51
 70
     0
102
RTVSPropertyOp52
 70
     0
102
RTVSPropertyOp53
 70
     1
102
RTVSPropertyOp54
 70
     1
102
RTVSPropertyOp55
 70
     1
102
RTVSPropertyOp56
 70
     1
102
RTVSPropertyOp57
 70
     1
102
RTVSPropertyOp58
 70
     1
102
RTVSPropertyOp59
 70
     1
102
RTVSPropertyOp60
 70
     1
102
RTVSPropertyOp61
 70
     1
102
RTVSPropertyOp62
 70
     1
  0
XRECORD
  5
562D
102
{ACAD_REACTORS
330
562C
102
}
330
562C
100
AcDbXrecord
280
     1
102
RTVSPost2010Prop28
280
     0
102
RTVSPost2010PropOp28
 70
     1
102
RTVSPost2010Prop29
280
     1
102
RTVSPost2010PropOp29
 70
     1
102
RTVSPost2010Prop30
280
     1
102
RTVSPost2010PropOp30
 70
     1
102
RTVSPost2010Prop31
280
     0
102
RTVSPost2010PropOp31
 70
     1
102
RTVSPost2010Prop32
280
     0
102
RTVSPost2010PropOp32
 70
     1
102
RTVSPost2010Prop33
280
     0
102
RTVSPost2010PropOp33
 70
     1
102
RTVSPost2010Prop34
280
     0
102
RTVSPost2010PropOp34
 70
     1
102
RTVSPost2010Prop35
280
     0
102
RTVSPost2010PropOp35
 70
     1
102
RTVSPost2010Prop36
280
     0
102
RTVSPost2010PropOp36
 70
     1
102
RTVSPost2010Prop37
 90
       50
102
RTVSPost2010PropOp37
 70
     0
102
RTVSPost2010Prop38
140
0.0
102
RTVSPost2010PropOp38
 70
     0
102
RTVSPost2010Prop39
140
1.0
102
RTVSPost2010PropOp39
 70
     0
102
RTVSPost2010Prop40
 90
        0
102
RTVSPost2010PropOp40
 70
     0
102
RTVSPost2010Prop41ColorIndex
 90
       18
102
RTVSPost2010Prop41ColorRGB
 90
        0
102
RTVSPost2010PropOp41
 70
     0
102
RTVSPost2010Prop42
 90
       50
102
RTVSPost2010PropOp42
 70
     0
102
RTVSPost2010Prop43
 90
        3
102
RTVSPost2010PropOp43
 70
     0
102
RTVSPost2010Prop44ColorIndex
 90
        5
102
RTVSPost2010Prop44ColorRGB
 90
      255
102
RTVSPost2010PropOp44
 70
     0
102
RTVSPost2010Prop45
280
     0
102
RTVSPost2010PropOp45
 70
     1
102
RTVSPost2010Prop46
 90
       50
102
RTVSPost2010PropOp46
 70
     0
102
RTVSPost2010Prop47
 90
       50
102
RTVSPost2010PropOp47
 70
     0
102
RTVSPost2010Prop48
 90
       50
102
RTVSPost2010PropOp48
 70
     0
102
RTVSPost2010Prop49
280
     0
102
RTVSPost2010PropOp49
 70
     1
102
RTVSPost2010Prop50
 90
       50
102
RTVSPost2010PropOp50
 70
     0
102
RTVSPost2010Prop51ColorIndex
 90
      256
102
RTVSPost2010Prop51ColorRGB
 90
-16777216
102
RTVSPost2010PropOp51
 70
     0
102
RTVSPost2010Prop52
140
1.0
102
RTVSPost2010PropOp52
 70
     0
102
RTVSPost2010Prop53
 90
        2
102
RTVSPost2010PropOp53
 70
     0
102
RTVSPost2010Prop54
  1
strokes_ogs.tif
102
RTVSPost2010PropOp54
 70
     0
102
RTVSPost2010Prop55
280
     0
102
RTVSPost2010PropOp55
 70
     1
102
RTVSPost2010Prop56
140
1.0
102
RTVSPost2010PropOp56
 70
     0
102
RTVSPost2010Prop57
140
1.0
102
RTVSPost2010PropOp57
 70
     0
102
RTVSPropertyOp0
 70
     0
102
RTVSPropertyOp1
 70
     0
102
RTVSPropertyOp2
 70
     0
102
RTVSPropertyOp3
 70
     0
102
RTVSPropertyOp4
 70
     0
102
RTVSPropertyOp5
 70
     0
102
RTVSPropertyOp6
 70
     0
102
RTVSPropertyOp7
 70
     0
102
RTVSPropertyOp8
 70
     0
102
RTVSPropertyOp9
 70
     0
102
RTVSPropertyOp10
 70
     0
102
RTVSPropertyOp11
 70
     0
102
RTVSPropertyOp12
 70
     0
102
RTVSPropertyOp13
 70
     0
102
RTVSPropertyOp14
 70
     2
102
RTVSPropertyOp15
 70
     0
102
RTVSPropertyOp16
 70
     0
102
RTVSPropertyOp17
 70
     0
102
RTVSPropertyOp18
 70
     0
102
RTVSPropertyOp19
 70
     0
102
RTVSPropertyOp20
 70
     0
102
RTVSPropertyOp21
 70
     0
102
RTVSPropertyOp22
 70
     0
102
RTVSPropertyOp23
 70
     0
102
RTVSPropertyOp24
 70
     0
102
RTVSPropertyOp25
 70
     0
102
RTVSPropertyOp26
 70
     0
102
RTVSPropertyOp27
 70
     0
102
RTVSPropertyOp28
 70
     1
102
RTVSPropertyOp29
 70
     1
102
RTVSPropertyOp30
 70
     1
102
RTVSPropertyOp31
 70
     1
102
RTVSPropertyOp32
 70
     1
102
RTVSPropertyOp33
 70
     1
102
RTVSPropertyOp34
 70
     1
102
RTVSPropertyOp35
 70
     1
102
RTVSPropertyOp36
 70
     1
102
RTVSPropertyOp37
 70
     0
102
RTVSPropertyOp38
 70
     0
102
RTVSPropertyOp39
 70
     0
102
RTVSPropertyOp40
 70
     0
102
RTVSPropertyOp41
 70
     0
102
RTVSPropertyOp42
 70
     0
102
RTVSPropertyOp43
 70
     0
102
RTVSPropertyOp44
 70
     0
102
RTVSPropertyOp45
 70
     1
102
RTVSPropertyOp46
 70
     0
102
RTVSPropertyOp47
 70
     0
102
RTVSPropertyOp48
 70
     0
102
RTVSPropertyOp49
 70
     1
102
RTVSPropertyOp50
 70
     0
102
RTVSPropertyOp51
 70
     0
102
RTVSPropertyOp52
 70
     0
102
RTVSPropertyOp53
 70
     0
102
RTVSPropertyOp54
 70
     0
102
RTVSPropertyOp55
 70
     1
102
RTVSPropertyOp56
 70
     0
102
RTVSPropertyOp57
 70
     0
102
RTVSPropertyOp58
 70
     0
102
RTVSPropertyOp59
 70
     0
102
RTVSPropertyOp60
 70
     0
102
RTVSPropertyOp61
 70
     0
102
RTVSPropertyOp62
 70
     0
  0
XRECORD
  5
561B
102
{ACAD_REACTORS
330
561A
102
}
330
561A
100
AcDbXrecord
280
     1
102
RTVSPost2010Prop28
280
     0
102
RTVSPost2010PropOp28
 70
     1
102
RTVSPost2010Prop29
280
     1
102
RTVSPost2010PropOp29
 70
     1
102
RTVSPost2010Prop30
280
     1
102
RTVSPost2010PropOp30
 70
     1
102
RTVSPost2010Prop31
280
     0
102
RTVSPost2010PropOp31
 70
     1
102
RTVSPost2010Prop32
280
     0
102
RTVSPost2010PropOp32
 70
     1
102
RTVSPost2010Prop33
280
     0
102
RTVSPost2010PropOp33
 70
     1
102
RTVSPost2010Prop34
280
     0
102
RTVSPost2010PropOp34
 70
     1
102
RTVSPost2010Prop35
280
     0
102
RTVSPost2010PropOp35
 70
     1
102
RTVSPost2010Prop36
280
     0
102
RTVSPost2010PropOp36
 70
     1
102
RTVSPost2010Prop37
 90
       50
102
RTVSPost2010PropOp37
 70
     1
102
RTVSPost2010Prop38
140
0.0
102
RTVSPost2010PropOp38
 70
     1
102
RTVSPost2010Prop39
140
1.0
102
RTVSPost2010PropOp39
 70
     1
102
RTVSPost2010Prop40
 90
        0
102
RTVSPost2010PropOp40
 70
     1
102
RTVSPost2010Prop41ColorIndex
 90
       18
102
RTVSPost2010Prop41ColorRGB
 90
        0
102
RTVSPost2010PropOp41
 70
     1
102
RTVSPost2010Prop42
 90
       50
102
RTVSPost2010PropOp42
 70
     1
102
RTVSPost2010Prop43
 90
        3
102
RTVSPost2010PropOp43
 70
     1
102
RTVSPost2010Prop44ColorIndex
 90
        5
102
RTVSPost2010Prop44ColorRGB
 90
      255
102
RTVSPost2010PropOp44
 70
     1
102
RTVSPost2010Prop45
280
     0
102
RTVSPost2010PropOp45
 70
     1
102
RTVSPost2010Prop46
 90
       50
102
RTVSPost2010PropOp46
 70
     1
102
RTVSPost2010Prop47
 90
       50
102
RTVSPost2010PropOp47
 70
     1
102
RTVSPost2010Prop48
 90
       50
102
RTVSPost2010PropOp48
 70
     1
102
RTVSPost2010Prop49
280
     0
102
RTVSPost2010PropOp49
 70
     1
102
RTVSPost2010Prop50
 90
       50
102
RTVSPost2010PropOp50
 70
     1
102
RTVSPost2010Prop51ColorIndex
 90
      256
102
RTVSPost2010Prop51ColorRGB
 90
-16777216
102
RTVSPost2010PropOp51
 70
     0
102
RTVSPost2010Prop52
140
1.0
102
RTVSPost2010PropOp52
 70
     0
102
RTVSPost2010Prop53
 90
        2
102
RTVSPost2010PropOp53
 70
     1
102
RTVSPost2010Prop54
  1
strokes_ogs.tif
102
RTVSPost2010PropOp54
 70
     1
102
RTVSPost2010Prop55
280
     0
102
RTVSPost2010PropOp55
 70
     1
102
RTVSPost2010Prop56
140
1.0
102
RTVSPost2010PropOp56
 70
     1
102
RTVSPost2010Prop57
140
1.0
102
RTVSPost2010PropOp57
 70
     1
102
RTVSPropertyOp0
 70
     1
102
RTVSPropertyOp1
 70
     1
102
RTVSPropertyOp2
 70
     1
102
RTVSPropertyOp3
 70
     1
102
RTVSPropertyOp4
 70
     1
102
RTVSPropertyOp5
 70
     1
102
RTVSPropertyOp6
 70
     1
102
RTVSPropertyOp7
 70
     1
102
RTVSPropertyOp8
 70
     1
102
RTVSPropertyOp9
 70
     1
102
RTVSPropertyOp10
 70
     1
102
RTVSPropertyOp11
 70
     1
102
RTVSPropertyOp12
 70
     1
102
RTVSPropertyOp13
 70
     1
102
RTVSPropertyOp14
 70
     1
102
RTVSPropertyOp15
 70
     1
102
RTVSPropertyOp16
 70
     1
102
RTVSPropertyOp17
 70
     1
102
RTVSPropertyOp18
 70
     1
102
RTVSPropertyOp19
 70
     1
102
RTVSPropertyOp20
 70
     1
102
RTVSPropertyOp21
 70
     1
102
RTVSPropertyOp22
 70
     1
102
RTVSPropertyOp23
 70
     1
102
RTVSPropertyOp24
 70
     1
102
RTVSPropertyOp25
 70
     1
102
RTVSPropertyOp26
 70
     1
102
RTVSPropertyOp27
 70
     1
102
RTVSPropertyOp28
 70
     1
102
RTVSPropertyOp29
 70
     1
102
RTVSPropertyOp30
 70
     1
102
RTVSPropertyOp31
 70
     1
102
RTVSPropertyOp32
 70
     1
102
RTVSPropertyOp33
 70
     1
102
RTVSPropertyOp34
 70
     1
102
RTVSPropertyOp35
 70
     1
102
RTVSPropertyOp36
 70
     1
102
RTVSPropertyOp37
 70
     1
102
RTVSPropertyOp38
 70
     1
102
RTVSPropertyOp39
 70
     1
102
RTVSPropertyOp40
 70
     1
102
RTVSPropertyOp41
 70
     1
102
RTVSPropertyOp42
 70
     1
102
RTVSPropertyOp43
 70
     1
102
RTVSPropertyOp44
 70
     1
102
RTVSPropertyOp45
 70
     1
102
RTVSPropertyOp46
 70
     1
102
RTVSPropertyOp47
 70
     1
102
RTVSPropertyOp48
 70
     1
102
RTVSPropertyOp49
 70
     1
102
RTVSPropertyOp50
 70
     1
102
RTVSPropertyOp51
 70
     0
102
RTVSPropertyOp52
 70
     0
102
RTVSPropertyOp53
 70
     1
102
RTVSPropertyOp54
 70
     1
102
RTVSPropertyOp55
 70
     1
102
RTVSPropertyOp56
 70
     1
102
RTVSPropertyOp57
 70
     1
102
RTVSPropertyOp58
 70
     1
102
RTVSPropertyOp59
 70
     1
102
RTVSPropertyOp60
 70
     1
102
RTVSPropertyOp61
 70
     1
102
RTVSPropertyOp62
 70
     1
  0
XRECORD
  5
55FF
102
{ACAD_REACTORS
330
55FE
102
}
330
55FE
100
AcDbXrecord
280
     1
102
RTVSPost2010Prop28
280
     0
102
RTVSPost2010PropOp28
 70
     1
102
RTVSPost2010Prop29
280
     1
102
RTVSPost2010PropOp29
 70
     1
102
RTVSPost2010Prop30
280
     1
102
RTVSPost2010PropOp30
 70
     1
102
RTVSPost2010Prop31
280
     0
102
RTVSPost2010PropOp31
 70
     1
102
RTVSPost2010Prop32
280
     0
102
RTVSPost2010PropOp32
 70
     1
102
RTVSPost2010Prop33
280
     0
102
RTVSPost2010PropOp33
 70
     1
102
RTVSPost2010Prop34
280
     0
102
RTVSPost2010PropOp34
 70
     1
102
RTVSPost2010Prop35
280
     0
102
RTVSPost2010PropOp35
 70
     1
102
RTVSPost2010Prop36
280
     0
102
RTVSPost2010PropOp36
 70
     1
102
RTVSPost2010Prop37
 90
       50
102
RTVSPost2010PropOp37
 70
     1
102
RTVSPost2010Prop38
140
0.0
102
RTVSPost2010PropOp38
 70
     1
102
RTVSPost2010Prop39
140
1.0
102
RTVSPost2010PropOp39
 70
     1
102
RTVSPost2010Prop40
 90
        0
102
RTVSPost2010PropOp40
 70
     1
102
RTVSPost2010Prop41ColorIndex
 90
       18
102
RTVSPost2010Prop41ColorRGB
 90
        0
102
RTVSPost2010PropOp41
 70
     1
102
RTVSPost2010Prop42
 90
       50
102
RTVSPost2010PropOp42
 70
     1
102
RTVSPost2010Prop43
 90
        3
102
RTVSPost2010PropOp43
 70
     1
102
RTVSPost2010Prop44ColorIndex
 90
        5
102
RTVSPost2010Prop44ColorRGB
 90
      255
102
RTVSPost2010PropOp44
 70
     1
102
RTVSPost2010Prop45
280
     0
102
RTVSPost2010PropOp45
 70
     1
102
RTVSPost2010Prop46
 90
       50
102
RTVSPost2010PropOp46
 70
     1
102
RTVSPost2010Prop47
 90
       50
102
RTVSPost2010PropOp47
 70
     1
102
RTVSPost2010Prop48
 90
       50
102
RTVSPost2010PropOp48
 70
     1
102
RTVSPost2010Prop49
280
     0
102
RTVSPost2010PropOp49
 70
     1
102
RTVSPost2010Prop50
 90
       50
102
RTVSPost2010PropOp50
 70
     1
102
RTVSPost2010Prop51ColorIndex
 90
      256
102
RTVSPost2010Prop51ColorRGB
 90
-16777216
102
RTVSPost2010PropOp51
 70
     0
102
RTVSPost2010Prop52
140
1.0
102
RTVSPost2010PropOp52
 70
     0
102
RTVSPost2010Prop53
 90
        2
102
RTVSPost2010PropOp53
 70
     1
102
RTVSPost2010Prop54
  1
strokes_ogs.tif
102
RTVSPost2010PropOp54
 70
     1
102
RTVSPost2010Prop55
280
     0
102
RTVSPost2010PropOp55
 70
     1
102
RTVSPost2010Prop56
140
1.0
102
RTVSPost2010PropOp56
 70
     1
102
RTVSPost2010Prop57
140
1.0
102
RTVSPost2010PropOp57
 70
     1
102
RTVSPropertyOp0
 70
     1
102
RTVSPropertyOp1
 70
     1
102
RTVSPropertyOp2
 70
     1
102
RTVSPropertyOp3
 70
     1
102
RTVSPropertyOp4
 70
     1
102
RTVSPropertyOp5
 70
     1
102
RTVSPropertyOp6
 70
     1
102
RTVSPropertyOp7
 70
     1
102
RTVSPropertyOp8
 70
     1
102
RTVSPropertyOp9
 70
     1
102
RTVSPropertyOp10
 70
     1
102
RTVSPropertyOp11
 70
     1
102
RTVSPropertyOp12
 70
     1
102
RTVSPropertyOp13
 70
     1
102
RTVSPropertyOp14
 70
     1
102
RTVSPropertyOp15
 70
     1
102
RTVSPropertyOp16
 70
     1
102
RTVSPropertyOp17
 70
     1
102
RTVSPropertyOp18
 70
     1
102
RTVSPropertyOp19
 70
     1
102
RTVSPropertyOp20
 70
     1
102
RTVSPropertyOp21
 70
     1
102
RTVSPropertyOp22
 70
     1
102
RTVSPropertyOp23
 70
     1
102
RTVSPropertyOp24
 70
     1
102
RTVSPropertyOp25
 70
     1
102
RTVSPropertyOp26
 70
     1
102
RTVSPropertyOp27
 70
     1
102
RTVSPropertyOp28
 70
     1
102
RTVSPropertyOp29
 70
     1
102
RTVSPropertyOp30
 70
     1
102
RTVSPropertyOp31
 70
     1
102
RTVSPropertyOp32
 70
     1
102
RTVSPropertyOp33
 70
     1
102
RTVSPropertyOp34
 70
     1
102
RTVSPropertyOp35
 70
     1
102
RTVSPropertyOp36
 70
     1
102
RTVSPropertyOp37
 70
     1
102
RTVSPropertyOp38
 70
     1
102
RTVSPropertyOp39
 70
     1
102
RTVSPropertyOp40
 70
     1
102
RTVSPropertyOp41
 70
     1
102
RTVSPropertyOp42
 70
     1
102
RTVSPropertyOp43
 70
     1
102
RTVSPropertyOp44
 70
     1
102
RTVSPropertyOp45
 70
     1
102
RTVSPropertyOp46
 70
     1
102
RTVSPropertyOp47
 70
     1
102
RTVSPropertyOp48
 70
     1
102
RTVSPropertyOp49
 70
     1
102
RTVSPropertyOp50
 70
     1
102
RTVSPropertyOp51
 70
     0
102
RTVSPropertyOp52
 70
     0
102
RTVSPropertyOp53
 70
     1
102
RTVSPropertyOp54
 70
     1
102
RTVSPropertyOp55
 70
     1
102
RTVSPropertyOp56
 70
     1
102
RTVSPropertyOp57
 70
     1
102
RTVSPropertyOp58
 70
     1
102
RTVSPropertyOp59
 70
     1
102
RTVSPropertyOp60
 70
     1
102
RTVSPropertyOp61
 70
     1
102
RTVSPropertyOp62
 70
     1
  0
XRECORD
  5
5601
102
{ACAD_REACTORS
330
5600
102
}
330
5600
100
AcDbXrecord
280
     1
102
RTVSPost2010Prop28
280
     0
102
RTVSPost2010PropOp28
 70
     1
102
RTVSPost2010Prop29
280
     1
102
RTVSPost2010PropOp29
 70
     1
102
RTVSPost2010Prop30
280
     1
102
RTVSPost2010PropOp30
 70
     1
102
RTVSPost2010Prop31
280
     0
102
RTVSPost2010PropOp31
 70
     1
102
RTVSPost2010Prop32
280
     0
102
RTVSPost2010PropOp32
 70
     1
102
RTVSPost2010Prop33
280
     0
102
RTVSPost2010PropOp33
 70
     1
102
RTVSPost2010Prop34
280
     0
102
RTVSPost2010PropOp34
 70
     1
102
RTVSPost2010Prop35
280
     0
102
RTVSPost2010PropOp35
 70
     1
102
RTVSPost2010Prop36
280
     0
102
RTVSPost2010PropOp36
 70
     1
102
RTVSPost2010Prop37
 90
       50
102
RTVSPost2010PropOp37
 70
     1
102
RTVSPost2010Prop38
140
0.0
102
RTVSPost2010PropOp38
 70
     1
102
RTVSPost2010Prop39
140
1.0
102
RTVSPost2010PropOp39
 70
     1
102
RTVSPost2010Prop40
 90
        0
102
RTVSPost2010PropOp40
 70
     1
102
RTVSPost2010Prop41ColorIndex
 90
       18
102
RTVSPost2010Prop41ColorRGB
 90
        0
102
RTVSPost2010PropOp41
 70
     1
102
RTVSPost2010Prop42
 90
       50
102
RTVSPost2010PropOp42
 70
     1
102
RTVSPost2010Prop43
 90
        3
102
RTVSPost2010PropOp43
 70
     1
102
RTVSPost2010Prop44ColorIndex
 90
        5
102
RTVSPost2010Prop44ColorRGB
 90
      255
102
RTVSPost2010PropOp44
 70
     1
102
RTVSPost2010Prop45
280
     0
102
RTVSPost2010PropOp45
 70
     1
102
RTVSPost2010Prop46
 90
       50
102
RTVSPost2010PropOp46
 70
     1
102
RTVSPost2010Prop47
 90
       50
102
RTVSPost2010PropOp47
 70
     1
102
RTVSPost2010Prop48
 90
       50
102
RTVSPost2010PropOp48
 70
     1
102
RTVSPost2010Prop49
280
     0
102
RTVSPost2010PropOp49
 70
     1
102
RTVSPost2010Prop50
 90
       50
102
RTVSPost2010PropOp50
 70
     1
102
RTVSPost2010Prop51ColorIndex
 90
      256
102
RTVSPost2010Prop51ColorRGB
 90
-16777216
102
RTVSPost2010PropOp51
 70
     0
102
RTVSPost2010Prop52
140
1.0
102
RTVSPost2010PropOp52
 70
     0
102
RTVSPost2010Prop53
 90
        2
102
RTVSPost2010PropOp53
 70
     1
102
RTVSPost2010Prop54
  1
strokes_ogs.tif
102
RTVSPost2010PropOp54
 70
     1
102
RTVSPost2010Prop55
280
     0
102
RTVSPost2010PropOp55
 70
     1
102
RTVSPost2010Prop56
140
1.0
102
RTVSPost2010PropOp56
 70
     1
102
RTVSPost2010Prop57
140
1.0
102
RTVSPost2010PropOp57
 70
     1
102
RTVSPropertyOp0
 70
     1
102
RTVSPropertyOp1
 70
     1
102
RTVSPropertyOp2
 70
     1
102
RTVSPropertyOp3
 70
     1
102
RTVSPropertyOp4
 70
     1
102
RTVSPropertyOp5
 70
     1
102
RTVSPropertyOp6
 70
     1
102
RTVSPropertyOp7
 70
     1
102
RTVSPropertyOp8
 70
     1
102
RTVSPropertyOp9
 70
     1
102
RTVSPropertyOp10
 70
     1
102
RTVSPropertyOp11
 70
     1
102
RTVSPropertyOp12
 70
     1
102
RTVSPropertyOp13
 70
     1
102
RTVSPropertyOp14
 70
     1
102
RTVSPropertyOp15
 70
     1
102
RTVSPropertyOp16
 70
     1
102
RTVSPropertyOp17
 70
     1
102
RTVSPropertyOp18
 70
     1
102
RTVSPropertyOp19
 70
     1
102
RTVSPropertyOp20
 70
     1
102
RTVSPropertyOp21
 70
     1
102
RTVSPropertyOp22
 70
     1
102
RTVSPropertyOp23
 70
     1
102
RTVSPropertyOp24
 70
     1
102
RTVSPropertyOp25
 70
     1
102
RTVSPropertyOp26
 70
     1
102
RTVSPropertyOp27
 70
     1
102
RTVSPropertyOp28
 70
     1
102
RTVSPropertyOp29
 70
     1
102
RTVSPropertyOp30
 70
     1
102
RTVSPropertyOp31
 70
     1
102
RTVSPropertyOp32
 70
     1
102
RTVSPropertyOp33
 70
     1
102
RTVSPropertyOp34
 70
     1
102
RTVSPropertyOp35
 70
     1
102
RTVSPropertyOp36
 70
     1
102
RTVSPropertyOp37
 70
     1
102
RTVSPropertyOp38
 70
     1
102
RTVSPropertyOp39
 70
     1
102
RTVSPropertyOp40
 70
     1
102
RTVSPropertyOp41
 70
     1
102
RTVSPropertyOp42
 70
     1
102
RTVSPropertyOp43
 70
     1
102
RTVSPropertyOp44
 70
     1
102
RTVSPropertyOp45
 70
     1
102
RTVSPropertyOp46
 70
     1
102
RTVSPropertyOp47
 70
     1
102
RTVSPropertyOp48
 70
     1
102
RTVSPropertyOp49
 70
     1
102
RTVSPropertyOp50
 70
     1
102
RTVSPropertyOp51
 70
     0
102
RTVSPropertyOp52
 70
     0
102
RTVSPropertyOp53
 70
     1
102
RTVSPropertyOp54
 70
     1
102
RTVSPropertyOp55
 70
     1
102
RTVSPropertyOp56
 70
     1
102
RTVSPropertyOp57
 70
     1
102
RTVSPropertyOp58
 70
     1
102
RTVSPropertyOp59
 70
     1
102
RTVSPropertyOp60
 70
     1
102
RTVSPropertyOp61
 70
     1
102
RTVSPropertyOp62
 70
     1
  0
XRECORD
  5
5603
102
{ACAD_REACTORS
330
5602
102
}
330
5602
100
AcDbXrecord
280
     1
102
RTVSPost2010Prop28
280
     0
102
RTVSPost2010PropOp28
 70
     1
102
RTVSPost2010Prop29
280
     1
102
RTVSPost2010PropOp29
 70
     1
102
RTVSPost2010Prop30
280
     1
102
RTVSPost2010PropOp30
 70
     1
102
RTVSPost2010Prop31
280
     0
102
RTVSPost2010PropOp31
 70
     1
102
RTVSPost2010Prop32
280
     0
102
RTVSPost2010PropOp32
 70
     1
102
RTVSPost2010Prop33
280
     0
102
RTVSPost2010PropOp33
 70
     1
102
RTVSPost2010Prop34
280
     0
102
RTVSPost2010PropOp34
 70
     1
102
RTVSPost2010Prop35
280
     0
102
RTVSPost2010PropOp35
 70
     1
102
RTVSPost2010Prop36
280
     0
102
RTVSPost2010PropOp36
 70
     1
102
RTVSPost2010Prop37
 90
       50
102
RTVSPost2010PropOp37
 70
     1
102
RTVSPost2010Prop38
140
0.0
102
RTVSPost2010PropOp38
 70
     1
102
RTVSPost2010Prop39
140
1.0
102
RTVSPost2010PropOp39
 70
     1
102
RTVSPost2010Prop40
 90
        0
102
RTVSPost2010PropOp40
 70
     1
102
RTVSPost2010Prop41ColorIndex
 90
       18
102
RTVSPost2010Prop41ColorRGB
 90
        0
102
RTVSPost2010PropOp41
 70
     1
102
RTVSPost2010Prop42
 90
       50
102
RTVSPost2010PropOp42
 70
     1
102
RTVSPost2010Prop43
 90
        3
102
RTVSPost2010PropOp43
 70
     1
102
RTVSPost2010Prop44ColorIndex
 90
        5
102
RTVSPost2010Prop44ColorRGB
 90
      255
102
RTVSPost2010PropOp44
 70
     1
102
RTVSPost2010Prop45
280
     0
102
RTVSPost2010PropOp45
 70
     1
102
RTVSPost2010Prop46
 90
       50
102
RTVSPost2010PropOp46
 70
     1
102
RTVSPost2010Prop47
 90
       50
102
RTVSPost2010PropOp47
 70
     1
102
RTVSPost2010Prop48
 90
       50
102
RTVSPost2010PropOp48
 70
     1
102
RTVSPost2010Prop49
280
     0
102
RTVSPost2010PropOp49
 70
     1
102
RTVSPost2010Prop50
 90
       50
102
RTVSPost2010PropOp50
 70
     1
102
RTVSPost2010Prop51ColorIndex
 90
      256
102
RTVSPost2010Prop51ColorRGB
 90
-16777216
102
RTVSPost2010PropOp51
 70
     0
102
RTVSPost2010Prop52
140
1.0
102
RTVSPost2010PropOp52
 70
     0
102
RTVSPost2010Prop53
 90
        2
102
RTVSPost2010PropOp53
 70
     1
102
RTVSPost2010Prop54
  1
strokes_ogs.tif
102
RTVSPost2010PropOp54
 70
     1
102
RTVSPost2010Prop55
280
     0
102
RTVSPost2010PropOp55
 70
     1
102
RTVSPost2010Prop56
140
1.0
102
RTVSPost2010PropOp56
 70
     1
102
RTVSPost2010Prop57
140
1.0
102
RTVSPost2010PropOp57
 70
     1
102
RTVSPropertyOp0
 70
     1
102
RTVSPropertyOp1
 70
     1
102
RTVSPropertyOp2
 70
     1
102
RTVSPropertyOp3
 70
     1
102
RTVSPropertyOp4
 70
     1
102
RTVSPropertyOp5
 70
     1
102
RTVSPropertyOp6
 70
     1
102
RTVSPropertyOp7
 70
     1
102
RTVSPropertyOp8
 70
     1
102
RTVSPropertyOp9
 70
     1
102
RTVSPropertyOp10
 70
     1
102
RTVSPropertyOp11
 70
     1
102
RTVSPropertyOp12
 70
     1
102
RTVSPropertyOp13
 70
     1
102
RTVSPropertyOp14
 70
     1
102
RTVSPropertyOp15
 70
     1
102
RTVSPropertyOp16
 70
     1
102
RTVSPropertyOp17
 70
     1
102
RTVSPropertyOp18
 70
     1
102
RTVSPropertyOp19
 70
     1
102
RTVSPropertyOp20
 70
     1
102
RTVSPropertyOp21
 70
     1
102
RTVSPropertyOp22
 70
     1
102
RTVSPropertyOp23
 70
     1
102
RTVSPropertyOp24
 70
     1
102
RTVSPropertyOp25
 70
     1
102
RTVSPropertyOp26
 70
     1
102
RTVSPropertyOp27
 70
     1
102
RTVSPropertyOp28
 70
     1
102
RTVSPropertyOp29
 70
     1
102
RTVSPropertyOp30
 70
     1
102
RTVSPropertyOp31
 70
     1
102
RTVSPropertyOp32
 70
     1
102
RTVSPropertyOp33
 70
     1
102
RTVSPropertyOp34
 70
     1
102
RTVSPropertyOp35
 70
     1
102
RTVSPropertyOp36
 70
     1
102
RTVSPropertyOp37
 70
     1
102
RTVSPropertyOp38
 70
     1
102
RTVSPropertyOp39
 70
     1
102
RTVSPropertyOp40
 70
     1
102
RTVSPropertyOp41
 70
     1
102
RTVSPropertyOp42
 70
     1
102
RTVSPropertyOp43
 70
     1
102
RTVSPropertyOp44
 70
     1
102
RTVSPropertyOp45
 70
     1
102
RTVSPropertyOp46
 70
     1
102
RTVSPropertyOp47
 70
     1
102
RTVSPropertyOp48
 70
     1
102
RTVSPropertyOp49
 70
     1
102
RTVSPropertyOp50
 70
     1
102
RTVSPropertyOp51
 70
     0
102
RTVSPropertyOp52
 70
     0
102
RTVSPropertyOp53
 70
     1
102
RTVSPropertyOp54
 70
     1
102
RTVSPropertyOp55
 70
     1
102
RTVSPropertyOp56
 70
     1
102
RTVSPropertyOp57
 70
     1
102
RTVSPropertyOp58
 70
     1
102
RTVSPropertyOp59
 70
     1
102
RTVSPropertyOp60
 70
     1
102
RTVSPropertyOp61
 70
     1
102
RTVSPropertyOp62
 70
     1
  0
XRECORD
  5
5605
102
{ACAD_REACTORS
330
5604
102
}
330
5604
100
AcDbXrecord
280
     1
102
RTVSPost2010Prop28
280
     0
102
RTVSPost2010PropOp28
 70
     1
102
RTVSPost2010Prop29
280
     1
102
RTVSPost2010PropOp29
 70
     1
102
RTVSPost2010Prop30
280
     1
102
RTVSPost2010PropOp30
 70
     1
102
RTVSPost2010Prop31
280
     0
102
RTVSPost2010PropOp31
 70
     1
102
RTVSPost2010Prop32
280
     0
102
RTVSPost2010PropOp32
 70
     1
102
RTVSPost2010Prop33
280
     0
102
RTVSPost2010PropOp33
 70
     1
102
RTVSPost2010Prop34
280
     0
102
RTVSPost2010PropOp34
 70
     1
102
RTVSPost2010Prop35
280
     0
102
RTVSPost2010PropOp35
 70
     1
102
RTVSPost2010Prop36
280
     0
102
RTVSPost2010PropOp36
 70
     1
102
RTVSPost2010Prop37
 90
       50
102
RTVSPost2010PropOp37
 70
     1
102
RTVSPost2010Prop38
140
0.0
102
RTVSPost2010PropOp38
 70
     1
102
RTVSPost2010Prop39
140
1.0
102
RTVSPost2010PropOp39
 70
     1
102
RTVSPost2010Prop40
 90
        0
102
RTVSPost2010PropOp40
 70
     1
102
RTVSPost2010Prop41ColorIndex
 90
       18
102
RTVSPost2010Prop41ColorRGB
 90
        0
102
RTVSPost2010PropOp41
 70
     1
102
RTVSPost2010Prop42
 90
       50
102
RTVSPost2010PropOp42
 70
     1
102
RTVSPost2010Prop43
 90
        3
102
RTVSPost2010PropOp43
 70
     1
102
RTVSPost2010Prop44ColorIndex
 90
        5
102
RTVSPost2010Prop44ColorRGB
 90
      255
102
RTVSPost2010PropOp44
 70
     1
102
RTVSPost2010Prop45
280
     0
102
RTVSPost2010PropOp45
 70
     1
102
RTVSPost2010Prop46
 90
       50
102
RTVSPost2010PropOp46
 70
     1
102
RTVSPost2010Prop47
 90
       50
102
RTVSPost2010PropOp47
 70
     1
102
RTVSPost2010Prop48
 90
       50
102
RTVSPost2010PropOp48
 70
     1
102
RTVSPost2010Prop49
280
     0
102
RTVSPost2010PropOp49
 70
     1
102
RTVSPost2010Prop50
 90
       50
102
RTVSPost2010PropOp50
 70
     1
102
RTVSPost2010Prop51ColorIndex
 90
      256
102
RTVSPost2010Prop51ColorRGB
 90
-16777216
102
RTVSPost2010PropOp51
 70
     0
102
RTVSPost2010Prop52
140
1.0
102
RTVSPost2010PropOp52
 70
     0
102
RTVSPost2010Prop53
 90
        2
102
RTVSPost2010PropOp53
 70
     1
102
RTVSPost2010Prop54
  1
strokes_ogs.tif
102
RTVSPost2010PropOp54
 70
     1
102
RTVSPost2010Prop55
280
     0
102
RTVSPost2010PropOp55
 70
     1
102
RTVSPost2010Prop56
140
1.0
102
RTVSPost2010PropOp56
 70
     1
102
RTVSPost2010Prop57
140
1.0
102
RTVSPost2010PropOp57
 70
     1
102
RTVSPropertyOp0
 70
     1
102
RTVSPropertyOp1
 70
     1
102
RTVSPropertyOp2
 70
     1
102
RTVSPropertyOp3
 70
     1
102
RTVSPropertyOp4
 70
     1
102
RTVSPropertyOp5
 70
     1
102
RTVSPropertyOp6
 70
     1
102
RTVSPropertyOp7
 70
     1
102
RTVSPropertyOp8
 70
     1
102
RTVSPropertyOp9
 70
     1
102
RTVSPropertyOp10
 70
     1
102
RTVSPropertyOp11
 70
     1
102
RTVSPropertyOp12
 70
     1
102
RTVSPropertyOp13
 70
     1
102
RTVSPropertyOp14
 70
     1
102
RTVSPropertyOp15
 70
     1
102
RTVSPropertyOp16
 70
     1
102
RTVSPropertyOp17
 70
     1
102
RTVSPropertyOp18
 70
     1
102
RTVSPropertyOp19
 70
     1
102
RTVSPropertyOp20
 70
     1
102
RTVSPropertyOp21
 70
     1
102
RTVSPropertyOp22
 70
     1
102
RTVSPropertyOp23
 70
     1
102
RTVSPropertyOp24
 70
     1
102
RTVSPropertyOp25
 70
     1
102
RTVSPropertyOp26
 70
     1
102
RTVSPropertyOp27
 70
     1
102
RTVSPropertyOp28
 70
     1
102
RTVSPropertyOp29
 70
     1
102
RTVSPropertyOp30
 70
     1
102
RTVSPropertyOp31
 70
     1
102
RTVSPropertyOp32
 70
     1
102
RTVSPropertyOp33
 70
     1
102
RTVSPropertyOp34
 70
     1
102
RTVSPropertyOp35
 70
     1
102
RTVSPropertyOp36
 70
     1
102
RTVSPropertyOp37
 70
     1
102
RTVSPropertyOp38
 70
     1
102
RTVSPropertyOp39
 70
     1
102
RTVSPropertyOp40
 70
     1
102
RTVSPropertyOp41
 70
     1
102
RTVSPropertyOp42
 70
     1
102
RTVSPropertyOp43
 70
     1
102
RTVSPropertyOp44
 70
     1
102
RTVSPropertyOp45
 70
     1
102
RTVSPropertyOp46
 70
     1
102
RTVSPropertyOp47
 70
     1
102
RTVSPropertyOp48
 70
     1
102
RTVSPropertyOp49
 70
     1
102
RTVSPropertyOp50
 70
     1
102
RTVSPropertyOp51
 70
     0
102
RTVSPropertyOp52
 70
     0
102
RTVSPropertyOp53
 70
     1
102
RTVSPropertyOp54
 70
     1
102
RTVSPropertyOp55
 70
     1
102
RTVSPropertyOp56
 70
     1
102
RTVSPropertyOp57
 70
     1
102
RTVSPropertyOp58
 70
     1
102
RTVSPropertyOp59
 70
     1
102
RTVSPropertyOp60
 70
     1
102
RTVSPropertyOp61
 70
     1
102
RTVSPropertyOp62
 70
     1
  0
XRECORD
  5
560D
102
{ACAD_REACTORS
330
560C
102
}
330
560C
100
AcDbXrecord
280
     1
102
RTVSPost2010Prop28
280
     0
102
RTVSPost2010PropOp28
 70
     1
102
RTVSPost2010Prop29
280
     1
102
RTVSPost2010PropOp29
 70
     1
102
RTVSPost2010Prop30
280
     1
102
RTVSPost2010PropOp30
 70
     1
102
RTVSPost2010Prop31
280
     0
102
RTVSPost2010PropOp31
 70
     1
102
RTVSPost2010Prop32
280
     0
102
RTVSPost2010PropOp32
 70
     1
102
RTVSPost2010Prop33
280
     0
102
RTVSPost2010PropOp33
 70
     1
102
RTVSPost2010Prop34
280
     0
102
RTVSPost2010PropOp34
 70
     1
102
RTVSPost2010Prop35
280
     0
102
RTVSPost2010PropOp35
 70
     1
102
RTVSPost2010Prop36
280
     0
102
RTVSPost2010PropOp36
 70
     1
102
RTVSPost2010Prop37
 90
       50
102
RTVSPost2010PropOp37
 70
     1
102
RTVSPost2010Prop38
140
0.0
102
RTVSPost2010PropOp38
 70
     1
102
RTVSPost2010Prop39
140
1.0
102
RTVSPost2010PropOp39
 70
     1
102
RTVSPost2010Prop40
 90
        0
102
RTVSPost2010PropOp40
 70
     1
102
RTVSPost2010Prop41ColorIndex
 90
       18
102
RTVSPost2010Prop41ColorRGB
 90
        0
102
RTVSPost2010PropOp41
 70
     1
102
RTVSPost2010Prop42
 90
       50
102
RTVSPost2010PropOp42
 70
     1
102
RTVSPost2010Prop43
 90
        3
102
RTVSPost2010PropOp43
 70
     1
102
RTVSPost2010Prop44ColorIndex
 90
        5
102
RTVSPost2010Prop44ColorRGB
 90
      255
102
RTVSPost2010PropOp44
 70
     1
102
RTVSPost2010Prop45
280
     0
102
RTVSPost2010PropOp45
 70
     1
102
RTVSPost2010Prop46
 90
       50
102
RTVSPost2010PropOp46
 70
     1
102
RTVSPost2010Prop47
 90
       50
102
RTVSPost2010PropOp47
 70
     1
102
RTVSPost2010Prop48
 90
       50
102
RTVSPost2010PropOp48
 70
     1
102
RTVSPost2010Prop49
280
     0
102
RTVSPost2010PropOp49
 70
     1
102
RTVSPost2010Prop50
 90
       50
102
RTVSPost2010PropOp50
 70
     1
102
RTVSPost2010Prop51ColorIndex
 90
      256
102
RTVSPost2010Prop51ColorRGB
 90
-16777216
102
RTVSPost2010PropOp51
 70
     0
102
RTVSPost2010Prop52
140
1.0
102
RTVSPost2010PropOp52
 70
     0
102
RTVSPost2010Prop53
 90
        2
102
RTVSPost2010PropOp53
 70
     1
102
RTVSPost2010Prop54
  1
strokes_ogs.tif
102
RTVSPost2010PropOp54
 70
     1
102
RTVSPost2010Prop55
280
     0
102
RTVSPost2010PropOp55
 70
     1
102
RTVSPost2010Prop56
140
1.0
102
RTVSPost2010PropOp56
 70
     1
102
RTVSPost2010Prop57
140
1.0
102
RTVSPost2010PropOp57
 70
     1
102
RTVSPropertyOp0
 70
     1
102
RTVSPropertyOp1
 70
     1
102
RTVSPropertyOp2
 70
     1
102
RTVSPropertyOp3
 70
     1
102
RTVSPropertyOp4
 70
     1
102
RTVSPropertyOp5
 70
     1
102
RTVSPropertyOp6
 70
     1
102
RTVSPropertyOp7
 70
     1
102
RTVSPropertyOp8
 70
     1
102
RTVSPropertyOp9
 70
     1
102
RTVSPropertyOp10
 70
     1
102
RTVSPropertyOp11
 70
     1
102
RTVSPropertyOp12
 70
     1
102
RTVSPropertyOp13
 70
     1
102
RTVSPropertyOp14
 70
     1
102
RTVSPropertyOp15
 70
     1
102
RTVSPropertyOp16
 70
     1
102
RTVSPropertyOp17
 70
     1
102
RTVSPropertyOp18
 70
     1
102
RTVSPropertyOp19
 70
     1
102
RTVSPropertyOp20
 70
     1
102
RTVSPropertyOp21
 70
     1
102
RTVSPropertyOp22
 70
     1
102
RTVSPropertyOp23
 70
     1
102
RTVSPropertyOp24
 70
     1
102
RTVSPropertyOp25
 70
     1
102
RTVSPropertyOp26
 70
     1
102
RTVSPropertyOp27
 70
     1
102
RTVSPropertyOp28
 70
     1
102
RTVSPropertyOp29
 70
     1
102
RTVSPropertyOp30
 70
     1
102
RTVSPropertyOp31
 70
     1
102
RTVSPropertyOp32
 70
     1
102
RTVSPropertyOp33
 70
     1
102
RTVSPropertyOp34
 70
     1
102
RTVSPropertyOp35
 70
     1
102
RTVSPropertyOp36
 70
     1
102
RTVSPropertyOp37
 70
     1
102
RTVSPropertyOp38
 70
     1
102
RTVSPropertyOp39
 70
     1
102
RTVSPropertyOp40
 70
     1
102
RTVSPropertyOp41
 70
     1
102
RTVSPropertyOp42
 70
     1
102
RTVSPropertyOp43
 70
     1
102
RTVSPropertyOp44
 70
     1
102
RTVSPropertyOp45
 70
     1
102
RTVSPropertyOp46
 70
     1
102
RTVSPropertyOp47
 70
     1
102
RTVSPropertyOp48
 70
     1
102
RTVSPropertyOp49
 70
     1
102
RTVSPropertyOp50
 70
     1
102
RTVSPropertyOp51
 70
     0
102
RTVSPropertyOp52
 70
     0
102
RTVSPropertyOp53
 70
     1
102
RTVSPropertyOp54
 70
     1
102
RTVSPropertyOp55
 70
     1
102
RTVSPropertyOp56
 70
     1
102
RTVSPropertyOp57
 70
     1
102
RTVSPropertyOp58
 70
     1
102
RTVSPropertyOp59
 70
     1
102
RTVSPropertyOp60
 70
     1
102
RTVSPropertyOp61
 70
     1
102
RTVSPropertyOp62
 70
     1
  0
XRECORD
  5
5629
102
{ACAD_REACTORS
330
5628
102
}
330
5628
100
AcDbXrecord
280
     1
102
RTVSPost2010Prop28
280
     0
102
RTVSPost2010PropOp28
 70
     1
102
RTVSPost2010Prop29
280
     1
102
RTVSPost2010PropOp29
 70
     1
102
RTVSPost2010Prop30
280
     1
102
RTVSPost2010PropOp30
 70
     1
102
RTVSPost2010Prop31
280
     0
102
RTVSPost2010PropOp31
 70
     1
102
RTVSPost2010Prop32
280
     0
102
RTVSPost2010PropOp32
 70
     1
102
RTVSPost2010Prop33
280
     0
102
RTVSPost2010PropOp33
 70
     1
102
RTVSPost2010Prop34
280
     0
102
RTVSPost2010PropOp34
 70
     1
102
RTVSPost2010Prop35
280
     0
102
RTVSPost2010PropOp35
 70
     1
102
RTVSPost2010Prop36
280
     0
102
RTVSPost2010PropOp36
 70
     1
102
RTVSPost2010Prop37
 90
       50
102
RTVSPost2010PropOp37
 70
     0
102
RTVSPost2010Prop38
140
0.0
102
RTVSPost2010PropOp38
 70
     0
102
RTVSPost2010Prop39
140
1.0
102
RTVSPost2010PropOp39
 70
     0
102
RTVSPost2010Prop40
 90
        0
102
RTVSPost2010PropOp40
 70
     0
102
RTVSPost2010Prop41ColorIndex
 90
       18
102
RTVSPost2010Prop41ColorRGB
 90
        0
102
RTVSPost2010PropOp41
 70
     0
102
RTVSPost2010Prop42
 90
       50
102
RTVSPost2010PropOp42
 70
     0
102
RTVSPost2010Prop43
 90
        3
102
RTVSPost2010PropOp43
 70
     0
102
RTVSPost2010Prop44ColorIndex
 90
        5
102
RTVSPost2010Prop44ColorRGB
 90
      255
102
RTVSPost2010PropOp44
 70
     0
102
RTVSPost2010Prop45
280
     0
102
RTVSPost2010PropOp45
 70
     1
102
RTVSPost2010Prop46
 90
       50
102
RTVSPost2010PropOp46
 70
     0
102
RTVSPost2010Prop47
 90
       50
102
RTVSPost2010PropOp47
 70
     0
102
RTVSPost2010Prop48
 90
       50
102
RTVSPost2010PropOp48
 70
     0
102
RTVSPost2010Prop49
280
     0
102
RTVSPost2010PropOp49
 70
     1
102
RTVSPost2010Prop50
 90
       50
102
RTVSPost2010PropOp50
 70
     0
102
RTVSPost2010Prop51ColorIndex
 90
      256
102
RTVSPost2010Prop51ColorRGB
 90
-16777216
102
RTVSPost2010PropOp51
 70
     0
102
RTVSPost2010Prop52
140
1.0
102
RTVSPost2010PropOp52
 70
     0
102
RTVSPost2010Prop53
 90
        2
102
RTVSPost2010PropOp53
 70
     0
102
RTVSPost2010Prop54
  1
strokes_ogs.tif
102
RTVSPost2010PropOp54
 70
     0
102
RTVSPost2010Prop55
280
     0
102
RTVSPost2010PropOp55
 70
     1
102
RTVSPost2010Prop56
140
1.0
102
RTVSPost2010PropOp56
 70
     0
102
RTVSPost2010Prop57
140
1.0
102
RTVSPost2010PropOp57
 70
     0
102
RTVSPropertyOp0
 70
     0
102
RTVSPropertyOp1
 70
     0
102
RTVSPropertyOp2
 70
     0
102
RTVSPropertyOp3
 70
     0
102
RTVSPropertyOp4
 70
     0
102
RTVSPropertyOp5
 70
     0
102
RTVSPropertyOp6
 70
     0
102
RTVSPropertyOp7
 70
     0
102
RTVSPropertyOp8
 70
     0
102
RTVSPropertyOp9
 70
     0
102
RTVSPropertyOp10
 70
     0
102
RTVSPropertyOp11
 70
     0
102
RTVSPropertyOp12
 70
     0
102
RTVSPropertyOp13
 70
     0
102
RTVSPropertyOp14
 70
     2
102
RTVSPropertyOp15
 70
     0
102
RTVSPropertyOp16
 70
     0
102
RTVSPropertyOp17
 70
     0
102
RTVSPropertyOp18
 70
     0
102
RTVSPropertyOp19
 70
     0
102
RTVSPropertyOp20
 70
     0
102
RTVSPropertyOp21
 70
     0
102
RTVSPropertyOp22
 70
     0
102
RTVSPropertyOp23
 70
     0
102
RTVSPropertyOp24
 70
     0
102
RTVSPropertyOp25
 70
     0
102
RTVSPropertyOp26
 70
     0
102
RTVSPropertyOp27
 70
     0
102
RTVSPropertyOp28
 70
     1
102
RTVSPropertyOp29
 70
     1
102
RTVSPropertyOp30
 70
     1
102
RTVSPropertyOp31
 70
     1
102
RTVSPropertyOp32
 70
     1
102
RTVSPropertyOp33
 70
     1
102
RTVSPropertyOp34
 70
     1
102
RTVSPropertyOp35
 70
     1
102
RTVSPropertyOp36
 70
     1
102
RTVSPropertyOp37
 70
     0
102
RTVSPropertyOp38
 70
     0
102
RTVSPropertyOp39
 70
     0
102
RTVSPropertyOp40
 70
     0
102
RTVSPropertyOp41
 70
     0
102
RTVSPropertyOp42
 70
     0
102
RTVSPropertyOp43
 70
     0
102
RTVSPropertyOp44
 70
     0
102
RTVSPropertyOp45
 70
     1
102
RTVSPropertyOp46
 70
     0
102
RTVSPropertyOp47
 70
     0
102
RTVSPropertyOp48
 70
     0
102
RTVSPropertyOp49
 70
     1
102
RTVSPropertyOp50
 70
     0
102
RTVSPropertyOp51
 70
     0
102
RTVSPropertyOp52
 70
     0
102
RTVSPropertyOp53
 70
     0
102
RTVSPropertyOp54
 70
     0
102
RTVSPropertyOp55
 70
     1
102
RTVSPropertyOp56
 70
     0
102
RTVSPropertyOp57
 70
     0
102
RTVSPropertyOp58
 70
     0
102
RTVSPropertyOp59
 70
     0
102
RTVSPropertyOp60
 70
     0
102
RTVSPropertyOp61
 70
     0
102
RTVSPropertyOp62
 70
     0
  0
XRECORD
  5
5619
102
{ACAD_REACTORS
330
5618
102
}
330
5618
100
AcDbXrecord
280
     1
102
RTVSPost2010Prop28
280
     0
102
RTVSPost2010PropOp28
 70
     1
102
RTVSPost2010Prop29
280
     1
102
RTVSPost2010PropOp29
 70
     1
102
RTVSPost2010Prop30
280
     1
102
RTVSPost2010PropOp30
 70
     1
102
RTVSPost2010Prop31
280
     0
102
RTVSPost2010PropOp31
 70
     1
102
RTVSPost2010Prop32
280
     0
102
RTVSPost2010PropOp32
 70
     1
102
RTVSPost2010Prop33
280
     0
102
RTVSPost2010PropOp33
 70
     1
102
RTVSPost2010Prop34
280
     0
102
RTVSPost2010PropOp34
 70
     1
102
RTVSPost2010Prop35
280
     0
102
RTVSPost2010PropOp35
 70
     1
102
RTVSPost2010Prop36
280
     0
102
RTVSPost2010PropOp36
 70
     1
102
RTVSPost2010Prop37
 90
       50
102
RTVSPost2010PropOp37
 70
     1
102
RTVSPost2010Prop38
140
0.0
102
RTVSPost2010PropOp38
 70
     1
102
RTVSPost2010Prop39
140
1.0
102
RTVSPost2010PropOp39
 70
     1
102
RTVSPost2010Prop40
 90
        0
102
RTVSPost2010PropOp40
 70
     1
102
RTVSPost2010Prop41ColorIndex
 90
       18
102
RTVSPost2010Prop41ColorRGB
 90
        0
102
RTVSPost2010PropOp41
 70
     1
102
RTVSPost2010Prop42
 90
       50
102
RTVSPost2010PropOp42
 70
     1
102
RTVSPost2010Prop43
 90
        3
102
RTVSPost2010PropOp43
 70
     1
102
RTVSPost2010Prop44ColorIndex
 90
        5
102
RTVSPost2010Prop44ColorRGB
 90
      255
102
RTVSPost2010PropOp44
 70
     1
102
RTVSPost2010Prop45
280
     0
102
RTVSPost2010PropOp45
 70
     1
102
RTVSPost2010Prop46
 90
       50
102
RTVSPost2010PropOp46
 70
     1
102
RTVSPost2010Prop47
 90
       50
102
RTVSPost2010PropOp47
 70
     1
102
RTVSPost2010Prop48
 90
       50
102
RTVSPost2010PropOp48
 70
     1
102
RTVSPost2010Prop49
280
     0
102
RTVSPost2010PropOp49
 70
     1
102
RTVSPost2010Prop50
 90
       50
102
RTVSPost2010PropOp50
 70
     1
102
RTVSPost2010Prop51ColorIndex
 90
      256
102
RTVSPost2010Prop51ColorRGB
 90
-16777216
102
RTVSPost2010PropOp51
 70
     0
102
RTVSPost2010Prop52
140
1.0
102
RTVSPost2010PropOp52
 70
     0
102
RTVSPost2010Prop53
 90
        2
102
RTVSPost2010PropOp53
 70
     1
102
RTVSPost2010Prop54
  1
strokes_ogs.tif
102
RTVSPost2010PropOp54
 70
     1
102
RTVSPost2010Prop55
280
     0
102
RTVSPost2010PropOp55
 70
     1
102
RTVSPost2010Prop56
140
1.0
102
RTVSPost2010PropOp56
 70
     1
102
RTVSPost2010Prop57
140
1.0
102
RTVSPost2010PropOp57
 70
     1
102
RTVSPropertyOp0
 70
     1
102
RTVSPropertyOp1
 70
     1
102
RTVSPropertyOp2
 70
     1
102
RTVSPropertyOp3
 70
     1
102
RTVSPropertyOp4
 70
     1
102
RTVSPropertyOp5
 70
     1
102
RTVSPropertyOp6
 70
     1
102
RTVSPropertyOp7
 70
     1
102
RTVSPropertyOp8
 70
     1
102
RTVSPropertyOp9
 70
     1
102
RTVSPropertyOp10
 70
     1
102
RTVSPropertyOp11
 70
     1
102
RTVSPropertyOp12
 70
     1
102
RTVSPropertyOp13
 70
     1
102
RTVSPropertyOp14
 70
     1
102
RTVSPropertyOp15
 70
     1
102
RTVSPropertyOp16
 70
     1
102
RTVSPropertyOp17
 70
     1
102
RTVSPropertyOp18
 70
     1
102
RTVSPropertyOp19
 70
     1
102
RTVSPropertyOp20
 70
     1
102
RTVSPropertyOp21
 70
     1
102
RTVSPropertyOp22
 70
     1
102
RTVSPropertyOp23
 70
     1
102
RTVSPropertyOp24
 70
     1
102
RTVSPropertyOp25
 70
     1
102
RTVSPropertyOp26
 70
     1
102
RTVSPropertyOp27
 70
     1
102
RTVSPropertyOp28
 70
     1
102
RTVSPropertyOp29
 70
     1
102
RTVSPropertyOp30
 70
     1
102
RTVSPropertyOp31
 70
     1
102
RTVSPropertyOp32
 70
     1
102
RTVSPropertyOp33
 70
     1
102
RTVSPropertyOp34
 70
     1
102
RTVSPropertyOp35
 70
     1
102
RTVSPropertyOp36
 70
     1
102
RTVSPropertyOp37
 70
     1
102
RTVSPropertyOp38
 70
     1
102
RTVSPropertyOp39
 70
     1
102
RTVSPropertyOp40
 70
     1
102
RTVSPropertyOp41
 70
     1
102
RTVSPropertyOp42
 70
     1
102
RTVSPropertyOp43
 70
     1
102
RTVSPropertyOp44
 70
     1
102
RTVSPropertyOp45
 70
     1
102
RTVSPropertyOp46
 70
     1
102
RTVSPropertyOp47
 70
     1
102
RTVSPropertyOp48
 70
     1
102
RTVSPropertyOp49
 70
     1
102
RTVSPropertyOp50
 70
     1
102
RTVSPropertyOp51
 70
     0
102
RTVSPropertyOp52
 70
     0
102
RTVSPropertyOp53
 70
     1
102
RTVSPropertyOp54
 70
     1
102
RTVSPropertyOp55
 70
     1
102
RTVSPropertyOp56
 70
     1
102
RTVSPropertyOp57
 70
     1
102
RTVSPropertyOp58
 70
     1
102
RTVSPropertyOp59
 70
     1
102
RTVSPropertyOp60
 70
     1
102
RTVSPropertyOp61
 70
     1
102
RTVSPropertyOp62
 70
     1
  0
XRECORD
  5
562B
102
{ACAD_REACTORS
330
562A
102
}
330
562A
100
AcDbXrecord
280
     1
102
RTVSPost2010Prop28
280
     0
102
RTVSPost2010PropOp28
 70
     1
102
RTVSPost2010Prop29
280
     1
102
RTVSPost2010PropOp29
 70
     1
102
RTVSPost2010Prop30
280
     1
102
RTVSPost2010PropOp30
 70
     1
102
RTVSPost2010Prop31
280
     0
102
RTVSPost2010PropOp31
 70
     1
102
RTVSPost2010Prop32
280
     0
102
RTVSPost2010PropOp32
 70
     1
102
RTVSPost2010Prop33
280
     0
102
RTVSPost2010PropOp33
 70
     1
102
RTVSPost2010Prop34
280
     0
102
RTVSPost2010PropOp34
 70
     1
102
RTVSPost2010Prop35
280
     0
102
RTVSPost2010PropOp35
 70
     1
102
RTVSPost2010Prop36
280
     0
102
RTVSPost2010PropOp36
 70
     1
102
RTVSPost2010Prop37
 90
       50
102
RTVSPost2010PropOp37
 70
     0
102
RTVSPost2010Prop38
140
0.0
102
RTVSPost2010PropOp38
 70
     0
102
RTVSPost2010Prop39
140
1.0
102
RTVSPost2010PropOp39
 70
     0
102
RTVSPost2010Prop40
 90
        0
102
RTVSPost2010PropOp40
 70
     0
102
RTVSPost2010Prop41ColorIndex
 90
       18
102
RTVSPost2010Prop41ColorRGB
 90
        0
102
RTVSPost2010PropOp41
 70
     0
102
RTVSPost2010Prop42
 90
       50
102
RTVSPost2010PropOp42
 70
     0
102
RTVSPost2010Prop43
 90
        3
102
RTVSPost2010PropOp43
 70
     0
102
RTVSPost2010Prop44ColorIndex
 90
        5
102
RTVSPost2010Prop44ColorRGB
 90
      255
102
RTVSPost2010PropOp44
 70
     0
102
RTVSPost2010Prop45
280
     0
102
RTVSPost2010PropOp45
 70
     1
102
RTVSPost2010Prop46
 90
       50
102
RTVSPost2010PropOp46
 70
     0
102
RTVSPost2010Prop47
 90
       50
102
RTVSPost2010PropOp47
 70
     0
102
RTVSPost2010Prop48
 90
       50
102
RTVSPost2010PropOp48
 70
     0
102
RTVSPost2010Prop49
280
     0
102
RTVSPost2010PropOp49
 70
     1
102
RTVSPost2010Prop50
 90
       50
102
RTVSPost2010PropOp50
 70
     0
102
RTVSPost2010Prop51ColorIndex
 90
      256
102
RTVSPost2010Prop51ColorRGB
 90
-16777216
102
RTVSPost2010PropOp51
 70
     0
102
RTVSPost2010Prop52
140
1.0
102
RTVSPost2010PropOp52
 70
     0
102
RTVSPost2010Prop53
 90
        2
102
RTVSPost2010PropOp53
 70
     0
102
RTVSPost2010Prop54
  1
strokes_ogs.tif
102
RTVSPost2010PropOp54
 70
     0
102
RTVSPost2010Prop55
280
     0
102
RTVSPost2010PropOp55
 70
     1
102
RTVSPost2010Prop56
140
1.0
102
RTVSPost2010PropOp56
 70
     0
102
RTVSPost2010Prop57
140
1.0
102
RTVSPost2010PropOp57
 70
     0
102
RTVSPropertyOp0
 70
     0
102
RTVSPropertyOp1
 70
     0
102
RTVSPropertyOp2
 70
     0
102
RTVSPropertyOp3
 70
     0
102
RTVSPropertyOp4
 70
     0
102
RTVSPropertyOp5
 70
     0
102
RTVSPropertyOp6
 70
     0
102
RTVSPropertyOp7
 70
     0
102
RTVSPropertyOp8
 70
     0
102
RTVSPropertyOp9
 70
     0
102
RTVSPropertyOp10
 70
     0
102
RTVSPropertyOp11
 70
     0
102
RTVSPropertyOp12
 70
     0
102
RTVSPropertyOp13
 70
     0
102
RTVSPropertyOp14
 70
     2
102
RTVSPropertyOp15
 70
     0
102
RTVSPropertyOp16
 70
     0
102
RTVSPropertyOp17
 70
     0
102
RTVSPropertyOp18
 70
     0
102
RTVSPropertyOp19
 70
     0
102
RTVSPropertyOp20
 70
     0
102
RTVSPropertyOp21
 70
     0
102
RTVSPropertyOp22
 70
     0
102
RTVSPropertyOp23
 70
     0
102
RTVSPropertyOp24
 70
     0
102
RTVSPropertyOp25
 70
     0
102
RTVSPropertyOp26
 70
     0
102
RTVSPropertyOp27
 70
     0
102
RTVSPropertyOp28
 70
     1
102
RTVSPropertyOp29
 70
     1
102
RTVSPropertyOp30
 70
     1
102
RTVSPropertyOp31
 70
     1
102
RTVSPropertyOp32
 70
     1
102
RTVSPropertyOp33
 70
     1
102
RTVSPropertyOp34
 70
     1
102
RTVSPropertyOp35
 70
     1
102
RTVSPropertyOp36
 70
     1
102
RTVSPropertyOp37
 70
     0
102
RTVSPropertyOp38
 70
     0
102
RTVSPropertyOp39
 70
     0
102
RTVSPropertyOp40
 70
     0
102
RTVSPropertyOp41
 70
     0
102
RTVSPropertyOp42
 70
     0
102
RTVSPropertyOp43
 70
     0
102
RTVSPropertyOp44
 70
     0
102
RTVSPropertyOp45
 70
     1
102
RTVSPropertyOp46
 70
     0
102
RTVSPropertyOp47
 70
     0
102
RTVSPropertyOp48
 70
     0
102
RTVSPropertyOp49
 70
     1
102
RTVSPropertyOp50
 70
     0
102
RTVSPropertyOp51
 70
     0
102
RTVSPropertyOp52
 70
     0
102
RTVSPropertyOp53
 70
     0
102
RTVSPropertyOp54
 70
     0
102
RTVSPropertyOp55
 70
     1
102
RTVSPropertyOp56
 70
     0
102
RTVSPropertyOp57
 70
     0
102
RTVSPropertyOp58
 70
     0
102
RTVSPropertyOp59
 70
     0
102
RTVSPropertyOp60
 70
     0
102
RTVSPropertyOp61
 70
     0
102
RTVSPropertyOp62
 70
     0
  0
XRECORD
  5
5611
102
{ACAD_REACTORS
330
5610
102
}
330
5610
100
AcDbXrecord
280
     1
102
RTVSPost2010Prop28
280
     0
102
RTVSPost2010PropOp28
 70
     1
102
RTVSPost2010Prop29
280
     1
102
RTVSPost2010PropOp29
 70
     1
102
RTVSPost2010Prop30
280
     1
102
RTVSPost2010PropOp30
 70
     1
102
RTVSPost2010Prop31
280
     0
102
RTVSPost2010PropOp31
 70
     1
102
RTVSPost2010Prop32
280
     0
102
RTVSPost2010PropOp32
 70
     1
102
RTVSPost2010Prop33
280
     0
102
RTVSPost2010PropOp33
 70
     1
102
RTVSPost2010Prop34
280
     0
102
RTVSPost2010PropOp34
 70
     1
102
RTVSPost2010Prop35
280
     0
102
RTVSPost2010PropOp35
 70
     1
102
RTVSPost2010Prop36
280
     0
102
RTVSPost2010PropOp36
 70
     1
102
RTVSPost2010Prop37
 90
       50
102
RTVSPost2010PropOp37
 70
     1
102
RTVSPost2010Prop38
140
0.0
102
RTVSPost2010PropOp38
 70
     1
102
RTVSPost2010Prop39
140
1.0
102
RTVSPost2010PropOp39
 70
     1
102
RTVSPost2010Prop40
 90
        0
102
RTVSPost2010PropOp40
 70
     1
102
RTVSPost2010Prop41ColorIndex
 90
       18
102
RTVSPost2010Prop41ColorRGB
 90
        0
102
RTVSPost2010PropOp41
 70
     1
102
RTVSPost2010Prop42
 90
       50
102
RTVSPost2010PropOp42
 70
     1
102
RTVSPost2010Prop43
 90
        3
102
RTVSPost2010PropOp43
 70
     1
102
RTVSPost2010Prop44ColorIndex
 90
        5
102
RTVSPost2010Prop44ColorRGB
 90
      255
102
RTVSPost2010PropOp44
 70
     1
102
RTVSPost2010Prop45
280
     0
102
RTVSPost2010PropOp45
 70
     1
102
RTVSPost2010Prop46
 90
       50
102
RTVSPost2010PropOp46
 70
     1
102
RTVSPost2010Prop47
 90
       50
102
RTVSPost2010PropOp47
 70
     1
102
RTVSPost2010Prop48
 90
       50
102
RTVSPost2010PropOp48
 70
     1
102
RTVSPost2010Prop49
280
     0
102
RTVSPost2010PropOp49
 70
     1
102
RTVSPost2010Prop50
 90
       50
102
RTVSPost2010PropOp50
 70
     1
102
RTVSPost2010Prop51ColorIndex
 90
      256
102
RTVSPost2010Prop51ColorRGB
 90
-16777216
102
RTVSPost2010PropOp51
 70
     0
102
RTVSPost2010Prop52
140
1.0
102
RTVSPost2010PropOp52
 70
     0
102
RTVSPost2010Prop53
 90
        2
102
RTVSPost2010PropOp53
 70
     1
102
RTVSPost2010Prop54
  1
strokes_ogs.tif
102
RTVSPost2010PropOp54
 70
     1
102
RTVSPost2010Prop55
280
     0
102
RTVSPost2010PropOp55
 70
     1
102
RTVSPost2010Prop56
140
1.0
102
RTVSPost2010PropOp56
 70
     1
102
RTVSPost2010Prop57
140
1.0
102
RTVSPost2010PropOp57
 70
     1
102
RTVSPropertyOp0
 70
     1
102
RTVSPropertyOp1
 70
     1
102
RTVSPropertyOp2
 70
     1
102
RTVSPropertyOp3
 70
     1
102
RTVSPropertyOp4
 70
     1
102
RTVSPropertyOp5
 70
     1
102
RTVSPropertyOp6
 70
     1
102
RTVSPropertyOp7
 70
     1
102
RTVSPropertyOp8
 70
     1
102
RTVSPropertyOp9
 70
     1
102
RTVSPropertyOp10
 70
     1
102
RTVSPropertyOp11
 70
     1
102
RTVSPropertyOp12
 70
     1
102
RTVSPropertyOp13
 70
     1
102
RTVSPropertyOp14
 70
     1
102
RTVSPropertyOp15
 70
     1
102
RTVSPropertyOp16
 70
     1
102
RTVSPropertyOp17
 70
     1
102
RTVSPropertyOp18
 70
     1
102
RTVSPropertyOp19
 70
     1
102
RTVSPropertyOp20
 70
     1
102
RTVSPropertyOp21
 70
     1
102
RTVSPropertyOp22
 70
     1
102
RTVSPropertyOp23
 70
     1
102
RTVSPropertyOp24
 70
     1
102
RTVSPropertyOp25
 70
     1
102
RTVSPropertyOp26
 70
     1
102
RTVSPropertyOp27
 70
     1
102
RTVSPropertyOp28
 70
     1
102
RTVSPropertyOp29
 70
     1
102
RTVSPropertyOp30
 70
     1
102
RTVSPropertyOp31
 70
     1
102
RTVSPropertyOp32
 70
     1
102
RTVSPropertyOp33
 70
     1
102
RTVSPropertyOp34
 70
     1
102
RTVSPropertyOp35
 70
     1
102
RTVSPropertyOp36
 70
     1
102
RTVSPropertyOp37
 70
     1
102
RTVSPropertyOp38
 70
     1
102
RTVSPropertyOp39
 70
     1
102
RTVSPropertyOp40
 70
     1
102
RTVSPropertyOp41
 70
     1
102
RTVSPropertyOp42
 70
     1
102
RTVSPropertyOp43
 70
     1
102
RTVSPropertyOp44
 70
     1
102
RTVSPropertyOp45
 70
     1
102
RTVSPropertyOp46
 70
     1
102
RTVSPropertyOp47
 70
     1
102
RTVSPropertyOp48
 70
     1
102
RTVSPropertyOp49
 70
     1
102
RTVSPropertyOp50
 70
     1
102
RTVSPropertyOp51
 70
     0
102
RTVSPropertyOp52
 70
     0
102
RTVSPropertyOp53
 70
     1
102
RTVSPropertyOp54
 70
     1
102
RTVSPropertyOp55
 70
     1
102
RTVSPropertyOp56
 70
     1
102
RTVSPropertyOp57
 70
     1
102
RTVSPropertyOp58
 70
     1
102
RTVSPropertyOp59
 70
     1
102
RTVSPropertyOp60
 70
     1
102
RTVSPropertyOp61
 70
     1
102
RTVSPropertyOp62
 70
     1
  0
XRECORD
  5
5627
102
{ACAD_REACTORS
330
5626
102
}
330
5626
100
AcDbXrecord
280
     1
102
RTVSPost2010Prop28
280
     0
102
RTVSPost2010PropOp28
 70
     1
102
RTVSPost2010Prop29
280
     1
102
RTVSPost2010PropOp29
 70
     1
102
RTVSPost2010Prop30
280
     1
102
RTVSPost2010PropOp30
 70
     1
102
RTVSPost2010Prop31
280
     0
102
RTVSPost2010PropOp31
 70
     1
102
RTVSPost2010Prop32
280
     0
102
RTVSPost2010PropOp32
 70
     1
102
RTVSPost2010Prop33
280
     0
102
RTVSPost2010PropOp33
 70
     1
102
RTVSPost2010Prop34
280
     0
102
RTVSPost2010PropOp34
 70
     1
102
RTVSPost2010Prop35
280
     0
102
RTVSPost2010PropOp35
 70
     1
102
RTVSPost2010Prop36
280
     0
102
RTVSPost2010PropOp36
 70
     1
102
RTVSPost2010Prop37
 90
       50
102
RTVSPost2010PropOp37
 70
     1
102
RTVSPost2010Prop38
140
0.0
102
RTVSPost2010PropOp38
 70
     1
102
RTVSPost2010Prop39
140
1.0
102
RTVSPost2010PropOp39
 70
     1
102
RTVSPost2010Prop40
 90
        0
102
RTVSPost2010PropOp40
 70
     1
102
RTVSPost2010Prop41ColorIndex
 90
       18
102
RTVSPost2010Prop41ColorRGB
 90
        0
102
RTVSPost2010PropOp41
 70
     1
102
RTVSPost2010Prop42
 90
       50
102
RTVSPost2010PropOp42
 70
     1
102
RTVSPost2010Prop43
 90
        3
102
RTVSPost2010PropOp43
 70
     1
102
RTVSPost2010Prop44ColorIndex
 90
        5
102
RTVSPost2010Prop44ColorRGB
 90
      255
102
RTVSPost2010PropOp44
 70
     1
102
RTVSPost2010Prop45
280
     0
102
RTVSPost2010PropOp45
 70
     1
102
RTVSPost2010Prop46
 90
       50
102
RTVSPost2010PropOp46
 70
     1
102
RTVSPost2010Prop47
 90
       50
102
RTVSPost2010PropOp47
 70
     1
102
RTVSPost2010Prop48
 90
       50
102
RTVSPost2010PropOp48
 70
     1
102
RTVSPost2010Prop49
280
     0
102
RTVSPost2010PropOp49
 70
     1
102
RTVSPost2010Prop50
 90
       50
102
RTVSPost2010PropOp50
 70
     1
102
RTVSPost2010Prop51ColorIndex
 90
      256
102
RTVSPost2010Prop51ColorRGB
 90
-16777216
102
RTVSPost2010PropOp51
 70
     0
102
RTVSPost2010Prop52
140
1.0
102
RTVSPost2010PropOp52
 70
     0
102
RTVSPost2010Prop53
 90
        2
102
RTVSPost2010PropOp53
 70
     1
102
RTVSPost2010Prop54
  1
strokes_ogs.tif
102
RTVSPost2010PropOp54
 70
     1
102
RTVSPost2010Prop55
280
     0
102
RTVSPost2010PropOp55
 70
     1
102
RTVSPost2010Prop56
140
1.0
102
RTVSPost2010PropOp56
 70
     1
102
RTVSPost2010Prop57
140
1.0
102
RTVSPost2010PropOp57
 70
     1
102
RTVSPropertyOp0
 70
     1
102
RTVSPropertyOp1
 70
     1
102
RTVSPropertyOp2
 70
     1
102
RTVSPropertyOp3
 70
     1
102
RTVSPropertyOp4
 70
     1
102
RTVSPropertyOp5
 70
     1
102
RTVSPropertyOp6
 70
     1
102
RTVSPropertyOp7
 70
     1
102
RTVSPropertyOp8
 70
     1
102
RTVSPropertyOp9
 70
     1
102
RTVSPropertyOp10
 70
     1
102
RTVSPropertyOp11
 70
     1
102
RTVSPropertyOp12
 70
     1
102
RTVSPropertyOp13
 70
     1
102
RTVSPropertyOp14
 70
     1
102
RTVSPropertyOp15
 70
     1
102
RTVSPropertyOp16
 70
     1
102
RTVSPropertyOp17
 70
     1
102
RTVSPropertyOp18
 70
     1
102
RTVSPropertyOp19
 70
     1
102
RTVSPropertyOp20
 70
     1
102
RTVSPropertyOp21
 70
     1
102
RTVSPropertyOp22
 70
     1
102
RTVSPropertyOp23
 70
     1
102
RTVSPropertyOp24
 70
     1
102
RTVSPropertyOp25
 70
     1
102
RTVSPropertyOp26
 70
     1
102
RTVSPropertyOp27
 70
     1
102
RTVSPropertyOp28
 70
     1
102
RTVSPropertyOp29
 70
     1
102
RTVSPropertyOp30
 70
     1
102
RTVSPropertyOp31
 70
     1
102
RTVSPropertyOp32
 70
     1
102
RTVSPropertyOp33
 70
     1
102
RTVSPropertyOp34
 70
     1
102
RTVSPropertyOp35
 70
     1
102
RTVSPropertyOp36
 70
     1
102
RTVSPropertyOp37
 70
     1
102
RTVSPropertyOp38
 70
     1
102
RTVSPropertyOp39
 70
     1
102
RTVSPropertyOp40
 70
     1
102
RTVSPropertyOp41
 70
     1
102
RTVSPropertyOp42
 70
     1
102
RTVSPropertyOp43
 70
     1
102
RTVSPropertyOp44
 70
     1
102
RTVSPropertyOp45
 70
     1
102
RTVSPropertyOp46
 70
     1
102
RTVSPropertyOp47
 70
     1
102
RTVSPropertyOp48
 70
     1
102
RTVSPropertyOp49
 70
     1
102
RTVSPropertyOp50
 70
     1
102
RTVSPropertyOp51
 70
     0
102
RTVSPropertyOp52
 70
     0
102
RTVSPropertyOp53
 70
     1
102
RTVSPropertyOp54
 70
     1
102
RTVSPropertyOp55
 70
     1
102
RTVSPropertyOp56
 70
     1
102
RTVSPropertyOp57
 70
     1
102
RTVSPropertyOp58
 70
     1
102
RTVSPropertyOp59
 70
     1
102
RTVSPropertyOp60
 70
     1
102
RTVSPropertyOp61
 70
     1
102
RTVSPropertyOp62
 70
     1
  0
XRECORD
  5
5625
102
{ACAD_REACTORS
330
5624
102
}
330
5624
100
AcDbXrecord
280
     1
102
RTVSPost2010Prop28
280
     0
102
RTVSPost2010PropOp28
 70
     1
102
RTVSPost2010Prop29
280
     1
102
RTVSPost2010PropOp29
 70
     1
102
RTVSPost2010Prop30
280
     1
102
RTVSPost2010PropOp30
 70
     1
102
RTVSPost2010Prop31
280
     0
102
RTVSPost2010PropOp31
 70
     1
102
RTVSPost2010Prop32
280
     0
102
RTVSPost2010PropOp32
 70
     1
102
RTVSPost2010Prop33
280
     0
102
RTVSPost2010PropOp33
 70
     1
102
RTVSPost2010Prop34
280
     0
102
RTVSPost2010PropOp34
 70
     1
102
RTVSPost2010Prop35
280
     0
102
RTVSPost2010PropOp35
 70
     1
102
RTVSPost2010Prop36
280
     0
102
RTVSPost2010PropOp36
 70
     1
102
RTVSPost2010Prop37
 90
       50
102
RTVSPost2010PropOp37
 70
     1
102
RTVSPost2010Prop38
140
0.0
102
RTVSPost2010PropOp38
 70
     1
102
RTVSPost2010Prop39
140
1.0
102
RTVSPost2010PropOp39
 70
     1
102
RTVSPost2010Prop40
 90
        0
102
RTVSPost2010PropOp40
 70
     1
102
RTVSPost2010Prop41ColorIndex
 90
       18
102
RTVSPost2010Prop41ColorRGB
 90
        0
102
RTVSPost2010PropOp41
 70
     1
102
RTVSPost2010Prop42
 90
       50
102
RTVSPost2010PropOp42
 70
     1
102
RTVSPost2010Prop43
 90
        3
102
RTVSPost2010PropOp43
 70
     1
102
RTVSPost2010Prop44ColorIndex
 90
        5
102
RTVSPost2010Prop44ColorRGB
 90
      255
102
RTVSPost2010PropOp44
 70
     1
102
RTVSPost2010Prop45
280
     0
102
RTVSPost2010PropOp45
 70
     1
102
RTVSPost2010Prop46
 90
       50
102
RTVSPost2010PropOp46
 70
     1
102
RTVSPost2010Prop47
 90
       50
102
RTVSPost2010PropOp47
 70
     1
102
RTVSPost2010Prop48
 90
       50
102
RTVSPost2010PropOp48
 70
     1
102
RTVSPost2010Prop49
280
     0
102
RTVSPost2010PropOp49
 70
     1
102
RTVSPost2010Prop50
 90
       50
102
RTVSPost2010PropOp50
 70
     1
102
RTVSPost2010Prop51ColorIndex
 90
      256
102
RTVSPost2010Prop51ColorRGB
 90
-16777216
102
RTVSPost2010PropOp51
 70
     0
102
RTVSPost2010Prop52
140
1.0
102
RTVSPost2010PropOp52
 70
     0
102
RTVSPost2010Prop53
 90
        2
102
RTVSPost2010PropOp53
 70
     1
102
RTVSPost2010Prop54
  1
strokes_ogs.tif
102
RTVSPost2010PropOp54
 70
     1
102
RTVSPost2010Prop55
280
     0
102
RTVSPost2010PropOp55
 70
     1
102
RTVSPost2010Prop56
140
1.0
102
RTVSPost2010PropOp56
 70
     1
102
RTVSPost2010Prop57
140
1.0
102
RTVSPost2010PropOp57
 70
     1
102
RTVSPropertyOp0
 70
     1
102
RTVSPropertyOp1
 70
     1
102
RTVSPropertyOp2
 70
     1
102
RTVSPropertyOp3
 70
     1
102
RTVSPropertyOp4
 70
     1
102
RTVSPropertyOp5
 70
     1
102
RTVSPropertyOp6
 70
     1
102
RTVSPropertyOp7
 70
     1
102
RTVSPropertyOp8
 70
     1
102
RTVSPropertyOp9
 70
     1
102
RTVSPropertyOp10
 70
     1
102
RTVSPropertyOp11
 70
     1
102
RTVSPropertyOp12
 70
     1
102
RTVSPropertyOp13
 70
     1
102
RTVSPropertyOp14
 70
     1
102
RTVSPropertyOp15
 70
     1
102
RTVSPropertyOp16
 70
     1
102
RTVSPropertyOp17
 70
     1
102
RTVSPropertyOp18
 70
     1
102
RTVSPropertyOp19
 70
     1
102
RTVSPropertyOp20
 70
     1
102
RTVSPropertyOp21
 70
     1
102
RTVSPropertyOp22
 70
     1
102
RTVSPropertyOp23
 70
     1
102
RTVSPropertyOp24
 70
     1
102
RTVSPropertyOp25
 70
     1
102
RTVSPropertyOp26
 70
     1
102
RTVSPropertyOp27
 70
     1
102
RTVSPropertyOp28
 70
     1
102
RTVSPropertyOp29
 70
     1
102
RTVSPropertyOp30
 70
     1
102
RTVSPropertyOp31
 70
     1
102
RTVSPropertyOp32
 70
     1
102
RTVSPropertyOp33
 70
     1
102
RTVSPropertyOp34
 70
     1
102
RTVSPropertyOp35
 70
     1
102
RTVSPropertyOp36
 70
     1
102
RTVSPropertyOp37
 70
     1
102
RTVSPropertyOp38
 70
     1
102
RTVSPropertyOp39
 70
     1
102
RTVSPropertyOp40
 70
     1
102
RTVSPropertyOp41
 70
     1
102
RTVSPropertyOp42
 70
     1
102
RTVSPropertyOp43
 70
     1
102
RTVSPropertyOp44
 70
     1
102
RTVSPropertyOp45
 70
     1
102
RTVSPropertyOp46
 70
     1
102
RTVSPropertyOp47
 70
     1
102
RTVSPropertyOp48
 70
     1
102
RTVSPropertyOp49
 70
     1
102
RTVSPropertyOp50
 70
     1
102
RTVSPropertyOp51
 70
     0
102
RTVSPropertyOp52
 70
     0
102
RTVSPropertyOp53
 70
     1
102
RTVSPropertyOp54
 70
     1
102
RTVSPropertyOp55
 70
     1
102
RTVSPropertyOp56
 70
     1
102
RTVSPropertyOp57
 70
     1
102
RTVSPropertyOp58
 70
     1
102
RTVSPropertyOp59
 70
     1
102
RTVSPropertyOp60
 70
     1
102
RTVSPropertyOp61
 70
     1
102
RTVSPropertyOp62
 70
     1
  0
XRECORD
  5
561F
102
{ACAD_REACTORS
330
561E
102
}
330
561E
100
AcDbXrecord
280
     1
102
RTVSPost2010Prop28
280
     0
102
RTVSPost2010PropOp28
 70
     1
102
RTVSPost2010Prop29
280
     1
102
RTVSPost2010PropOp29
 70
     1
102
RTVSPost2010Prop30
280
     1
102
RTVSPost2010PropOp30
 70
     1
102
RTVSPost2010Prop31
280
     0
102
RTVSPost2010PropOp31
 70
     1
102
RTVSPost2010Prop32
280
     0
102
RTVSPost2010PropOp32
 70
     1
102
RTVSPost2010Prop33
280
     0
102
RTVSPost2010PropOp33
 70
     1
102
RTVSPost2010Prop34
280
     0
102
RTVSPost2010PropOp34
 70
     1
102
RTVSPost2010Prop35
280
     0
102
RTVSPost2010PropOp35
 70
     1
102
RTVSPost2010Prop36
280
     0
102
RTVSPost2010PropOp36
 70
     1
102
RTVSPost2010Prop37
 90
       50
102
RTVSPost2010PropOp37
 70
     1
102
RTVSPost2010Prop38
140
0.0
102
RTVSPost2010PropOp38
 70
     1
102
RTVSPost2010Prop39
140
1.0
102
RTVSPost2010PropOp39
 70
     1
102
RTVSPost2010Prop40
 90
        0
102
RTVSPost2010PropOp40
 70
     1
102
RTVSPost2010Prop41ColorIndex
 90
       18
102
RTVSPost2010Prop41ColorRGB
 90
        0
102
RTVSPost2010PropOp41
 70
     1
102
RTVSPost2010Prop42
 90
       50
102
RTVSPost2010PropOp42
 70
     1
102
RTVSPost2010Prop43
 90
        3
102
RTVSPost2010PropOp43
 70
     1
102
RTVSPost2010Prop44ColorIndex
 90
        5
102
RTVSPost2010Prop44ColorRGB
 90
      255
102
RTVSPost2010PropOp44
 70
     1
102
RTVSPost2010Prop45
280
     0
102
RTVSPost2010PropOp45
 70
     1
102
RTVSPost2010Prop46
 90
       50
102
RTVSPost2010PropOp46
 70
     1
102
RTVSPost2010Prop47
 90
       50
102
RTVSPost2010PropOp47
 70
     1
102
RTVSPost2010Prop48
 90
       50
102
RTVSPost2010PropOp48
 70
     1
102
RTVSPost2010Prop49
280
     0
102
RTVSPost2010PropOp49
 70
     1
102
RTVSPost2010Prop50
 90
       50
102
RTVSPost2010PropOp50
 70
     1
102
RTVSPost2010Prop51ColorIndex
 90
      256
102
RTVSPost2010Prop51ColorRGB
 90
-16777216
102
RTVSPost2010PropOp51
 70
     0
102
RTVSPost2010Prop52
140
1.0
102
RTVSPost2010PropOp52
 70
     0
102
RTVSPost2010Prop53
 90
        2
102
RTVSPost2010PropOp53
 70
     1
102
RTVSPost2010Prop54
  1
strokes_ogs.tif
102
RTVSPost2010PropOp54
 70
     1
102
RTVSPost2010Prop55
280
     0
102
RTVSPost2010PropOp55
 70
     1
102
RTVSPost2010Prop56
140
1.0
102
RTVSPost2010PropOp56
 70
     1
102
RTVSPost2010Prop57
140
1.0
102
RTVSPost2010PropOp57
 70
     1
102
RTVSPropertyOp0
 70
     1
102
RTVSPropertyOp1
 70
     1
102
RTVSPropertyOp2
 70
     1
102
RTVSPropertyOp3
 70
     1
102
RTVSPropertyOp4
 70
     1
102
RTVSPropertyOp5
 70
     1
102
RTVSPropertyOp6
 70
     1
102
RTVSPropertyOp7
 70
     1
102
RTVSPropertyOp8
 70
     1
102
RTVSPropertyOp9
 70
     1
102
RTVSPropertyOp10
 70
     1
102
RTVSPropertyOp11
 70
     1
102
RTVSPropertyOp12
 70
     1
102
RTVSPropertyOp13
 70
     1
102
RTVSPropertyOp14
 70
     1
102
RTVSPropertyOp15
 70
     1
102
RTVSPropertyOp16
 70
     1
102
RTVSPropertyOp17
 70
     1
102
RTVSPropertyOp18
 70
     1
102
RTVSPropertyOp19
 70
     1
102
RTVSPropertyOp20
 70
     1
102
RTVSPropertyOp21
 70
     1
102
RTVSPropertyOp22
 70
     1
102
RTVSPropertyOp23
 70
     1
102
RTVSPropertyOp24
 70
     1
102
RTVSPropertyOp25
 70
     1
102
RTVSPropertyOp26
 70
     1
102
RTVSPropertyOp27
 70
     1
102
RTVSPropertyOp28
 70
     1
102
RTVSPropertyOp29
 70
     1
102
RTVSPropertyOp30
 70
     1
102
RTVSPropertyOp31
 70
     1
102
RTVSPropertyOp32
 70
     1
102
RTVSPropertyOp33
 70
     1
102
RTVSPropertyOp34
 70
     1
102
RTVSPropertyOp35
 70
     1
102
RTVSPropertyOp36
 70
     1
102
RTVSPropertyOp37
 70
     1
102
RTVSPropertyOp38
 70
     1
102
RTVSPropertyOp39
 70
     1
102
RTVSPropertyOp40
 70
     1
102
RTVSPropertyOp41
 70
     1
102
RTVSPropertyOp42
 70
     1
102
RTVSPropertyOp43
 70
     1
102
RTVSPropertyOp44
 70
     1
102
RTVSPropertyOp45
 70
     1
102
RTVSPropertyOp46
 70
     1
102
RTVSPropertyOp47
 70
     1
102
RTVSPropertyOp48
 70
     1
102
RTVSPropertyOp49
 70
     1
102
RTVSPropertyOp50
 70
     1
102
RTVSPropertyOp51
 70
     0
102
RTVSPropertyOp52
 70
     0
102
RTVSPropertyOp53
 70
     1
102
RTVSPropertyOp54
 70
     1
102
RTVSPropertyOp55
 70
     1
102
RTVSPropertyOp56
 70
     1
102
RTVSPropertyOp57
 70
     1
102
RTVSPropertyOp58
 70
     1
102
RTVSPropertyOp59
 70
     1
102
RTVSPropertyOp60
 70
     1
102
RTVSPropertyOp61
 70
     1
102
RTVSPropertyOp62
 70
     1
  0
XRECORD
  5
5621
102
{ACAD_REACTORS
330
5620
102
}
330
5620
100
AcDbXrecord
280
     1
102
RTVSPost2010Prop28
280
     0
102
RTVSPost2010PropOp28
 70
     1
102
RTVSPost2010Prop29
280
     1
102
RTVSPost2010PropOp29
 70
     1
102
RTVSPost2010Prop30
280
     1
102
RTVSPost2010PropOp30
 70
     1
102
RTVSPost2010Prop31
280
     0
102
RTVSPost2010PropOp31
 70
     1
102
RTVSPost2010Prop32
280
     0
102
RTVSPost2010PropOp32
 70
     1
102
RTVSPost2010Prop33
280
     0
102
RTVSPost2010PropOp33
 70
     1
102
RTVSPost2010Prop34
280
     0
102
RTVSPost2010PropOp34
 70
     1
102
RTVSPost2010Prop35
280
     0
102
RTVSPost2010PropOp35
 70
     1
102
RTVSPost2010Prop36
280
     0
102
RTVSPost2010PropOp36
 70
     1
102
RTVSPost2010Prop37
 90
       50
102
RTVSPost2010PropOp37
 70
     1
102
RTVSPost2010Prop38
140
0.0
102
RTVSPost2010PropOp38
 70
     1
102
RTVSPost2010Prop39
140
1.0
102
RTVSPost2010PropOp39
 70
     1
102
RTVSPost2010Prop40
 90
        0
102
RTVSPost2010PropOp40
 70
     1
102
RTVSPost2010Prop41ColorIndex
 90
       18
102
RTVSPost2010Prop41ColorRGB
 90
        0
102
RTVSPost2010PropOp41
 70
     1
102
RTVSPost2010Prop42
 90
       50
102
RTVSPost2010PropOp42
 70
     1
102
RTVSPost2010Prop43
 90
        3
102
RTVSPost2010PropOp43
 70
     1
102
RTVSPost2010Prop44ColorIndex
 90
        5
102
RTVSPost2010Prop44ColorRGB
 90
      255
102
RTVSPost2010PropOp44
 70
     1
102
RTVSPost2010Prop45
280
     0
102
RTVSPost2010PropOp45
 70
     1
102
RTVSPost2010Prop46
 90
       50
102
RTVSPost2010PropOp46
 70
     1
102
RTVSPost2010Prop47
 90
       50
102
RTVSPost2010PropOp47
 70
     1
102
RTVSPost2010Prop48
 90
       50
102
RTVSPost2010PropOp48
 70
     1
102
RTVSPost2010Prop49
280
     0
102
RTVSPost2010PropOp49
 70
     1
102
RTVSPost2010Prop50
 90
       50
102
RTVSPost2010PropOp50
 70
     1
102
RTVSPost2010Prop51ColorIndex
 90
      256
102
RTVSPost2010Prop51ColorRGB
 90
-16777216
102
RTVSPost2010PropOp51
 70
     0
102
RTVSPost2010Prop52
140
1.0
102
RTVSPost2010PropOp52
 70
     0
102
RTVSPost2010Prop53
 90
        2
102
RTVSPost2010PropOp53
 70
     1
102
RTVSPost2010Prop54
  1
strokes_ogs.tif
102
RTVSPost2010PropOp54
 70
     1
102
RTVSPost2010Prop55
280
     0
102
RTVSPost2010PropOp55
 70
     1
102
RTVSPost2010Prop56
140
1.0
102
RTVSPost2010PropOp56
 70
     1
102
RTVSPost2010Prop57
140
1.0
102
RTVSPost2010PropOp57
 70
     1
102
RTVSPropertyOp0
 70
     1
102
RTVSPropertyOp1
 70
     1
102
RTVSPropertyOp2
 70
     1
102
RTVSPropertyOp3
 70
     1
102
RTVSPropertyOp4
 70
     1
102
RTVSPropertyOp5
 70
     1
102
RTVSPropertyOp6
 70
     1
102
RTVSPropertyOp7
 70
     1
102
RTVSPropertyOp8
 70
     1
102
RTVSPropertyOp9
 70
     1
102
RTVSPropertyOp10
 70
     1
102
RTVSPropertyOp11
 70
     1
102
RTVSPropertyOp12
 70
     1
102
RTVSPropertyOp13
 70
     1
102
RTVSPropertyOp14
 70
     1
102
RTVSPropertyOp15
 70
     1
102
RTVSPropertyOp16
 70
     1
102
RTVSPropertyOp17
 70
     1
102
RTVSPropertyOp18
 70
     1
102
RTVSPropertyOp19
 70
     1
102
RTVSPropertyOp20
 70
     1
102
RTVSPropertyOp21
 70
     1
102
RTVSPropertyOp22
 70
     1
102
RTVSPropertyOp23
 70
     1
102
RTVSPropertyOp24
 70
     1
102
RTVSPropertyOp25
 70
     1
102
RTVSPropertyOp26
 70
     1
102
RTVSPropertyOp27
 70
     1
102
RTVSPropertyOp28
 70
     1
102
RTVSPropertyOp29
 70
     1
102
RTVSPropertyOp30
 70
     1
102
RTVSPropertyOp31
 70
     1
102
RTVSPropertyOp32
 70
     1
102
RTVSPropertyOp33
 70
     1
102
RTVSPropertyOp34
 70
     1
102
RTVSPropertyOp35
 70
     1
102
RTVSPropertyOp36
 70
     1
102
RTVSPropertyOp37
 70
     1
102
RTVSPropertyOp38
 70
     1
102
RTVSPropertyOp39
 70
     1
102
RTVSPropertyOp40
 70
     1
102
RTVSPropertyOp41
 70
     1
102
RTVSPropertyOp42
 70
     1
102
RTVSPropertyOp43
 70
     1
102
RTVSPropertyOp44
 70
     1
102
RTVSPropertyOp45
 70
     1
102
RTVSPropertyOp46
 70
     1
102
RTVSPropertyOp47
 70
     1
102
RTVSPropertyOp48
 70
     1
102
RTVSPropertyOp49
 70
     1
102
RTVSPropertyOp50
 70
     1
102
RTVSPropertyOp51
 70
     0
102
RTVSPropertyOp52
 70
     0
102
RTVSPropertyOp53
 70
     1
102
RTVSPropertyOp54
 70
     1
102
RTVSPropertyOp55
 70
     1
102
RTVSPropertyOp56
 70
     1
102
RTVSPropertyOp57
 70
     1
102
RTVSPropertyOp58
 70
     1
102
RTVSPropertyOp59
 70
     1
102
RTVSPropertyOp60
 70
     1
102
RTVSPropertyOp61
 70
     1
102
RTVSPropertyOp62
 70
     1
  0
XRECORD
  5
5617
102
{ACAD_REACTORS
330
5616
102
}
330
5616
100
AcDbXrecord
280
     1
102
RTVSPost2010Prop28
280
     0
102
RTVSPost2010PropOp28
 70
     1
102
RTVSPost2010Prop29
280
     1
102
RTVSPost2010PropOp29
 70
     1
102
RTVSPost2010Prop30
280
     1
102
RTVSPost2010PropOp30
 70
     1
102
RTVSPost2010Prop31
280
     0
102
RTVSPost2010PropOp31
 70
     1
102
RTVSPost2010Prop32
280
     0
102
RTVSPost2010PropOp32
 70
     1
102
RTVSPost2010Prop33
280
     0
102
RTVSPost2010PropOp33
 70
     1
102
RTVSPost2010Prop34
280
     0
102
RTVSPost2010PropOp34
 70
     1
102
RTVSPost2010Prop35
280
     0
102
RTVSPost2010PropOp35
 70
     1
102
RTVSPost2010Prop36
280
     0
102
RTVSPost2010PropOp36
 70
     1
102
RTVSPost2010Prop37
 90
       50
102
RTVSPost2010PropOp37
 70
     1
102
RTVSPost2010Prop38
140
0.0
102
RTVSPost2010PropOp38
 70
     1
102
RTVSPost2010Prop39
140
1.0
102
RTVSPost2010PropOp39
 70
     1
102
RTVSPost2010Prop40
 90
        0
102
RTVSPost2010PropOp40
 70
     1
102
RTVSPost2010Prop41ColorIndex
 90
       18
102
RTVSPost2010Prop41ColorRGB
 90
        0
102
RTVSPost2010PropOp41
 70
     1
102
RTVSPost2010Prop42
 90
       50
102
RTVSPost2010PropOp42
 70
     1
102
RTVSPost2010Prop43
 90
        3
102
RTVSPost2010PropOp43
 70
     1
102
RTVSPost2010Prop44ColorIndex
 90
        5
102
RTVSPost2010Prop44ColorRGB
 90
      255
102
RTVSPost2010PropOp44
 70
     1
102
RTVSPost2010Prop45
280
     0
102
RTVSPost2010PropOp45
 70
     1
102
RTVSPost2010Prop46
 90
       50
102
RTVSPost2010PropOp46
 70
     1
102
RTVSPost2010Prop47
 90
       50
102
RTVSPost2010PropOp47
 70
     1
102
RTVSPost2010Prop48
 90
       50
102
RTVSPost2010PropOp48
 70
     1
102
RTVSPost2010Prop49
280
     0
102
RTVSPost2010PropOp49
 70
     1
102
RTVSPost2010Prop50
 90
       50
102
RTVSPost2010PropOp50
 70
     1
102
RTVSPost2010Prop51ColorIndex
 90
      256
102
RTVSPost2010Prop51ColorRGB
 90
-16777216
102
RTVSPost2010PropOp51
 70
     0
102
RTVSPost2010Prop52
140
1.0
102
RTVSPost2010PropOp52
 70
     0
102
RTVSPost2010Prop53
 90
        2
102
RTVSPost2010PropOp53
 70
     1
102
RTVSPost2010Prop54
  1
strokes_ogs.tif
102
RTVSPost2010PropOp54
 70
     1
102
RTVSPost2010Prop55
280
     0
102
RTVSPost2010PropOp55
 70
     1
102
RTVSPost2010Prop56
140
1.0
102
RTVSPost2010PropOp56
 70
     1
102
RTVSPost2010Prop57
140
1.0
102
RTVSPost2010PropOp57
 70
     1
102
RTVSPropertyOp0
 70
     1
102
RTVSPropertyOp1
 70
     1
102
RTVSPropertyOp2
 70
     1
102
RTVSPropertyOp3
 70
     1
102
RTVSPropertyOp4
 70
     1
102
RTVSPropertyOp5
 70
     1
102
RTVSPropertyOp6
 70
     1
102
RTVSPropertyOp7
 70
     1
102
RTVSPropertyOp8
 70
     1
102
RTVSPropertyOp9
 70
     1
102
RTVSPropertyOp10
 70
     1
102
RTVSPropertyOp11
 70
     1
102
RTVSPropertyOp12
 70
     1
102
RTVSPropertyOp13
 70
     1
102
RTVSPropertyOp14
 70
     1
102
RTVSPropertyOp15
 70
     1
102
RTVSPropertyOp16
 70
     1
102
RTVSPropertyOp17
 70
     1
102
RTVSPropertyOp18
 70
     1
102
RTVSPropertyOp19
 70
     1
102
RTVSPropertyOp20
 70
     1
102
RTVSPropertyOp21
 70
     1
102
RTVSPropertyOp22
 70
     1
102
RTVSPropertyOp23
 70
     1
102
RTVSPropertyOp24
 70
     1
102
RTVSPropertyOp25
 70
     1
102
RTVSPropertyOp26
 70
     1
102
RTVSPropertyOp27
 70
     1
102
RTVSPropertyOp28
 70
     1
102
RTVSPropertyOp29
 70
     1
102
RTVSPropertyOp30
 70
     1
102
RTVSPropertyOp31
 70
     1
102
RTVSPropertyOp32
 70
     1
102
RTVSPropertyOp33
 70
     1
102
RTVSPropertyOp34
 70
     1
102
RTVSPropertyOp35
 70
     1
102
RTVSPropertyOp36
 70
     1
102
RTVSPropertyOp37
 70
     1
102
RTVSPropertyOp38
 70
     1
102
RTVSPropertyOp39
 70
     1
102
RTVSPropertyOp40
 70
     1
102
RTVSPropertyOp41
 70
     1
102
RTVSPropertyOp42
 70
     1
102
RTVSPropertyOp43
 70
     1
102
RTVSPropertyOp44
 70
     1
102
RTVSPropertyOp45
 70
     1
102
RTVSPropertyOp46
 70
     1
102
RTVSPropertyOp47
 70
     1
102
RTVSPropertyOp48
 70
     1
102
RTVSPropertyOp49
 70
     1
102
RTVSPropertyOp50
 70
     1
102
RTVSPropertyOp51
 70
     0
102
RTVSPropertyOp52
 70
     0
102
RTVSPropertyOp53
 70
     1
102
RTVSPropertyOp54
 70
     1
102
RTVSPropertyOp55
 70
     1
102
RTVSPropertyOp56
 70
     1
102
RTVSPropertyOp57
 70
     1
102
RTVSPropertyOp58
 70
     1
102
RTVSPropertyOp59
 70
     1
102
RTVSPropertyOp60
 70
     1
102
RTVSPropertyOp61
 70
     1
102
RTVSPropertyOp62
 70
     1
  0
XRECORD
  5
560B
102
{ACAD_REACTORS
330
560A
102
}
330
560A
100
AcDbXrecord
280
     1
102
RTVSPost2010Prop28
280
     0
102
RTVSPost2010PropOp28
 70
     1
102
RTVSPost2010Prop29
280
     1
102
RTVSPost2010PropOp29
 70
     1
102
RTVSPost2010Prop30
280
     1
102
RTVSPost2010PropOp30
 70
     1
102
RTVSPost2010Prop31
280
     0
102
RTVSPost2010PropOp31
 70
     1
102
RTVSPost2010Prop32
280
     0
102
RTVSPost2010PropOp32
 70
     1
102
RTVSPost2010Prop33
280
     0
102
RTVSPost2010PropOp33
 70
     1
102
RTVSPost2010Prop34
280
     0
102
RTVSPost2010PropOp34
 70
     1
102
RTVSPost2010Prop35
280
     0
102
RTVSPost2010PropOp35
 70
     1
102
RTVSPost2010Prop36
280
     0
102
RTVSPost2010PropOp36
 70
     1
102
RTVSPost2010Prop37
 90
       50
102
RTVSPost2010PropOp37
 70
     1
102
RTVSPost2010Prop38
140
0.0
102
RTVSPost2010PropOp38
 70
     1
102
RTVSPost2010Prop39
140
1.0
102
RTVSPost2010PropOp39
 70
     1
102
RTVSPost2010Prop40
 90
        0
102
RTVSPost2010PropOp40
 70
     1
102
RTVSPost2010Prop41ColorIndex
 90
       18
102
RTVSPost2010Prop41ColorRGB
 90
        0
102
RTVSPost2010PropOp41
 70
     1
102
RTVSPost2010Prop42
 90
       50
102
RTVSPost2010PropOp42
 70
     1
102
RTVSPost2010Prop43
 90
        3
102
RTVSPost2010PropOp43
 70
     1
102
RTVSPost2010Prop44ColorIndex
 90
        5
102
RTVSPost2010Prop44ColorRGB
 90
      255
102
RTVSPost2010PropOp44
 70
     1
102
RTVSPost2010Prop45
280
     0
102
RTVSPost2010PropOp45
 70
     1
102
RTVSPost2010Prop46
 90
       50
102
RTVSPost2010PropOp46
 70
     1
102
RTVSPost2010Prop47
 90
       50
102
RTVSPost2010PropOp47
 70
     1
102
RTVSPost2010Prop48
 90
       50
102
RTVSPost2010PropOp48
 70
     1
102
RTVSPost2010Prop49
280
     0
102
RTVSPost2010PropOp49
 70
     1
102
RTVSPost2010Prop50
 90
       50
102
RTVSPost2010PropOp50
 70
     1
102
RTVSPost2010Prop51ColorIndex
 90
      256
102
RTVSPost2010Prop51ColorRGB
 90
-16777216
102
RTVSPost2010PropOp51
 70
     0
102
RTVSPost2010Prop52
140
1.0
102
RTVSPost2010PropOp52
 70
     0
102
RTVSPost2010Prop53
 90
        2
102
RTVSPost2010PropOp53
 70
     1
102
RTVSPost2010Prop54
  1
strokes_ogs.tif
102
RTVSPost2010PropOp54
 70
     1
102
RTVSPost2010Prop55
280
     0
102
RTVSPost2010PropOp55
 70
     1
102
RTVSPost2010Prop56
140
1.0
102
RTVSPost2010PropOp56
 70
     1
102
RTVSPost2010Prop57
140
1.0
102
RTVSPost2010PropOp57
 70
     1
102
RTVSPropertyOp0
 70
     1
102
RTVSPropertyOp1
 70
     1
102
RTVSPropertyOp2
 70
     1
102
RTVSPropertyOp3
 70
     1
102
RTVSPropertyOp4
 70
     1
102
RTVSPropertyOp5
 70
     1
102
RTVSPropertyOp6
 70
     1
102
RTVSPropertyOp7
 70
     1
102
RTVSPropertyOp8
 70
     1
102
RTVSPropertyOp9
 70
     1
102
RTVSPropertyOp10
 70
     1
102
RTVSPropertyOp11
 70
     1
102
RTVSPropertyOp12
 70
     1
102
RTVSPropertyOp13
 70
     1
102
RTVSPropertyOp14
 70
     1
102
RTVSPropertyOp15
 70
     1
102
RTVSPropertyOp16
 70
     1
102
RTVSPropertyOp17
 70
     1
102
RTVSPropertyOp18
 70
     1
102
RTVSPropertyOp19
 70
     1
102
RTVSPropertyOp20
 70
     1
102
RTVSPropertyOp21
 70
     1
102
RTVSPropertyOp22
 70
     1
102
RTVSPropertyOp23
 70
     1
102
RTVSPropertyOp24
 70
     1
102
RTVSPropertyOp25
 70
     1
102
RTVSPropertyOp26
 70
     1
102
RTVSPropertyOp27
 70
     1
102
RTVSPropertyOp28
 70
     1
102
RTVSPropertyOp29
 70
     1
102
RTVSPropertyOp30
 70
     1
102
RTVSPropertyOp31
 70
     1
102
RTVSPropertyOp32
 70
     1
102
RTVSPropertyOp33
 70
     1
102
RTVSPropertyOp34
 70
     1
102
RTVSPropertyOp35
 70
     1
102
RTVSPropertyOp36
 70
     1
102
RTVSPropertyOp37
 70
     1
102
RTVSPropertyOp38
 70
     1
102
RTVSPropertyOp39
 70
     1
102
RTVSPropertyOp40
 70
     1
102
RTVSPropertyOp41
 70
     1
102
RTVSPropertyOp42
 70
     1
102
RTVSPropertyOp43
 70
     1
102
RTVSPropertyOp44
 70
     1
102
RTVSPropertyOp45
 70
     1
102
RTVSPropertyOp46
 70
     1
102
RTVSPropertyOp47
 70
     1
102
RTVSPropertyOp48
 70
     1
102
RTVSPropertyOp49
 70
     1
102
RTVSPropertyOp50
 70
     1
102
RTVSPropertyOp51
 70
     0
102
RTVSPropertyOp52
 70
     0
102
RTVSPropertyOp53
 70
     1
102
RTVSPropertyOp54
 70
     1
102
RTVSPropertyOp55
 70
     1
102
RTVSPropertyOp56
 70
     1
102
RTVSPropertyOp57
 70
     1
102
RTVSPropertyOp58
 70
     1
102
RTVSPropertyOp59
 70
     1
102
RTVSPropertyOp60
 70
     1
102
RTVSPropertyOp61
 70
     1
102
RTVSPropertyOp62
 70
     1
  0
XRECORD
  5
5623
102
{ACAD_REACTORS
330
5622
102
}
330
5622
100
AcDbXrecord
280
     1
102
RTVSPost2010Prop28
280
     0
102
RTVSPost2010PropOp28
 70
     1
102
RTVSPost2010Prop29
280
     1
102
RTVSPost2010PropOp29
 70
     1
102
RTVSPost2010Prop30
280
     1
102
RTVSPost2010PropOp30
 70
     1
102
RTVSPost2010Prop31
280
     0
102
RTVSPost2010PropOp31
 70
     1
102
RTVSPost2010Prop32
280
     0
102
RTVSPost2010PropOp32
 70
     1
102
RTVSPost2010Prop33
280
     0
102
RTVSPost2010PropOp33
 70
     1
102
RTVSPost2010Prop34
280
     0
102
RTVSPost2010PropOp34
 70
     1
102
RTVSPost2010Prop35
280
     0
102
RTVSPost2010PropOp35
 70
     1
102
RTVSPost2010Prop36
280
     0
102
RTVSPost2010PropOp36
 70
     1
102
RTVSPost2010Prop37
 90
       50
102
RTVSPost2010PropOp37
 70
     1
102
RTVSPost2010Prop38
140
0.0
102
RTVSPost2010PropOp38
 70
     1
102
RTVSPost2010Prop39
140
1.0
102
RTVSPost2010PropOp39
 70
     1
102
RTVSPost2010Prop40
 90
        0
102
RTVSPost2010PropOp40
 70
     1
102
RTVSPost2010Prop41ColorIndex
 90
       18
102
RTVSPost2010Prop41ColorRGB
 90
        0
102
RTVSPost2010PropOp41
 70
     1
102
RTVSPost2010Prop42
 90
       50
102
RTVSPost2010PropOp42
 70
     1
102
RTVSPost2010Prop43
 90
        3
102
RTVSPost2010PropOp43
 70
     1
102
RTVSPost2010Prop44ColorIndex
 90
        5
102
RTVSPost2010Prop44ColorRGB
 90
      255
102
RTVSPost2010PropOp44
 70
     1
102
RTVSPost2010Prop45
280
     0
102
RTVSPost2010PropOp45
 70
     1
102
RTVSPost2010Prop46
 90
       50
102
RTVSPost2010PropOp46
 70
     1
102
RTVSPost2010Prop47
 90
       50
102
RTVSPost2010PropOp47
 70
     1
102
RTVSPost2010Prop48
 90
       50
102
RTVSPost2010PropOp48
 70
     1
102
RTVSPost2010Prop49
280
     0
102
RTVSPost2010PropOp49
 70
     1
102
RTVSPost2010Prop50
 90
       50
102
RTVSPost2010PropOp50
 70
     1
102
RTVSPost2010Prop51ColorIndex
 90
      256
102
RTVSPost2010Prop51ColorRGB
 90
-16777216
102
RTVSPost2010PropOp51
 70
     0
102
RTVSPost2010Prop52
140
1.0
102
RTVSPost2010PropOp52
 70
     0
102
RTVSPost2010Prop53
 90
        2
102
RTVSPost2010PropOp53
 70
     1
102
RTVSPost2010Prop54
  1
strokes_ogs.tif
102
RTVSPost2010PropOp54
 70
     1
102
RTVSPost2010Prop55
280
     0
102
RTVSPost2010PropOp55
 70
     1
102
RTVSPost2010Prop56
140
1.0
102
RTVSPost2010PropOp56
 70
     1
102
RTVSPost2010Prop57
140
1.0
102
RTVSPost2010PropOp57
 70
     1
102
RTVSPropertyOp0
 70
     1
102
RTVSPropertyOp1
 70
     1
102
RTVSPropertyOp2
 70
     1
102
RTVSPropertyOp3
 70
     1
102
RTVSPropertyOp4
 70
     1
102
RTVSPropertyOp5
 70
     1
102
RTVSPropertyOp6
 70
     1
102
RTVSPropertyOp7
 70
     1
102
RTVSPropertyOp8
 70
     1
102
RTVSPropertyOp9
 70
     1
102
RTVSPropertyOp10
 70
     1
102
RTVSPropertyOp11
 70
     1
102
RTVSPropertyOp12
 70
     1
102
RTVSPropertyOp13
 70
     1
102
RTVSPropertyOp14
 70
     1
102
RTVSPropertyOp15
 70
     1
102
RTVSPropertyOp16
 70
     1
102
RTVSPropertyOp17
 70
     1
102
RTVSPropertyOp18
 70
     1
102
RTVSPropertyOp19
 70
     1
102
RTVSPropertyOp20
 70
     1
102
RTVSPropertyOp21
 70
     1
102
RTVSPropertyOp22
 70
     1
102
RTVSPropertyOp23
 70
     1
102
RTVSPropertyOp24
 70
     1
102
RTVSPropertyOp25
 70
     1
102
RTVSPropertyOp26
 70
     1
102
RTVSPropertyOp27
 70
     1
102
RTVSPropertyOp28
 70
     1
102
RTVSPropertyOp29
 70
     1
102
RTVSPropertyOp30
 70
     1
102
RTVSPropertyOp31
 70
     1
102
RTVSPropertyOp32
 70
     1
102
RTVSPropertyOp33
 70
     1
102
RTVSPropertyOp34
 70
     1
102
RTVSPropertyOp35
 70
     1
102
RTVSPropertyOp36
 70
     1
102
RTVSPropertyOp37
 70
     1
102
RTVSPropertyOp38
 70
     1
102
RTVSPropertyOp39
 70
     1
102
RTVSPropertyOp40
 70
     1
102
RTVSPropertyOp41
 70
     1
102
RTVSPropertyOp42
 70
     1
102
RTVSPropertyOp43
 70
     1
102
RTVSPropertyOp44
 70
     1
102
RTVSPropertyOp45
 70
     1
102
RTVSPropertyOp46
 70
     1
102
RTVSPropertyOp47
 70
     1
102
RTVSPropertyOp48
 70
     1
102
RTVSPropertyOp49
 70
     1
102
RTVSPropertyOp50
 70
     1
102
RTVSPropertyOp51
 70
     0
102
RTVSPropertyOp52
 70
     0
102
RTVSPropertyOp53
 70
     1
102
RTVSPropertyOp54
 70
     1
102
RTVSPropertyOp55
 70
     1
102
RTVSPropertyOp56
 70
     1
102
RTVSPropertyOp57
 70
     1
102
RTVSPropertyOp58
 70
     1
102
RTVSPropertyOp59
 70
     1
102
RTVSPropertyOp60
 70
     1
102
RTVSPropertyOp61
 70
     1
102
RTVSPropertyOp62
 70
     1
  0
ENDSEC
  0
EOF
