  0
SECTION
  2
HEADER
  9
$ACADVER
  1
AC1012
  9
$DWGCODEPAGE
  3
dos932
  9
$INSBASE
 10
0.0
 20
0.0
 30
0.0
  9
$EXTMIN
 10
30.0
 20
0.0
 30
0.0
  9
$EXTMAX
 10
3990.607053980438
 20
2840.0
 30
0.0
  9
$LIMMIN
 10
0.0
 20
0.0
  9
$LIMMAX
 10
4200.0
 20
2970.0
  9
$ORTHOMODE
 70
     0
  9
$REGENMODE
 70
     1
  9
$FILLMODE
 70
     1
  9
$QTEXTMODE
 70
     0
  9
$MIRRTEXT
 70
     0
  9
$DRAGMODE
 70
     2
  9
$LTSCALE
 40
80.0
  9
$OSMODE
 70
    37
  9
$ATTMODE
 70
     1
  9
$TEXTSIZE
 40
30.0
  9
$TRACEWID
 40
0.05
  9
$TEXTSTYLE
  7
STANDARD
  9
$CLAYER
  8
0
  9
$CELTYPE
  6
BYLAYER
  9
$CECOLOR
 62
   256
  9
$CELTSCALE
 40
1.0
  9
$DELOBJ
 70
     1
  9
$DISPSILH
 70
     0
  9
$DIMSCALE
 40
10.0
  9
$DIMASZ
 40
2.0
  9
$DIMEXO
 40
0.1
  9
$DIMDLI
 40
7.0
  9
$DIMRND
 40
0.0
  9
$DIMDLE
 40
0.0
  9
$DIMEXE
 40
1.8
  9
$DIMTP
 40
0.0
  9
$DIMTM
 40
0.0
  9
$DIMTXT
 40
3.0
  9
$DIMCEN
 40
0.1
  9
$DIMTSZ
 40
0.0
  9
$DIMTOL
 70
     0
  9
$DIMLIM
 70
     0
  9
$DIMTIH
 70
     0
  9
$DIMTOH
 70
     0
  9
$DIMSE1
 70
     0
  9
$DIMSE2
 70
     0
  9
$DIMTAD
 70
     0
  9
$DIMZIN
 70
     9
  9
$DIMBLK
  1
YAZ1
  9
$DIMASO
 70
     1
  9
$DIMSHO
 70
     1
  9
$DIMPOST
  1

  9
$DIMAPOST
  1

  9
$DIMALT
 70
     0
  9
$DIMALTD
 70
     2
  9
$DIMALTF
 40
25.4
  9
$DIMLFAC
 40
1.0
  9
$DIMTOFL
 70
     1
  9
$DIMTVP
 40
1.0
  9
$DIMTIX
 70
     0
  9
$DIMSOXD
 70
     0
  9
$DIMSAH
 70
     1
  9
$DIMBLK1
  1
YAZ1
  9
$DIMBLK2
  1
YAZ1
  9
$DIMSTYLE
  2
YAZ1
  9
$DIMCLRD
 70
   256
  9
$DIMCLRE
 70
   256
  9
$DIMCLRT
 70
   256
  9
$DIMTFAC
 40
1.0
  9
$DIMGAP
 40
0.0
  9
$DIMJUST
 70
     0
  9
$DIMSD1
 70
     0
  9
$DIMSD2
 70
     0
  9
$DIMTOLJ
 70
     1
  9
$DIMTZIN
 70
     9
  9
$DIMALTZ
 70
     9
  9
$DIMALTTZ
 70
     9
  9
$DIMFIT
 70
     3
  9
$DIMUPT
 70
     0
  9
$DIMUNIT
 70
     2
  9
$DIMDEC
 70
     3
  9
$DIMTDEC
 70
     3
  9
$DIMALTU
 70
     2
  9
$DIMALTTD
 70
     2
  9
$DIMTXSTY
  7
STANDARD
  9
$DIMAUNIT
 70
     0
  9
$LUNITS
 70
     2
  9
$LUPREC
 70
     3
  9
$SKETCHINC
 40
0.1
  9
$FILLETRAD
 40
0.0
  9
$AUNITS
 70
     0
  9
$AUPREC
 70
     2
  9
$MENU
  1
amecex
  9
$ELEVATION
 40
0.0
  9
$PELEVATION
 40
0.0
  9
$THICKNESS
 40
0.0
  9
$LIMCHECK
 70
     0
  9
$BLIPMODE
 70
     0
  9
$CHAMFERA
 40
0.0
  9
$CHAMFERB
 40
0.0
  9
$CHAMFERC
 40
0.0
  9
$CHAMFERD
 40
0.0
  9
$SKPOLY
 70
     0
  9
$TDCREATE
 40
2452593.633064710
  9
$TDUPDATE
 40
2456059.491799259
  9
$TDINDWG
 40
0.5582817593
  9
$TDUSRTIMER
 40
0.5582816435
  9
$USRTIMER
 70
     1
  9
$ANGBASE
 50
0.0
  9
$ANGDIR
 70
     0
  9
$PDMODE
 70
     0
  9
$PDSIZE
 40
0.0
  9
$PLINEWID
 40
0.0
  9
$COORDS
 70
     0
  9
$SPLFRAME
 70
     0
  9
$SPLINETYPE
 70
     6
  9
$SPLINESEGS
 70
     8
  9
$ATTDIA
 70
     0
  9
$ATTREQ
 70
     1
  9
$HANDLING
 70
-16383
  9
$HANDSEED
  5
442B
  9
$SURFTAB1
 70
     6
  9
$SURFTAB2
 70
     6
  9
$SURFTYPE
 70
     6
  9
$SURFU
 70
     6
  9
$SURFV
 70
     6
  9
$UCSNAME
  2

  9
$UCSORG
 10
0.0
 20
0.0
 30
0.0
  9
$UCSXDIR
 10
1.0
 20
0.0
 30
0.0
  9
$UCSYDIR
 10
0.0
 20
1.0
 30
0.0
  9
$PUCSNAME
  2

  9
$PUCSORG
 10
0.0
 20
0.0
 30
0.0
  9
$PUCSXDIR
 10
1.0
 20
0.0
 30
0.0
  9
$PUCSYDIR
 10
0.0
 20
1.0
 30
0.0
  9
$USERI1
 70
     0
  9
$USERI2
 70
     0
  9
$USERI3
 70
     0
  9
$USERI4
 70
     0
  9
$USERI5
 70
     0
  9
$USERR1
 40
30.0
  9
$USERR2
 40
0.0
  9
$USERR3
 40
0.0
  9
$USERR4
 40
0.0
  9
$USERR5
 40
0.0
  9
$WORLDVIEW
 70
     1
  9
$SHADEDGE
 70
     3
  9
$SHADEDIF
 70
    70
  9
$TILEMODE
 70
     1
  9
$MAXACTVP
 70
    16
  9
$PINSBASE
 10
0.0
 20
0.0
 30
0.0
  9
$PLIMCHECK
 70
     0
  9
$PEXTMIN
 10
1.000000000000000E+20
 20
1.000000000000000E+20
 30
1.000000000000000E+20
  9
$PEXTMAX
 10
-1.000000000000000E+20
 20
-1.000000000000000E+20
 30
-1.000000000000000E+20
  9
$PLIMMIN
 10
0.0
 20
0.0
  9
$PLIMMAX
 10
12.0
 20
9.0
  9
$UNITMODE
 70
     0
  9
$VISRETAIN
 70
     0
  9
$PLINEGEN
 70
     0
  9
$PSLTSCALE
 70
     0
  9
$TREEDEPTH
 70
  3020
  9
$PICKSTYLE
 70
     1
  9
$CMLSTYLE
  2
STANDARD
  9
$CMLJUST
 70
     0
  9
$CMLSCALE
 40
1.0
  9
$SAVEIMAGES
 70
     1
  0
ENDSEC
  0
SECTION
  2
CLASSES
  0
CLASS
  1
ACDBDICTIONARYWDFLT
  2
AcDbDictionaryWithDefault
  3
AutoCAD 2000
 90
    32768
280
     0
281
     0
  0
CLASS
  1
ACDBPLACEHOLDER
  2
AcDbPlaceHolder
  3
AutoCAD 2000
 90
    32768
280
     0
281
     0
  0
CLASS
  1
LAYOUT
  2
AcDbLayout
  3
AutoCAD 2000
 90
    32768
280
     0
281
     0
  0
CLASS
  1
DICTIONARYVAR
  2
AcDbDictionaryVar
  3
AutoCAD 2000
 90
    32768
280
     0
281
     0
  0
CLASS
  1
LONG_TRANSACTION
  2
AcDbLongTransaction
  3
AutoCAD 2000
 90
    32768
280
     0
281
     0
  0
CLASS
  1
LWPOLYLINE
  2
AcDbPolyline
  3
AutoCAD 2000
 90
    32768
280
     0
281
     1
  0
CLASS
  1
HATCH
  2
AcDbHatch
  3
AutoCAD 2000
 90
    32768
280
     0
281
     1
  0
CLASS
  1
XRECORD
  2
AcDbXrecord
  3
AutoCAD 2000
 90
    32768
280
     0
281
     0
  0
CLASS
  1
LONG_TRANSACTION
  2
AcDbLongTransaction
  3
AutoCAD 2000
 90
    32768
280
     0
281
     0
  0
CLASS
  1
LWPOLYLINE
  2
AcDbPolyline
  3
AutoCAD 2000
 90
    32768
280
     0
281
     1
  0
CLASS
  1
HATCH
  2
AcDbHatch
  3
AutoCAD 2000
 90
    32768
280
     0
281
     1
  0
CLASS
  1
XRECORD
  2
AcDbXrecord
  3
AutoCAD 2000
 90
    32768
280
     0
281
     0
  0
ENDSEC
  0
SECTION
  2
TABLES
  0
TABLE
  2
VPORT
  5
1C9
330
0
100
AcDbSymbolTable
 70
     2
  0
VPORT
  5
4428
330
1C9
100
AcDbSymbolTableRecord
100
AcDbViewportTableRecord
  2
*ACTIVE
 70
     0
 10
0.0
 20
0.0
 11
1.0
 21
1.0
 12
2455.414700456426
 22
1634.445148780389
 13
0.0
 23
0.0
 14
1.0
 24
1.0
 15
0.0
 25
0.0
 16
0.0
 26
0.0
 36
1.0
 17
0.0
 27
0.0
 37
0.0
 40
4155.667538334552
 41
1.81042654028436
 42
50.0
 43
0.0
 44
0.0
 50
0.0
 51
0.0
 71
     0
 72
   100
 73
     1
 74
     1
 75
     0
 76
     0
 77
     0
 78
     0
  0
ENDTAB
  0
TABLE
  2
LTYPE
  5
1C6
330
0
100
AcDbSymbolTable
 70
     2
  0
LTYPE
  5
1D3
330
1C6
100
AcDbSymbolTableRecord
100
AcDbLinetypeTableRecord
  2
BYBLOCK
 70
     0
  3

 72
    65
 73
     0
 40
0.0
  0
LTYPE
  5
1D4
330
1C6
100
AcDbSymbolTableRecord
100
AcDbLinetypeTableRecord
  2
BYLAYER
 70
     0
  3

 72
    65
 73
     0
 40
0.0
  0
LTYPE
  5
1D5
330
1C6
100
AcDbSymbolTableRecord
100
AcDbLinetypeTableRecord
  2
CONTINUOUS
 70
     0
  3
実線
 72
    65
 73
     0
 40
0.0
  0
ENDTAB
  0
TABLE
  2
LAYER
  5
1C3
102
{ACAD_XDICTIONARY
360
2738
102
}
330
0
100
AcDbSymbolTable
 70
     4
  0
LAYER
  5
1D0
330
1C3
100
AcDbSymbolTableRecord
100
AcDbLayerTableRecord
  2
0
 70
     0
 62
     7
  6
CONTINUOUS
  0
ENDTAB
  0
TABLE
  2
STYLE
  5
1C4
330
0
100
AcDbSymbolTable
 70
     1
  0
STYLE
  5
1D1
330
1C4
100
AcDbSymbolTableRecord
100
AcDbTextStyleTableRecord
  2
STANDARD
 70
     0
 40
0.0
 41
1.0
 50
0.0
 71
     0
 42
30.0
  3
TXT
  4
BIGFONT
  0
ENDTAB
  0
TABLE
  2
VIEW
  5
1C7
330
0
100
AcDbSymbolTable
 70
     0
  0
ENDTAB
  0
TABLE
  2
UCS
  5
1C8
330
0
100
AcDbSymbolTable
 70
     0
  0
ENDTAB
  0
TABLE
  2
APPID
  5
1CA
330
0
100
AcDbSymbolTable
 70
     2
  0
APPID
  5
1D2
330
1CA
100
AcDbSymbolTableRecord
100
AcDbRegAppTableRecord
  2
ACAD
 70
     0
  0
APPID
  5
286
330
1CA
100
AcDbSymbolTableRecord
100
AcDbRegAppTableRecord
  2
ACE-LT__COPYRIGHT_TRIALSOFT-JPN
 70
     0
  0
ENDTAB
  0
TABLE
  2
DIMSTYLE
  5
1CB
330
0
100
AcDbSymbolTable
 70
     1
  0
DIMSTYLE
105
1F1
330
1CB
100
AcDbSymbolTableRecord
100
AcDbDimStyleTableRecord
  2
YAZ1
 70
     0
  3

  4

  5
YAZ1
  6
YAZ1
  7
YAZ1
 40
10.0
 41
2.0
 42
0.1
 43
7.0
 44
1.8
 45
0.0
 46
0.0
 47
0.0
 48
0.0
140
3.0
141
0.1
142
0.0
143
25.4
144
1.0
145
1.0
146
1.0
147
0.0
 71
     0
 72
     0
 73
     0
 74
     0
 75
     0
 76
     0
 77
     0
 78
     9
170
     0
171
     2
172
     1
173
     1
174
     0
175
     0
176
   256
177
   256
178
   256
270
     2
271
     3
272
     3
273
     2
274
     2
340
1D1
275
     0
280
     0
281
     0
282
     0
283
     1
284
     9
285
     9
286
     9
287
     3
288
     0
  0
ENDTAB
  0
TABLE
  2
BLOCK_RECORD
  5
1C2
330
0
100
AcDbSymbolTable
 70
     1
  0
BLOCK_RECORD
  5
1D9
102
{ACAD_XDICTIONARY
360
43F4
102
}
330
1C2
100
AcDbSymbolTableRecord
100
AcDbBlockTableRecord
  2
*MODEL_SPACE
  0
BLOCK_RECORD
  5
1D6
102
{ACAD_XDICTIONARY
360
43F2
102
}
330
1C2
100
AcDbSymbolTableRecord
100
AcDbBlockTableRecord
  2
*PAPER_SPACE
  0
BLOCK_RECORD
  5
254
330
1C2
100
AcDbSymbolTableRecord
100
AcDbBlockTableRecord
  2
YAZ1
  0
ENDTAB
  0
ENDSEC
  0
SECTION
  2
BLOCKS
  0
BLOCK
  5
20A
330
1D9
100
AcDbEntity
  8
0
100
AcDbBlockBegin
  2
*MODEL_SPACE
 70
     0
 10
0.0
 20
0.0
 30
0.0
  3
*MODEL_SPACE
  1

  0
ENDBLK
  5
20B
330
1D9
100
AcDbEntity
  8
0
100
AcDbBlockEnd
  0
BLOCK
  5
208
330
1D6
100
AcDbEntity
 67
     1
  8
0
100
AcDbBlockBegin
  2
*PAPER_SPACE
 70
     0
 10
0.0
 20
0.0
 30
0.0
  3
*PAPER_SPACE
  1

  0
ENDBLK
  5
209
330
1D6
100
AcDbEntity
 67
     1
  8
0
100
AcDbBlockEnd
  0
BLOCK
  5
258
330
254
100
AcDbEntity
  8
0
100
AcDbBlockBegin
  2
YAZ1
 70
     0
 10
0.0
 20
0.0
 30
0.0
  3
YAZ1
  1

  0
LINE
  5
255
330
254
100
AcDbEntity
  8
0
100
AcDbLine
 10
0.0
 20
0.0
 30
0.0
 11
-1.0
 21
-0.2679491924311037
 31
0.0
  0
LINE
  5
256
330
254
100
AcDbEntity
  8
0
100
AcDbLine
 10
0.0
 20
0.0
 30
0.0
 11
-1.0
 21
0.2679491924311037
 31
0.0
  0
LINE
  5
257
330
254
100
AcDbEntity
  8
0
100
AcDbLine
 10
-1.0
 20
0.0
 30
0.0
 11
0.0
 21
0.0
 31
0.0
  0
ENDBLK
  5
259
330
254
100
AcDbEntity
  8
0
100
AcDbBlockEnd
  0
ENDSEC
  0
SECTION
  2
ENTITIES
  0
TEXT
  5
3589
330
1D9
100
AcDbEntity
  8
0
100
AcDbText
 10
882.0349464376231
 20
1012.512383790262
 30
0.0
 40
48.51116625310172
  1
呼び径：150
100
AcDbText
  0
TEXT
  5
358A
330
1D9
100
AcDbEntity
  8
0
100
AcDbText
 10
723.7486510764775
 20
939.839685983552
 30
0.0
 40
48.51116625310172
  1
品番：NF150-100VSS
100
AcDbText
  0
TEXT
  5
358B
330
1D9
100
AcDbEntity
  8
0
100
AcDbText
 10
553.880486313672
 20
2236.557048802669
 30
0.0
 40
48.51116625310172
  1
呼び径：75
100
AcDbText
  0
TEXT
  5
358C
330
1D9
100
AcDbEntity
  8
0
100
AcDbText
 10
395.5941909525263
 20
2163.884350995957
 30
0.0
 40
48.51116625310172
  1
品番：NF75-100VSS
100
AcDbText
  0
LINE
  5
3591
330
1D9
100
AcDbEntity
  8
0
100
AcDbLine
 10
80.0
 20
2450.0
 30
0.0
 11
3990.0
 21
2450.0
 31
0.0
  0
LINE
  5
3592
330
1D9
100
AcDbEntity
  8
0
100
AcDbLine
 10
3990.607053980438
 20
1225.955334987593
 30
0.0
 11
80.60705398043863
 21
1225.955334987593
 31
0.0
  0
LINE
  5
359E
330
1D9
100
AcDbEntity
  8
0
100
AcDbLine
 10
3990.0
 20
0.0
 30
0.0
 11
80.0
 21
0.0
 31
0.0
  0
LINE
  5
359F
330
1D9
100
AcDbEntity
  8
0
100
AcDbLine
 10
80.0
 20
2840.0
 30
0.0
 11
3990.0
 21
2840.0
 31
0.0
  0
TEXT
  5
35A0
330
1D9
100
AcDbEntity
  8
0
100
AcDbText
 10
195.1116189770246
 20
2608.88260459352
 30
0.0
 40
67.91563275434242
  1
フレキベンダーＶＰ 〔偏芯量：100mm　挿口×挿口〕
100
AcDbText
  0
LINE
  5
35A1
330
1D9
100
AcDbEntity
  8
0
100
AcDbLine
 10
80.0
 20
0.0
 30
0.0
 11
80.0
 21
2840.0
 31
0.0
  0
TEXT
  5
35A6
330
1D9
100
AcDbEntity
  8
0
100
AcDbText
 10
3180.821209423855
 20
2236.557048802669
 30
0.0
 40
48.51116625310172
  1
呼び径：125
100
AcDbText
  0
TEXT
  5
35A7
330
1D9
100
AcDbEntity
  8
0
100
AcDbText
 10
3022.534914062708
 20
2163.884350995957
 30
0.0
 40
48.51116625310172
  1
品番：NF125-100VSS
100
AcDbText
  0
LINE
  5
35F1
330
1D9
100
AcDbEntity
  8
0
100
AcDbLine
 10
1384.0
 20
2450.0
 30
0.0
 11
1384.0
 21
1225.955334987593
 31
0.0
  0
LINE
  5
372B
330
1D9
100
AcDbEntity
  8
0
100
AcDbLine
 10
3990.0
 20
2840.0
 30
0.0
 11
3990.0
 21
0.0
 31
0.0
  0
TEXT
  5
3730
330
1D9
100
AcDbEntity
  8
0
100
AcDbText
 10
2824.72649054422
 20
1012.512383790262
 30
0.0
 40
48.51116625310172
  1
呼び径：200
100
AcDbText
  0
TEXT
  5
3731
330
1D9
100
AcDbEntity
  8
0
100
AcDbText
 10
2666.440195183075
 20
939.839685983552
 30
0.0
 40
48.51116625310172
  1
品番：NF200-100VSS
100
AcDbText
  0
TEXT
  5
3732
330
1D9
100
AcDbEntity
  8
0
100
AcDbText
 10
1859.815885158945
 20
2236.557048802669
 30
0.0
 40
48.51116625310172
  1
呼び径：100
100
AcDbText
  0
TEXT
  5
3733
330
1D9
100
AcDbEntity
  8
0
100
AcDbText
 10
1701.529589797798
 20
2163.884350995957
 30
0.0
 40
48.51116625310172
  1
品番：NF100-100VSS
100
AcDbText
  0
LINE
  5
373B
330
1D9
100
AcDbEntity
  8
0
100
AcDbLine
 10
2687.0
 20
2450.0
 30
0.0
 11
2687.0
 21
1225.955334987593
 31
0.0
  0
TEXT
  5
37AC
330
1D9
100
AcDbEntity
  8
0
100
AcDbText
 10
2859.582929673814
 20
2512.619782322264
 30
0.0
 40
48.51116625310172
  1
接合方式：接着接合
100
AcDbText
  0
TEXT
  5
37ED
330
1D9
100
AcDbEntity
  8
0
100
AcDbText
 10
2859.582929673814
 20
2619.829270159938
 30
0.0
 40
48.51116625310172
  1
最高使用圧力：大気圧（自然流下）
100
AcDbText
  0
TEXT
  5
381D
330
1D9
100
AcDbEntity
  8
0
100
AcDbText
 10
2859.582929673814
 20
2727.993337267484
 30
0.0
 40
48.51116625310172
  1
材質：U-PVC
100
AcDbText
  0
LINE
  5
3ED4
330
1D9
100
AcDbEntity
  8
0
100
AcDbLine
 10
873.2470000000002
 20
582.4999999999994
 30
0.0
 11
773.2499999999999
 21
582.4999999999994
 31
0.0
  0
LINE
  5
3ED5
330
1D9
100
AcDbEntity
  8
0
100
AcDbLine
 10
510.698
 20
500.0
 30
0.0
 11
1139.247
 21
500.0
 31
0.0
  0
LINE
  5
3ED6
330
1D9
100
AcDbEntity
  8
0
100
AcDbLine
 10
873.2470000000002
 20
417.4999999999998
 30
0.0
 11
773.2499999999999
 21
417.4999999999998
 31
0.0
  0
LINE
  5
3EE9
330
1D9
100
AcDbEntity
  8
0
100
AcDbLine
 10
767.0329999999997
 20
399.0
 30
0.0
 11
767.0329999999997
 21
500.0
 31
0.0
  0
LINE
  5
3EEA
330
1D9
100
AcDbEntity
  8
0
100
AcDbLine
 10
665.8999999999999
 20
417.4999999999998
 30
0.0
 11
665.8999999999999
 21
500.0
 31
0.0
  0
LINE
  5
3EEB
330
1D9
100
AcDbEntity
  8
0
100
AcDbLine
 10
544.2499999999999
 20
417.4999999999998
 30
0.0
 11
544.2499999999999
 21
500.0
 31
0.0
  0
LINE
  5
3EEC
330
1D9
100
AcDbEntity
  8
0
100
AcDbLine
 10
773.2499999999999
 20
500.0
 30
0.0
 11
773.2499999999999
 21
399.0
 31
0.0
  0
LINE
  5
3EED
330
1D9
100
AcDbEntity
  8
0
100
AcDbLine
 10
533.25
 20
420.4470000000001
 30
0.0
 11
533.25
 21
500.0
 31
0.0
  0
LINE
  5
3EEE
330
1D9
100
AcDbEntity
  8
0
100
AcDbLine
 10
665.8999999999999
 20
417.4999999999998
 30
0.0
 11
544.2499999999999
 21
417.4999999999998
 31
0.0
  0
LINE
  5
3EEF
330
1D9
100
AcDbEntity
  8
0
100
AcDbLine
 10
533.25
 20
420.4470000000001
 30
0.0
 11
544.2499999999999
 21
417.4999999999998
 31
0.0
  0
ARC
  5
3EF1
330
1D9
100
AcDbEntity
  8
0
100
AcDbCircle
 10
733.25
 20
500.0
 30
0.0
 40
106.4999999999999
100
AcDbArc
 50
230.7730000000062
 51
288.4939999999963
  0
LINE
  5
3EF2
330
1D9
100
AcDbEntity
  8
0
100
AcDbLine
 10
767.0329999999997
 20
399.0
 30
0.0
 11
773.2499999999999
 21
399.0
 31
0.0
  0
LINE
  5
3EF3
330
1D9
100
AcDbEntity
  8
0
100
AcDbLine
 10
665.8999999999999
 20
582.4999999999994
 30
0.0
 11
544.2499999999999
 21
582.4999999999994
 31
0.0
  0
LINE
  5
3EF4
330
1D9
100
AcDbEntity
  8
0
100
AcDbLine
 10
544.2499999999999
 20
582.4999999999994
 30
0.0
 11
544.2499999999999
 21
500.0
 31
0.0
  0
LINE
  5
3EF5
330
1D9
100
AcDbEntity
  8
0
100
AcDbLine
 10
533.25
 20
579.5520000000001
 30
0.0
 11
533.25
 21
500.0
 31
0.0
  0
LINE
  5
3EF6
330
1D9
100
AcDbEntity
  8
0
100
AcDbLine
 10
533.25
 20
579.5520000000001
 30
0.0
 11
544.2499999999999
 21
582.4999999999994
 31
0.0
  0
ARC
  5
3EF7
330
1D9
100
AcDbEntity
  8
0
100
AcDbCircle
 10
733.25
 20
500.0
 30
0.0
 40
106.4999999999999
100
AcDbArc
 50
71.50600000000356
 51
129.2269999999935
  0
LINE
  5
3EF8
330
1D9
100
AcDbEntity
  8
0
100
AcDbLine
 10
665.8999999999999
 20
582.4999999999994
 30
0.0
 11
665.8999999999999
 21
500.0
 31
0.0
  0
LINE
  5
3EF9
330
1D9
100
AcDbEntity
  8
0
100
AcDbLine
 10
767.0329999999997
 20
600.9999999999994
 30
0.0
 11
767.0329999999997
 21
500.0
 31
0.0
  0
LINE
  5
3EFA
330
1D9
100
AcDbEntity
  8
0
100
AcDbLine
 10
773.2499999999999
 20
500.0
 30
0.0
 11
773.2499999999999
 21
600.9999999999994
 31
0.0
  0
LINE
  5
3EFB
330
1D9
100
AcDbEntity
  8
0
100
AcDbLine
 10
733.25
 20
525.0
 30
0.0
 11
733.25
 21
475.0
 31
0.0
  0
LINE
  5
3EFC
330
1D9
100
AcDbEntity
  8
0
100
AcDbLine
 10
767.0329999999997
 20
600.9999999999994
 30
0.0
 11
773.2499999999999
 21
600.9999999999994
 31
0.0
  0
LINE
  5
3F24
330
1D9
100
AcDbEntity
  8
0
100
AcDbLine
 10
1175.247
 20
476.0
 30
0.0
 11
1610.06
 21
476.0
 31
0.0
  0
ARC
  5
3F26
330
1D9
100
AcDbEntity
  8
0
100
AcDbCircle
 10
1382.249999999999
 20
476.0
 30
0.0
 40
106.4999999999999
100
AcDbArc
 50
71.50600000000356
 51
129.2269999999935
  0
ARC
  5
3F27
330
1D9
100
AcDbEntity
  8
0
100
AcDbCircle
 10
1382.249999999999
 20
476.0
 30
0.0
 40
106.4999999999999
100
AcDbArc
 50
230.7730000000062
 51
288.4939999999963
  0
LINE
  5
3F28
330
1D9
100
AcDbEntity
  8
0
100
AcDbLine
 10
1314.9
 20
558.4999999999994
 30
0.0
 11
1314.9
 21
393.5
 31
0.0
  0
LINE
  5
3F29
330
1D9
100
AcDbEntity
  8
0
100
AcDbLine
 10
1161.494
 20
560.4999999999994
 30
0.0
 11
1161.494
 21
415.5169999999998
 31
0.0
  0
LINE
  5
3F2A
330
1D9
100
AcDbEntity
  8
0
100
AcDbLine
 10
1175.247
 20
387.0
 30
0.0
 11
1175.247
 21
476.0
 31
0.0
  0
LINE
  5
3F2B
330
1D9
100
AcDbEntity
  8
0
100
AcDbLine
 10
1262.25
 20
387.0
 30
0.0
 11
1262.25
 21
476.0
 31
0.0
  0
LINE
  5
3F2C
330
1D9
100
AcDbEntity
  8
0
100
AcDbLine
 10
1139.247
 20
385.5
 30
0.0
 11
1139.247
 21
500.0
 31
0.0
  0
LINE
  5
3F2D
330
1D9
100
AcDbEntity
  8
0
100
AcDbLine
 10
1017.247
 20
385.5
 30
0.0
 11
1017.247
 21
500.0
 31
0.0
  0
LINE
  5
3F2E
330
1D9
100
AcDbEntity
  8
0
100
AcDbLine
 10
873.2470000000002
 20
392.0
 30
0.0
 11
873.2470000000002
 21
500.0
 31
0.0
  0
LINE
  5
3F30
330
1D9
100
AcDbEntity
  8
0
100
AcDbLine
 10
1017.247
 20
385.5
 30
0.0
 11
1139.247
 21
385.5
 31
0.0
  0
LINE
  5
3F31
330
1D9
100
AcDbEntity
  8
0
100
AcDbLine
 10
873.2470000000002
 20
392.0
 30
0.0
 11
1017.247
 21
392.0
 31
0.0
  0
LINE
  5
3F33
330
1D9
100
AcDbEntity
  8
0
100
AcDbLine
 10
1175.247
 20
387.0
 30
0.0
 11
1262.25
 21
387.0
 31
0.0
  0
LINE
  5
3F34
330
1D9
100
AcDbEntity
  8
0
100
AcDbLine
 10
1139.247
 20
391.5
 30
0.0
 11
1175.247
 21
391.5
 31
0.0
  0
LINE
  5
3F35
330
1D9
100
AcDbEntity
  8
0
100
AcDbLine
 10
1314.9
 20
393.5
 30
0.0
 11
1262.25
 21
393.5
 31
0.0
  0
LINE
  5
3F36
330
1D9
100
AcDbEntity
  8
0
100
AcDbLine
 10
1017.247
 20
614.4999999999996
 30
0.0
 11
1139.247
 21
614.4999999999996
 31
0.0
  0
LINE
  5
3F37
330
1D9
100
AcDbEntity
  8
0
100
AcDbLine
 10
873.2470000000002
 20
607.9999999999994
 30
0.0
 11
1017.247
 21
607.9999999999994
 31
0.0
  0
LINE
  5
3F38
330
1D9
100
AcDbEntity
  8
0
100
AcDbLine
 10
873.2470000000002
 20
607.9999999999994
 30
0.0
 11
873.2470000000002
 21
500.0
 31
0.0
  0
LINE
  5
3F39
330
1D9
100
AcDbEntity
  8
0
100
AcDbLine
 10
1017.247
 20
614.4999999999996
 30
0.0
 11
1017.247
 21
500.0
 31
0.0
  0
LINE
  5
3F3A
330
1D9
100
AcDbEntity
  8
0
100
AcDbLine
 10
1175.247
 20
564.9999999999994
 30
0.0
 11
1262.25
 21
564.9999999999994
 31
0.0
  0
LINE
  5
3F3B
330
1D9
100
AcDbEntity
  8
0
100
AcDbLine
 10
1175.247
 20
564.9999999999994
 30
0.0
 11
1175.247
 21
476.0
 31
0.0
  0
LINE
  5
3F3C
330
1D9
100
AcDbEntity
  8
0
100
AcDbLine
 10
1139.247
 20
614.4999999999996
 30
0.0
 11
1139.247
 21
500.0
 31
0.0
  0
LINE
  5
3F3D
330
1D9
100
AcDbEntity
  8
0
100
AcDbLine
 10
1139.247
 20
500.0
 30
0.0
 11
1175.247
 21
476.0
 31
0.0
  0
LINE
  5
3F3E
330
1D9
100
AcDbEntity
  8
0
100
AcDbLine
 10
1139.247
 20
603.2130000000002
 30
0.0
 11
1161.494
 21
560.4999999999994
 31
0.0
  0
LINE
  5
3F3F
330
1D9
100
AcDbEntity
  8
0
100
AcDbLine
 10
1161.494
 20
560.4999999999994
 30
0.0
 11
1175.247
 21
560.4999999999994
 31
0.0
  0
LINE
  5
3F40
330
1D9
100
AcDbEntity
  8
0
100
AcDbLine
 10
1262.25
 20
564.9999999999994
 30
0.0
 11
1262.25
 21
476.0
 31
0.0
  0
LINE
  5
3F41
330
1D9
100
AcDbEntity
  8
0
100
AcDbLine
 10
1314.9
 20
558.4999999999994
 30
0.0
 11
1262.25
 21
558.4999999999994
 31
0.0
  0
LINE
  5
3F42
330
1D9
100
AcDbEntity
  8
0
100
AcDbLine
 10
1572.25
 20
393.5
 30
0.0
 11
1572.25
 21
476.0
 31
0.0
  0
LINE
  5
3F43
330
1D9
100
AcDbEntity
  8
0
100
AcDbLine
 10
1583.25
 20
396.4470000000001
 30
0.0
 11
1583.25
 21
476.0
 31
0.0
  0
LINE
  5
3F44
330
1D9
100
AcDbEntity
  8
0
100
AcDbLine
 10
1416.03
 20
576.9999999999994
 30
0.0
 11
1416.03
 21
375.0
 31
0.0
  0
LINE
  5
3F45
330
1D9
100
AcDbEntity
  8
0
100
AcDbLine
 10
1422.25
 20
476.0
 30
0.0
 11
1422.25
 21
375.0
 31
0.0
  0
LINE
  5
3F47
330
1D9
100
AcDbEntity
  8
0
100
AcDbLine
 10
1422.25
 20
393.5
 30
0.0
 11
1572.25
 21
393.5
 31
0.0
  0
LINE
  5
3F48
330
1D9
100
AcDbEntity
  8
0
100
AcDbLine
 10
1416.03
 20
375.0
 30
0.0
 11
1422.25
 21
375.0
 31
0.0
  0
LINE
  5
3F49
330
1D9
100
AcDbEntity
  8
0
100
AcDbLine
 10
1583.25
 20
396.4470000000001
 30
0.0
 11
1572.25
 21
393.5
 31
0.0
  0
LINE
  5
3F4A
330
1D9
100
AcDbEntity
  8
0
100
AcDbLine
 10
1422.25
 20
558.4999999999994
 30
0.0
 11
1572.25
 21
558.4999999999994
 31
0.0
  0
LINE
  5
3F4B
330
1D9
100
AcDbEntity
  8
0
100
AcDbLine
 10
1422.25
 20
476.0
 30
0.0
 11
1422.25
 21
576.9999999999994
 31
0.0
  0
LINE
  5
3F4C
330
1D9
100
AcDbEntity
  8
0
100
AcDbLine
 10
1382.249999999999
 20
501.0
 30
0.0
 11
1382.249999999999
 21
451.0
 31
0.0
  0
LINE
  5
3F4D
330
1D9
100
AcDbEntity
  8
0
100
AcDbLine
 10
1416.03
 20
576.9999999999994
 30
0.0
 11
1422.25
 21
576.9999999999994
 31
0.0
  0
LINE
  5
3F4E
330
1D9
100
AcDbEntity
  8
0
100
AcDbLine
 10
1572.25
 20
558.4999999999994
 30
0.0
 11
1572.25
 21
476.0
 31
0.0
  0
LINE
  5
3F4F
330
1D9
100
AcDbEntity
  8
0
100
AcDbLine
 10
1583.25
 20
555.5520000000001
 30
0.0
 11
1583.25
 21
476.0
 31
0.0
  0
LINE
  5
3F50
330
1D9
100
AcDbEntity
  8
0
100
AcDbLine
 10
1583.25
 20
555.5520000000001
 30
0.0
 11
1572.25
 21
558.4999999999994
 31
0.0
  0
LINE
  5
3F55
330
1D9
100
AcDbEntity
  8
0
100
AcDbLine
 10
2411.949
 20
500.0
 30
0.0
 11
3013.747
 21
500.0
 31
0.0
  0
ARC
  5
3F56
330
1D9
100
AcDbEntity
  8
0
100
AcDbCircle
 10
2682.75
 20
500.0
 30
0.0
 40
137.7499999999999
100
AcDbArc
 50
231.6309999999961
 51
288.6719999999998
  0
ARC
  5
3F57
330
1D9
100
AcDbEntity
  8
0
100
AcDbCircle
 10
2682.75
 20
500.0
 30
0.0
 40
137.7499999999999
100
AcDbArc
 50
71.32829999999954
 51
128.3690000000038
  0
LINE
  5
3F58
330
1D9
100
AcDbEntity
  8
0
100
AcDbLine
 10
2682.75
 20
525.0
 30
0.0
 11
2682.75
 21
475.0
 31
0.0
  0
LINE
  5
3F59
330
1D9
100
AcDbEntity
  8
0
100
AcDbLine
 10
2597.245
 20
392.0
 30
0.0
 11
2597.245
 21
500.0
 31
0.0
  0
LINE
  5
3F5A
330
1D9
100
AcDbEntity
  8
0
100
AcDbLine
 10
2449.75
 20
392.0
 30
0.0
 11
2449.75
 21
500.0
 31
0.0
  0
LINE
  5
3F5B
330
1D9
100
AcDbEntity
  8
0
100
AcDbLine
 10
2437.75
 20
500.0
 30
0.0
 11
2437.75
 21
395.0
 31
0.0
  0
LINE
  5
3F67
330
1D9
100
AcDbEntity
  8
0
100
AcDbLine
 10
2449.75
 20
392.0
 30
0.0
 11
2597.245
 21
392.0
 31
0.0
  0
LINE
  5
3F68
330
1D9
100
AcDbEntity
  8
0
100
AcDbLine
 10
2437.75
 20
395.0
 30
0.0
 11
2449.75
 21
392.0
 31
0.0
  0
LINE
  5
3F69
330
1D9
100
AcDbEntity
  8
0
100
AcDbLine
 10
2449.75
 20
608.0
 30
0.0
 11
2597.245
 21
608.0
 31
0.0
  0
LINE
  5
3F6A
330
1D9
100
AcDbEntity
  8
0
100
AcDbLine
 10
2449.75
 20
608.0
 30
0.0
 11
2449.75
 21
500.0
 31
0.0
  0
LINE
  5
3F6B
330
1D9
100
AcDbEntity
  8
0
100
AcDbLine
 10
2437.75
 20
500.0
 30
0.0
 11
2437.75
 21
605.0
 31
0.0
  0
LINE
  5
3F6C
330
1D9
100
AcDbEntity
  8
0
100
AcDbLine
 10
2437.75
 20
605.0
 30
0.0
 11
2449.75
 21
608.0
 31
0.0
  0
LINE
  5
3F6D
330
1D9
100
AcDbEntity
  8
0
100
AcDbLine
 10
2597.245
 20
608.0
 30
0.0
 11
2597.245
 21
500.0
 31
0.0
  0
LINE
  5
3F6E
330
1D9
100
AcDbEntity
  8
0
100
AcDbLine
 10
3575.750000000001
 20
583.4999999999999
 30
0.0
 11
3575.750000000001
 21
475.4999999999998
 31
0.0
  0
LINE
  5
3F6F
330
1D9
100
AcDbEntity
  8
0
100
AcDbLine
 10
3587.749999999999
 20
475.4999999999998
 30
0.0
 11
3587.749999999999
 21
580.4999999999998
 31
0.0
  0
LINE
  5
3F70
330
1D9
100
AcDbEntity
  8
0
100
AcDbLine
 10
3348.749999999999
 20
500.4999999999998
 30
0.0
 11
3348.749999999999
 21
450.4999999999998
 31
0.0
  0
LINE
  5
3F71
330
1D9
100
AcDbEntity
  8
0
100
AcDbLine
 10
3013.747
 20
500.0
 30
0.0
 11
3078.03
 21
475.4999999999998
 31
0.0
  0
LINE
  5
3F72
330
1D9
100
AcDbEntity
  8
0
100
AcDbLine
 10
3062.174
 20
584.4999999999998
 30
0.0
 11
3062.174
 21
384.3000000000001
 31
0.0
  0
LINE
  5
3F73
330
1D9
100
AcDbEntity
  8
0
100
AcDbLine
 10
3078.03
 20
366.5
 30
0.0
 11
3078.03
 21
584.4999999999998
 31
0.0
  0
LINE
  5
3F74
330
1D9
100
AcDbEntity
  8
0
100
AcDbLine
 10
3102.93
 20
590.8500000000002
 30
0.0
 11
3102.93
 21
360.1500000000005
 31
0.0
  0
LINE
  5
3F75
330
1D9
100
AcDbEntity
  8
0
100
AcDbLine
 10
3392.850000000001
 20
345.0
 30
0.0
 11
3392.850000000001
 21
606.0
 31
0.0
  0
LINE
  5
3F76
330
1D9
100
AcDbEntity
  8
0
100
AcDbLine
 10
3263.239999999999
 20
583.4999999999999
 30
0.0
 11
3263.239999999999
 21
367.5
 31
0.0
  0
LINE
  5
3F77
330
1D9
100
AcDbEntity
  8
0
100
AcDbLine
 10
3183.75
 20
590.8500000000002
 30
0.0
 11
3183.75
 21
360.1500000000005
 31
0.0
  0
LINE
  5
3F78
330
1D9
100
AcDbEntity
  8
0
100
AcDbLine
 10
3403.75
 20
606.0
 30
0.0
 11
3403.75
 21
475.4999999999998
 31
0.0
  0
LINE
  5
3F79
330
1D9
100
AcDbEntity
  8
0
100
AcDbLine
 10
2726.85
 20
369.5
 30
0.0
 11
2726.85
 21
500.0
 31
0.0
  0
LINE
  5
3F7A
330
1D9
100
AcDbEntity
  8
0
100
AcDbLine
 10
2833.747
 20
374.3000000000001
 30
0.0
 11
2833.747
 21
500.0
 31
0.0
  0
LINE
  5
3F7B
330
1D9
100
AcDbEntity
  8
0
100
AcDbLine
 10
2737.75
 20
369.5
 30
0.0
 11
2737.75
 21
500.0
 31
0.0
  0
LINE
  5
3F7C
330
1D9
100
AcDbEntity
  8
0
100
AcDbLine
 10
3013.747
 20
625.6999999999997
 30
0.0
 11
3013.747
 21
384.3000000000001
 31
0.0
  0
LINE
  5
3F7E
330
1D9
100
AcDbEntity
  8
0
100
AcDbLine
 10
3078.03
 20
475.4999999999998
 30
0.0
 11
3619.639999999999
 21
475.4999999999998
 31
0.0
  0
LINE
  5
3F81
330
1D9
100
AcDbEntity
  8
0
100
AcDbLine
 10
3183.75
 20
367.5
 30
0.0
 11
3263.239999999999
 21
367.5
 31
0.0
  0
LINE
  5
3F98
330
1D9
100
AcDbEntity
  8
0
100
AcDbLine
 10
2845.747
 20
366.5
 30
0.0
 11
3078.03
 21
366.5
 31
0.0
  0
LINE
  5
3F99
330
1D9
100
AcDbEntity
  8
0
100
AcDbLine
 10
2726.85
 20
369.5
 30
0.0
 11
2737.75
 21
369.5
 31
0.0
  0
LINE
  5
3F9A
330
1D9
100
AcDbEntity
  8
0
100
AcDbLine
 10
2833.747
 20
369.5
 30
0.0
 11
2833.747
 21
374.3000000000001
 31
0.0
  0
LINE
  5
3F9B
330
1D9
100
AcDbEntity
  8
0
100
AcDbLine
 10
2833.747
 20
369.5
 30
0.0
 11
2845.747
 21
366.5
 31
0.0
  0
LINE
  5
3F9C
330
1D9
100
AcDbEntity
  8
0
100
AcDbLine
 10
2737.75
 20
392.0
 30
0.0
 11
2833.747
 21
392.0
 31
0.0
  0
LINE
  5
3F9D
330
1D9
100
AcDbEntity
  8
0
100
AcDbLine
 10
3102.93
 20
360.1500000000005
 30
0.0
 11
3183.75
 21
360.1500000000005
 31
0.0
  0
LINE
  5
3F9E
330
1D9
100
AcDbEntity
  8
0
100
AcDbLine
 10
3078.03
 20
366.5
 30
0.0
 11
3102.93
 21
360.1500000000005
 31
0.0
  0
LINE
  5
3FB7
330
1D9
100
AcDbEntity
  8
0
100
AcDbLine
 10
3575.750000000001
 20
367.5
 30
0.0
 11
3403.75
 21
367.5
 31
0.0
  0
ARC
  5
3FB8
330
1D9
100
AcDbEntity
  8
0
100
AcDbCircle
 10
3348.749999999999
 20
475.4999999999998
 30
0.0
 40
137.7499999999999
100
AcDbArc
 50
231.6309999999961
 51
288.6719999999998
  0
LINE
  5
3FB9
330
1D9
100
AcDbEntity
  8
0
100
AcDbLine
 10
3403.75
 20
345.0
 30
0.0
 11
3403.75
 21
475.4999999999998
 31
0.0
  0
LINE
  5
3FBA
330
1D9
100
AcDbEntity
  8
0
100
AcDbLine
 10
3392.850000000001
 20
345.0
 30
0.0
 11
3403.75
 21
345.0
 31
0.0
  0
LINE
  5
3FBB
330
1D9
100
AcDbEntity
  8
0
100
AcDbLine
 10
3575.750000000001
 20
367.5
 30
0.0
 11
3575.750000000001
 21
475.4999999999998
 31
0.0
  0
LINE
  5
3FBC
330
1D9
100
AcDbEntity
  8
0
100
AcDbLine
 10
3587.749999999999
 20
475.4999999999998
 30
0.0
 11
3587.749999999999
 21
370.5
 31
0.0
  0
LINE
  5
3FBD
330
1D9
100
AcDbEntity
  8
0
100
AcDbLine
 10
3587.749999999999
 20
370.5
 30
0.0
 11
3575.750000000001
 21
367.5
 31
0.0
  0
LINE
  5
3FBF
330
1D9
100
AcDbEntity
  8
0
100
AcDbLine
 10
3183.75
 20
583.4999999999999
 30
0.0
 11
3263.239999999999
 21
583.4999999999999
 31
0.0
  0
LINE
  5
3FC0
330
1D9
100
AcDbEntity
  8
0
100
AcDbLine
 10
2845.747
 20
633.4999999999999
 30
0.0
 11
3017.174
 21
633.4999999999999
 31
0.0
  0
LINE
  5
3FC1
330
1D9
100
AcDbEntity
  8
0
100
AcDbLine
 10
2726.85
 20
630.4999999999998
 30
0.0
 11
2726.85
 21
500.0
 31
0.0
  0
LINE
  5
3FC2
330
1D9
100
AcDbEntity
  8
0
100
AcDbLine
 10
2833.747
 20
625.6999999999997
 30
0.0
 11
2833.747
 21
500.0
 31
0.0
  0
LINE
  5
3FC3
330
1D9
100
AcDbEntity
  8
0
100
AcDbLine
 10
2737.75
 20
630.4999999999998
 30
0.0
 11
2737.75
 21
500.0
 31
0.0
  0
LINE
  5
3FC4
330
1D9
100
AcDbEntity
  8
0
100
AcDbLine
 10
2737.75
 20
608.0
 30
0.0
 11
2833.747
 21
608.0
 31
0.0
  0
LINE
  5
3FC5
330
1D9
100
AcDbEntity
  8
0
100
AcDbLine
 10
2726.85
 20
630.4999999999998
 30
0.0
 11
2737.75
 21
630.4999999999998
 31
0.0
  0
LINE
  5
3FC6
330
1D9
100
AcDbEntity
  8
0
100
AcDbLine
 10
2833.747
 20
630.4999999999998
 30
0.0
 11
2833.747
 21
625.6999999999997
 31
0.0
  0
LINE
  5
3FC7
330
1D9
100
AcDbEntity
  8
0
100
AcDbLine
 10
2833.747
 20
630.4999999999998
 30
0.0
 11
2845.747
 21
633.4999999999999
 31
0.0
  0
LINE
  5
3FC8
330
1D9
100
AcDbEntity
  8
0
100
AcDbLine
 10
3102.93
 20
590.8500000000002
 30
0.0
 11
3183.75
 21
590.8500000000002
 31
0.0
  0
LINE
  5
3FC9
330
1D9
100
AcDbEntity
  8
0
100
AcDbLine
 10
3017.174
 20
633.4999999999999
 30
0.0
 11
3062.174
 21
584.4999999999998
 31
0.0
  0
LINE
  5
3FCA
330
1D9
100
AcDbEntity
  8
0
100
AcDbLine
 10
3078.03
 20
584.4999999999998
 30
0.0
 11
3102.93
 21
590.8500000000002
 31
0.0
  0
LINE
  5
3FCB
330
1D9
100
AcDbEntity
  8
0
100
AcDbLine
 10
3062.174
 20
584.4999999999998
 30
0.0
 11
3078.03
 21
584.4999999999998
 31
0.0
  0
LINE
  5
3FCC
330
1D9
100
AcDbEntity
  8
0
100
AcDbLine
 10
3575.750000000001
 20
583.4999999999999
 30
0.0
 11
3403.75
 21
583.4999999999999
 31
0.0
  0
ARC
  5
3FCD
330
1D9
100
AcDbEntity
  8
0
100
AcDbCircle
 10
3348.749999999999
 20
475.4999999999998
 30
0.0
 40
137.7499999999999
100
AcDbArc
 50
71.32829999999954
 51
128.3690000000038
  0
LINE
  5
3FCE
330
1D9
100
AcDbEntity
  8
0
100
AcDbLine
 10
3392.850000000001
 20
606.0
 30
0.0
 11
3403.75
 21
606.0
 31
0.0
  0
LINE
  5
3FCF
330
1D9
100
AcDbEntity
  8
0
100
AcDbLine
 10
3587.749999999999
 20
580.4999999999998
 30
0.0
 11
3575.750000000001
 21
583.4999999999999
 31
0.0
  0
LINE
  5
3FDC
330
1D9
100
AcDbEntity
  8
0
100
AcDbLine
 10
423.6399999999998
 20
1722.455334987593
 30
0.0
 11
880.5000000000001
 21
1722.455334987593
 31
0.0
  0
LINE
  5
3FDD
330
1D9
100
AcDbEntity
  8
0
100
AcDbLine
 10
574.5
 20
1665.452334987593
 30
0.0
 11
830.5000000000001
 21
1665.452334987593
 31
0.0
  0
LINE
  5
3FDE
330
1D9
100
AcDbEntity
  8
0
100
AcDbLine
 10
574.5
 20
1779.455334987592
 30
0.0
 11
830.5000000000001
 21
1779.455334987592
 31
0.0
  0
LINE
  5
3FEF
330
1D9
100
AcDbEntity
  8
0
100
AcDbLine
 10
357.3999999999998
 20
1725.955334987593
 30
0.0
 11
414.09
 21
1725.955334987593
 31
0.0
  0
LINE
  5
3FF0
330
1D9
100
AcDbEntity
  8
0
100
AcDbLine
 10
414.09
 20
1681.452334987593
 30
0.0
 11
373.4999999999998
 21
1681.452334987593
 31
0.0
  0
LINE
  5
3FF1
330
1D9
100
AcDbEntity
  8
0
100
AcDbLine
 10
423.6399999999998
 20
1770.455334987593
 30
0.0
 11
373.4999999999998
 21
1770.455334987593
 31
0.0
  0
LINE
  5
3FF2
330
1D9
100
AcDbEntity
  8
0
100
AcDbLine
 10
372.4999999999998
 20
1682.452334987593
 30
0.0
 11
372.4999999999998
 21
1769.455334987593
 31
0.0
  0
LINE
  5
3FF3
330
1D9
100
AcDbEntity
  8
0
100
AcDbLine
 10
373.4999999999998
 20
1681.452334987593
 30
0.0
 11
372.4999999999998
 21
1682.452334987593
 31
0.0
  0
LINE
  5
3FF4
330
1D9
100
AcDbEntity
  8
0
100
AcDbLine
 10
373.4999999999998
 20
1770.455334987593
 30
0.0
 11
372.4999999999998
 21
1769.455334987593
 31
0.0
  0
LINE
  5
3FF5
330
1D9
100
AcDbEntity
  8
0
100
AcDbLine
 10
574.5
 20
1722.455334987593
 30
0.0
 11
574.5
 21
1665.452334987593
 31
0.0
  0
LINE
  5
3FF6
330
1D9
100
AcDbEntity
  8
0
100
AcDbLine
 10
467.9699999999998
 20
1775.455334987593
 30
0.0
 11
467.9699999999998
 21
1669.452334987592
 31
0.0
  0
LINE
  5
3FF7
330
1D9
100
AcDbEntity
  8
0
100
AcDbLine
 10
423.6399999999998
 20
1770.455334987593
 30
0.0
 11
414.09
 21
1681.452334987593
 31
0.0
  0
LINE
  5
3FF8
330
1D9
100
AcDbEntity
  8
0
100
AcDbLine
 10
474.4999999999998
 20
1722.455334987593
 30
0.0
 11
474.4999999999998
 21
1669.452334987592
 31
0.0
  0
LINE
  5
3FF9
330
1D9
100
AcDbEntity
  8
0
100
AcDbLine
 10
474.4999999999998
 20
1677.952334987593
 30
0.0
 11
574.5
 21
1677.952334987593
 31
0.0
  0
ARC
  5
3FFA
330
1D9
100
AcDbEntity
  8
0
100
AcDbCircle
 10
451.4999999999998
 20
1722.455334987593
 30
0.0
 40
55.5
100
AcDbArc
 50
227.6239999999936
 51
287.262999999999
  0
LINE
  5
3FFB
330
1D9
100
AcDbEntity
  8
0
100
AcDbLine
 10
474.4999999999998
 20
1669.452334987592
 30
0.0
 11
467.9699999999998
 21
1669.452334987592
 31
0.0
  0
LINE
  5
3FFC
330
1D9
100
AcDbEntity
  8
0
100
AcDbLine
 10
474.4999999999998
 20
1766.955334987593
 30
0.0
 11
574.5
 21
1766.955334987593
 31
0.0
  0
ARC
  5
3FFD
330
1D9
100
AcDbEntity
  8
0
100
AcDbCircle
 10
451.4999999999998
 20
1722.455334987593
 30
0.0
 40
55.5
100
AcDbArc
 50
72.73740000000192
 51
120.1329999999998
  0
LINE
  5
3FFE
330
1D9
100
AcDbEntity
  8
0
100
AcDbLine
 10
414.09
 20
1725.955334987593
 30
0.0
 11
423.6399999999998
 21
1722.455334987593
 31
0.0
  0
LINE
  5
3FFF
330
1D9
100
AcDbEntity
  8
0
100
AcDbLine
 10
451.4999999999998
 20
1735.065334987593
 30
0.0
 11
451.4999999999998
 21
1710.595334987593
 31
0.0
  0
LINE
  5
4000
330
1D9
100
AcDbEntity
  8
0
100
AcDbLine
 10
474.4999999999998
 20
1722.455334987593
 30
0.0
 11
474.4999999999998
 21
1775.455334987593
 31
0.0
  0
LINE
  5
4001
330
1D9
100
AcDbEntity
  8
0
100
AcDbLine
 10
474.4999999999998
 20
1775.455334987593
 30
0.0
 11
467.9699999999998
 21
1775.455334987593
 31
0.0
  0
LINE
  5
4002
330
1D9
100
AcDbEntity
  8
0
100
AcDbLine
 10
574.5
 20
1722.455334987593
 30
0.0
 11
574.5
 21
1779.455334987592
 31
0.0
  0
LINE
  5
400A
330
1D9
100
AcDbEntity
  8
0
100
AcDbLine
 10
905.4999999999999
 20
1710.455334987593
 30
0.0
 11
955.4999999999999
 21
1710.455334987593
 31
0.0
  0
LINE
  5
400B
330
1D9
100
AcDbEntity
  8
0
100
AcDbLine
 10
905.4999999999999
 20
1661.952334987593
 30
0.0
 11
955.4999999999999
 21
1661.952334987593
 31
0.0
  0
LINE
  5
400C
330
1D9
100
AcDbEntity
  8
0
100
AcDbLine
 10
905.4999999999999
 20
1758.955334987593
 30
0.0
 11
955.4999999999999
 21
1758.955334987593
 31
0.0
  0
LINE
  5
400D
330
1D9
100
AcDbEntity
  8
0
100
AcDbLine
 10
895.5699999999996
 20
1756.955334987593
 30
0.0
 11
895.5699999999996
 21
1676.309334987593
 31
0.0
  0
LINE
  5
400E
330
1D9
100
AcDbEntity
  8
0
100
AcDbLine
 10
905.4999999999999
 20
1710.455334987593
 30
0.0
 11
905.4999999999999
 21
1661.952334987593
 31
0.0
  0
LINE
  5
400F
330
1D9
100
AcDbEntity
  8
0
100
AcDbLine
 10
880.5000000000001
 20
1722.455334987593
 30
0.0
 11
880.5000000000001
 21
1660.952334987593
 31
0.0
  0
LINE
  5
4010
330
1D9
100
AcDbEntity
  8
0
100
AcDbLine
 10
830.5000000000001
 20
1722.455334987593
 30
0.0
 11
830.5000000000001
 21
1660.952334987593
 31
0.0
  0
LINE
  5
4011
330
1D9
100
AcDbEntity
  8
0
100
AcDbLine
 10
830.5000000000001
 20
1660.952334987593
 30
0.0
 11
880.5000000000001
 21
1660.952334987593
 31
0.0
  0
LINE
  5
4012
330
1D9
100
AcDbEntity
  8
0
100
AcDbLine
 10
905.4999999999999
 20
1663.952334987593
 30
0.0
 11
880.5000000000001
 21
1663.952334987593
 31
0.0
  0
LINE
  5
4013
330
1D9
100
AcDbEntity
  8
0
100
AcDbLine
 10
830.5000000000001
 20
1783.955334987593
 30
0.0
 11
880.5000000000001
 21
1783.955334987593
 31
0.0
  0
LINE
  5
4014
330
1D9
100
AcDbEntity
  8
0
100
AcDbLine
 10
830.5000000000001
 20
1722.455334987593
 30
0.0
 11
830.5000000000001
 21
1783.955334987593
 31
0.0
  0
LINE
  5
4015
330
1D9
100
AcDbEntity
  8
0
100
AcDbLine
 10
905.4999999999999
 20
1710.455334987593
 30
0.0
 11
905.4999999999999
 21
1758.955334987593
 31
0.0
  0
LINE
  5
4016
330
1D9
100
AcDbEntity
  8
0
100
AcDbLine
 10
880.5000000000001
 20
1722.455334987593
 30
0.0
 11
880.5000000000001
 21
1783.955334987593
 31
0.0
  0
LINE
  5
4017
330
1D9
100
AcDbEntity
  8
0
100
AcDbLine
 10
880.5000000000001
 20
1722.455334987593
 30
0.0
 11
905.4999999999999
 21
1710.455334987593
 31
0.0
  0
LINE
  5
4018
330
1D9
100
AcDbEntity
  8
0
100
AcDbLine
 10
880.5000000000001
 20
1777.955334987592
 30
0.0
 11
895.5699999999996
 21
1756.955334987593
 31
0.0
  0
LINE
  5
4019
330
1D9
100
AcDbEntity
  8
0
100
AcDbLine
 10
905.4999999999999
 20
1756.955334987593
 30
0.0
 11
895.5699999999996
 21
1756.955334987593
 31
0.0
  0
LINE
  5
401A
330
1D9
100
AcDbEntity
  8
0
100
AcDbLine
 10
1092.5
 20
1663.452334987593
 30
0.0
 11
1092.5
 21
1750.455334987593
 31
0.0
  0
LINE
  5
401B
330
1D9
100
AcDbEntity
  8
0
100
AcDbLine
 10
954.72
 20
1710.455334987593
 30
0.0
 11
972.4999999999999
 21
1706.955334987593
 31
0.0
  0
LINE
  5
401C
330
1D9
100
AcDbEntity
  8
0
100
AcDbLine
 10
1010.97
 20
1759.955334987592
 30
0.0
 11
1010.97
 21
1653.952334987593
 31
0.0
  0
LINE
  5
401D
330
1D9
100
AcDbEntity
  8
0
100
AcDbLine
 10
957.0899999999996
 20
1665.952334987593
 30
0.0
 11
966.6399999999999
 21
1754.955334987593
 31
0.0
  0
LINE
  5
401E
330
1D9
100
AcDbEntity
  8
0
100
AcDbLine
 10
955.4999999999999
 20
1710.455334987593
 30
0.0
 11
955.4999999999999
 21
1661.952334987593
 31
0.0
  0
LINE
  5
401F
330
1D9
100
AcDbEntity
  8
0
100
AcDbLine
 10
1017.5
 20
1706.955334987593
 30
0.0
 11
1017.5
 21
1759.955334987592
 31
0.0
  0
LINE
  5
4020
330
1D9
100
AcDbEntity
  8
0
100
AcDbLine
 10
994.5000000000003
 20
1719.565334987594
 30
0.0
 11
994.5000000000003
 21
1695.100334987593
 31
0.0
  0
LINE
  5
4021
330
1D9
100
AcDbEntity
  8
0
100
AcDbLine
 10
972.4999999999999
 20
1706.955334987593
 30
0.0
 11
1105.24
 21
1706.955334987593
 31
0.0
  0
LINE
  5
4022
330
1D9
100
AcDbEntity
  8
0
100
AcDbLine
 10
1017.5
 20
1662.452334987593
 30
0.0
 11
1091.5
 21
1662.452334987593
 31
0.0
  0
ARC
  5
4023
330
1D9
100
AcDbEntity
  8
0
100
AcDbCircle
 10
994.5000000000003
 20
1706.955334987593
 30
0.0
 40
55.5
100
AcDbArc
 50
227.6239999999936
 51
287.262999999999
  0
LINE
  5
4024
330
1D9
100
AcDbEntity
  8
0
100
AcDbLine
 10
957.0899999999996
 20
1665.952334987593
 30
0.0
 11
955.4999999999999
 21
1665.952334987593
 31
0.0
  0
LINE
  5
4025
330
1D9
100
AcDbEntity
  8
0
100
AcDbLine
 10
1017.5
 20
1706.955334987593
 30
0.0
 11
1017.5
 21
1653.952334987593
 31
0.0
  0
LINE
  5
4026
330
1D9
100
AcDbEntity
  8
0
100
AcDbLine
 10
1017.5
 20
1653.952334987593
 30
0.0
 11
1010.97
 21
1653.952334987593
 31
0.0
  0
LINE
  5
4027
330
1D9
100
AcDbEntity
  8
0
100
AcDbLine
 10
1091.5
 20
1662.452334987593
 30
0.0
 11
1092.5
 21
1663.452334987593
 31
0.0
  0
LINE
  5
4028
330
1D9
100
AcDbEntity
  8
0
100
AcDbLine
 10
1017.5
 20
1751.455334987593
 30
0.0
 11
1091.5
 21
1751.455334987593
 31
0.0
  0
ARC
  5
4029
330
1D9
100
AcDbEntity
  8
0
100
AcDbCircle
 10
994.5000000000003
 20
1706.955334987593
 30
0.0
 40
55.5
100
AcDbArc
 50
72.73740000000192
 51
120.1329999999998
  0
LINE
  5
402A
330
1D9
100
AcDbEntity
  8
0
100
AcDbLine
 10
955.4999999999999
 20
1710.455334987593
 30
0.0
 11
955.4999999999999
 21
1758.955334987593
 31
0.0
  0
LINE
  5
402B
330
1D9
100
AcDbEntity
  8
0
100
AcDbLine
 10
966.6399999999999
 20
1754.955334987593
 30
0.0
 11
955.4999999999999
 21
1754.955334987593
 31
0.0
  0
LINE
  5
402C
330
1D9
100
AcDbEntity
  8
0
100
AcDbLine
 10
1017.5
 20
1759.955334987592
 30
0.0
 11
1010.97
 21
1759.955334987592
 31
0.0
  0
LINE
  5
402D
330
1D9
100
AcDbEntity
  8
0
100
AcDbLine
 10
1091.5
 20
1751.455334987593
 30
0.0
 11
1092.5
 21
1750.455334987593
 31
0.0
  0
LINE
  5
4128
330
1D9
100
AcDbEntity
  8
0
100
AcDbLine
 10
2147.5
 20
1713.955334987593
 30
0.0
 11
2463.26
 21
1713.955334987593
 31
0.0
  0
LINE
  5
4129
330
1D9
100
AcDbEntity
  8
0
100
AcDbLine
 10
2445.5
 20
1658.825334987593
 30
0.0
 11
2438.5
 21
1656.955334987593
 31
0.0
  0
LINE
  5
412A
330
1D9
100
AcDbEntity
  8
0
100
AcDbLine
 10
2445.5
 20
1769.075334987593
 30
0.0
 11
2438.5
 21
1770.955334987593
 31
0.0
  0
LINE
  5
412B
330
1D9
100
AcDbEntity
  8
0
100
AcDbLine
 10
3653.5
 20
1644.455334987593
 30
0.0
 11
3789.5
 21
1644.455334987593
 31
0.0
  0
LINE
  5
412C
330
1D9
100
AcDbEntity
  8
0
100
AcDbLine
 10
3653.5
 20
1784.455334987593
 30
0.0
 11
3789.5
 21
1784.455334987593
 31
0.0
  0
LINE
  5
412D
330
1D9
100
AcDbEntity
  8
0
100
AcDbLine
 10
3448.5
 20
1714.455334987593
 30
0.0
 11
3828.49
 21
1714.455334987593
 31
0.0
  0
LINE
  5
413F
330
1D9
100
AcDbEntity
  8
0
100
AcDbLine
 10
1602.949999999999
 20
1725.955334987593
 30
0.0
 11
2129.5
 21
1725.955334987593
 31
0.0
  0
LINE
  5
4140
330
1D9
100
AcDbEntity
  8
0
100
AcDbLine
 10
1902.5
 20
1655.955334987593
 30
0.0
 11
2066.0
 21
1655.955334987593
 31
0.0
  0
LINE
  5
4141
330
1D9
100
AcDbEntity
  8
0
100
AcDbLine
 10
1902.5
 20
1795.955334987592
 30
0.0
 11
2066.0
 21
1795.955334987592
 31
0.0
  0
LINE
  5
4142
330
1D9
100
AcDbEntity
  8
0
100
AcDbLine
 10
1767.5
 20
1750.955334987593
 30
0.0
 11
1767.5
 21
1700.955334987592
 31
0.0
  0
LINE
  5
4143
330
1D9
100
AcDbEntity
  8
0
100
AcDbLine
 10
1902.5
 20
1725.955334987593
 30
0.0
 11
1902.5
 21
1795.955334987592
 31
0.0
  0
LINE
  5
4144
330
1D9
100
AcDbEntity
  8
0
100
AcDbLine
 10
1802.5
 20
1725.955334987593
 30
0.0
 11
1802.5
 21
1797.705334987593
 31
0.0
  0
LINE
  5
4145
330
1D9
100
AcDbEntity
  8
0
100
AcDbLine
 10
1794.04
 20
1797.705334987593
 30
0.0
 11
1794.04
 21
1725.955334987593
 31
0.0
  0
LINE
  5
4146
330
1D9
100
AcDbEntity
  8
0
100
AcDbLine
 10
1716.479999999999
 20
1782.955334987593
 30
0.0
 11
1716.479999999999
 21
1725.955334987593
 31
0.0
  0
LINE
  5
4147
330
1D9
100
AcDbEntity
  8
0
100
AcDbLine
 10
1632.5
 20
1782.955334987593
 30
0.0
 11
1632.5
 21
1725.955334987593
 31
0.0
  0
LINE
  5
4148
330
1D9
100
AcDbEntity
  8
0
100
AcDbLine
 10
1625.499999999999
 20
1781.075334987593
 30
0.0
 11
1625.499999999999
 21
1725.955334987593
 31
0.0
  0
LINE
  5
414B
330
1D9
100
AcDbEntity
  8
0
100
AcDbLine
 10
1716.479999999999
 20
1668.955334987592
 30
0.0
 11
1632.5
 21
1668.955334987592
 31
0.0
  0
LINE
  5
4152
330
1D9
100
AcDbEntity
  8
0
100
AcDbLine
 10
1632.5
 20
1668.955334987592
 30
0.0
 11
1632.5
 21
1725.955334987593
 31
0.0
  0
LINE
  5
4153
330
1D9
100
AcDbEntity
  8
0
100
AcDbLine
 10
1625.499999999999
 20
1670.825334987593
 30
0.0
 11
1625.499999999999
 21
1725.955334987593
 31
0.0
  0
LINE
  5
4154
330
1D9
100
AcDbEntity
  8
0
100
AcDbLine
 10
1625.499999999999
 20
1670.825334987593
 30
0.0
 11
1632.5
 21
1668.955334987592
 31
0.0
  0
ARC
  5
4160
330
1D9
100
AcDbEntity
  8
0
100
AcDbCircle
 10
1767.5
 20
1725.955334987593
 30
0.0
 40
76.5
100
AcDbArc
 50
228.1679999999993
 51
290.2970000000028
  0
LINE
  5
4161
330
1D9
100
AcDbEntity
  8
0
100
AcDbLine
 10
1716.479999999999
 20
1668.955334987592
 30
0.0
 11
1716.479999999999
 21
1725.955334987593
 31
0.0
  0
LINE
  5
4162
330
1D9
100
AcDbEntity
  8
0
100
AcDbLine
 10
1802.5
 20
1668.955334987592
 30
0.0
 11
1902.5
 21
1668.955334987592
 31
0.0
  0
LINE
  5
4163
330
1D9
100
AcDbEntity
  8
0
100
AcDbLine
 10
1802.5
 20
1725.955334987593
 30
0.0
 11
1802.5
 21
1654.205334987593
 31
0.0
  0
LINE
  5
4164
330
1D9
100
AcDbEntity
  8
0
100
AcDbLine
 10
1794.04
 20
1654.205334987593
 30
0.0
 11
1794.04
 21
1725.955334987593
 31
0.0
  0
LINE
  5
4165
330
1D9
100
AcDbEntity
  8
0
100
AcDbLine
 10
1802.5
 20
1654.205334987593
 30
0.0
 11
1794.04
 21
1654.205334987593
 31
0.0
  0
LINE
  5
4166
330
1D9
100
AcDbEntity
  8
0
100
AcDbLine
 10
1902.5
 20
1725.955334987593
 30
0.0
 11
1902.5
 21
1655.955334987593
 31
0.0
  0
LINE
  5
4169
330
1D9
100
AcDbEntity
  8
0
100
AcDbLine
 10
1716.479999999999
 20
1782.955334987593
 30
0.0
 11
1632.5
 21
1782.955334987593
 31
0.0
  0
LINE
  5
416C
330
1D9
100
AcDbEntity
  8
0
100
AcDbLine
 10
1625.499999999999
 20
1781.075334987593
 30
0.0
 11
1632.5
 21
1782.955334987593
 31
0.0
  0
ARC
  5
4175
330
1D9
100
AcDbEntity
  8
0
100
AcDbCircle
 10
1767.5
 20
1725.955334987593
 30
0.0
 40
76.5
100
AcDbArc
 50
69.70319999999532
 51
131.8320000000007
  0
LINE
  5
4176
330
1D9
100
AcDbEntity
  8
0
100
AcDbLine
 10
1802.5
 20
1782.955334987593
 30
0.0
 11
1902.5
 21
1782.955334987593
 31
0.0
  0
LINE
  5
4177
330
1D9
100
AcDbEntity
  8
0
100
AcDbLine
 10
1802.5
 20
1797.705334987593
 30
0.0
 11
1794.04
 21
1797.705334987593
 31
0.0
  0
LINE
  5
417E
330
1D9
100
AcDbEntity
  8
0
100
AcDbLine
 10
2438.5
 20
1770.955334987593
 30
0.0
 11
2438.5
 21
1713.955334987593
 31
0.0
  0
LINE
  5
417F
330
1D9
100
AcDbEntity
  8
0
100
AcDbLine
 10
2295.5
 20
1738.955334987593
 30
0.0
 11
2295.5
 21
1688.955334987593
 31
0.0
  0
LINE
  5
4180
330
1D9
100
AcDbEntity
  8
0
100
AcDbLine
 10
2147.5
 20
1775.955334987592
 30
0.0
 11
2147.5
 21
1713.955334987593
 31
0.0
  0
LINE
  5
4181
330
1D9
100
AcDbEntity
  8
0
100
AcDbLine
 10
2141.859999999999
 20
1773.455334987593
 30
0.0
 11
2141.859999999999
 21
1665.995334987593
 31
0.0
  0
LINE
  5
4182
330
1D9
100
AcDbEntity
  8
0
100
AcDbLine
 10
2129.5
 20
1801.455334987593
 30
0.0
 11
2129.5
 21
1725.955334987593
 31
0.0
  0
LINE
  5
4183
330
1D9
100
AcDbEntity
  8
0
100
AcDbLine
 10
2322.04
 20
1642.205334987593
 30
0.0
 11
2322.04
 21
1785.705334987593
 31
0.0
  0
LINE
  5
4184
330
1D9
100
AcDbEntity
  8
0
100
AcDbLine
 10
2244.48
 20
1770.955334987593
 30
0.0
 11
2244.48
 21
1656.955334987593
 31
0.0
  0
LINE
  5
4185
330
1D9
100
AcDbEntity
  8
0
100
AcDbLine
 10
2211.0
 20
1775.955334987592
 30
0.0
 11
2211.0
 21
1713.955334987593
 31
0.0
  0
LINE
  5
4186
330
1D9
100
AcDbEntity
  8
0
100
AcDbLine
 10
2066.0
 20
1801.455334987593
 30
0.0
 11
2066.0
 21
1725.955334987593
 31
0.0
  0
LINE
  5
4187
330
1D9
100
AcDbEntity
  8
0
100
AcDbLine
 10
2330.5
 20
1713.955334987593
 30
0.0
 11
2330.5
 21
1785.705334987593
 31
0.0
  0
LINE
  5
418A
330
1D9
100
AcDbEntity
  8
0
100
AcDbLine
 10
2147.5
 20
1651.955334987593
 30
0.0
 11
2211.0
 21
1651.955334987593
 31
0.0
  0
LINE
  5
418D
330
1D9
100
AcDbEntity
  8
0
100
AcDbLine
 10
2066.0
 20
1650.455334987593
 30
0.0
 11
2129.5
 21
1650.455334987593
 31
0.0
  0
LINE
  5
418E
330
1D9
100
AcDbEntity
  8
0
100
AcDbLine
 10
2066.0
 20
1650.455334987593
 30
0.0
 11
2066.0
 21
1725.955334987593
 31
0.0
  0
LINE
  5
418F
330
1D9
100
AcDbEntity
  8
0
100
AcDbLine
 10
2147.5
 20
1651.955334987593
 30
0.0
 11
2147.5
 21
1713.955334987593
 31
0.0
  0
LINE
  5
4190
330
1D9
100
AcDbEntity
  8
0
100
AcDbLine
 10
2129.5
 20
1650.455334987593
 30
0.0
 11
2129.5
 21
1725.955334987593
 31
0.0
  0
LINE
  5
4191
330
1D9
100
AcDbEntity
  8
0
100
AcDbLine
 10
2147.5
 20
1654.455334987592
 30
0.0
 11
2129.5
 21
1654.455334987592
 31
0.0
  0
LINE
  5
4192
330
1D9
100
AcDbEntity
  8
0
100
AcDbLine
 10
2129.5
 20
1725.955334987593
 30
0.0
 11
2147.5
 21
1713.955334987593
 31
0.0
  0
ARC
  5
419B
330
1D9
100
AcDbEntity
  8
0
100
AcDbCircle
 10
2295.5
 20
1713.955334987593
 30
0.0
 40
76.5
100
AcDbArc
 50
228.1679999999993
 51
290.2970000000028
  0
LINE
  5
419C
330
1D9
100
AcDbEntity
  8
0
100
AcDbLine
 10
2211.0
 20
1651.955334987593
 30
0.0
 11
2211.0
 21
1713.955334987593
 31
0.0
  0
LINE
  5
419D
330
1D9
100
AcDbEntity
  8
0
100
AcDbLine
 10
2244.48
 20
1656.955334987593
 30
0.0
 11
2211.0
 21
1656.955334987593
 31
0.0
  0
LINE
  5
419E
330
1D9
100
AcDbEntity
  8
0
100
AcDbLine
 10
2330.5
 20
1713.955334987593
 30
0.0
 11
2330.5
 21
1642.205334987593
 31
0.0
  0
LINE
  5
419F
330
1D9
100
AcDbEntity
  8
0
100
AcDbLine
 10
2330.5
 20
1642.205334987593
 30
0.0
 11
2322.04
 21
1642.205334987593
 31
0.0
  0
LINE
  5
41A0
330
1D9
100
AcDbEntity
  8
0
100
AcDbLine
 10
2330.5
 20
1656.955334987593
 30
0.0
 11
2438.5
 21
1656.955334987593
 31
0.0
  0
LINE
  5
41A1
330
1D9
100
AcDbEntity
  8
0
100
AcDbLine
 10
2438.5
 20
1656.955334987593
 30
0.0
 11
2438.5
 21
1713.955334987593
 31
0.0
  0
LINE
  5
41A4
330
1D9
100
AcDbEntity
  8
0
100
AcDbLine
 10
2147.5
 20
1775.955334987592
 30
0.0
 11
2211.0
 21
1775.955334987592
 31
0.0
  0
LINE
  5
41A6
330
1D9
100
AcDbEntity
  8
0
100
AcDbLine
 10
2066.0
 20
1801.455334987593
 30
0.0
 11
2129.5
 21
1801.455334987593
 31
0.0
  0
LINE
  5
41A7
330
1D9
100
AcDbEntity
  8
0
100
AcDbLine
 10
2129.5
 20
1793.545334987593
 30
0.0
 11
2141.859999999999
 21
1773.455334987593
 31
0.0
  0
LINE
  5
41A8
330
1D9
100
AcDbEntity
  8
0
100
AcDbLine
 10
2147.5
 20
1773.455334987593
 30
0.0
 11
2141.859999999999
 21
1773.455334987593
 31
0.0
  0
ARC
  5
41AD
330
1D9
100
AcDbEntity
  8
0
100
AcDbCircle
 10
2295.5
 20
1713.955334987593
 30
0.0
 40
76.5
100
AcDbArc
 50
69.70319999999532
 51
131.8320000000007
  0
LINE
  5
41AE
330
1D9
100
AcDbEntity
  8
0
100
AcDbLine
 10
2244.48
 20
1770.955334987593
 30
0.0
 11
2211.0
 21
1770.955334987593
 31
0.0
  0
LINE
  5
41AF
330
1D9
100
AcDbEntity
  8
0
100
AcDbLine
 10
2330.5
 20
1770.955334987593
 30
0.0
 11
2438.5
 21
1770.955334987593
 31
0.0
  0
LINE
  5
41B0
330
1D9
100
AcDbEntity
  8
0
100
AcDbLine
 10
2330.5
 20
1785.705334987593
 30
0.0
 11
2322.04
 21
1785.705334987593
 31
0.0
  0
LINE
  5
41B6
330
1D9
100
AcDbEntity
  8
0
100
AcDbLine
 10
2848.479999999998
 20
1725.955334987593
 30
0.0
 11
3432.5
 21
1725.955334987593
 31
0.0
  0
LINE
  5
41B7
330
1D9
100
AcDbEntity
  8
0
100
AcDbLine
 10
3076.5
 20
1655.955334987593
 30
0.0
 11
3176.5
 21
1655.955334987593
 31
0.0
  0
LINE
  5
41B8
330
1D9
100
AcDbEntity
  8
0
100
AcDbLine
 10
3076.5
 20
1795.955334987592
 30
0.0
 11
3176.5
 21
1795.955334987592
 31
0.0
  0
LINE
  5
41B9
330
1D9
100
AcDbEntity
  8
0
100
AcDbLine
 10
2976.42
 20
1655.955334987593
 30
0.0
 11
2887.5
 21
1655.955334987593
 31
0.0
  0
LINE
  5
41BA
330
1D9
100
AcDbEntity
  8
0
100
AcDbLine
 10
2976.42
 20
1795.955334987592
 30
0.0
 11
2887.5
 21
1795.955334987592
 31
0.0
  0
LINE
  5
41BB
330
1D9
100
AcDbEntity
  8
0
100
AcDbLine
 10
2887.5
 20
1795.955334987592
 30
0.0
 11
2887.5
 21
1725.955334987593
 31
0.0
  0
LINE
  5
41BC
330
1D9
100
AcDbEntity
  8
0
100
AcDbLine
 10
2878.5
 20
1793.535334987593
 30
0.0
 11
2878.5
 21
1725.955334987593
 31
0.0
  0
LINE
  5
41BD
330
1D9
100
AcDbEntity
  8
0
100
AcDbLine
 10
2887.5
 20
1655.955334987593
 30
0.0
 11
2887.5
 21
1725.955334987593
 31
0.0
  0
LINE
  5
41BE
330
1D9
100
AcDbEntity
  8
0
100
AcDbLine
 10
2878.5
 20
1658.365334987593
 30
0.0
 11
2878.5
 21
1725.955334987593
 31
0.0
  0
LINE
  5
41BF
330
1D9
100
AcDbEntity
  8
0
100
AcDbLine
 10
2878.5
 20
1658.365334987593
 30
0.0
 11
2887.5
 21
1655.955334987593
 31
0.0
  0
LINE
  5
41C0
330
1D9
100
AcDbEntity
  8
0
100
AcDbLine
 10
2878.5
 20
1793.535334987593
 30
0.0
 11
2887.5
 21
1795.955334987592
 31
0.0
  0
LINE
  5
41C1
330
1D9
100
AcDbEntity
  8
0
100
AcDbLine
 10
3067.18
 20
1812.955334987593
 30
0.0
 11
3067.18
 21
1638.955334987593
 31
0.0
  0
LINE
  5
41C2
330
1D9
100
AcDbEntity
  8
0
100
AcDbLine
 10
2976.42
 20
1795.955334987592
 30
0.0
 11
2976.42
 21
1725.955334987593
 31
0.0
  0
LINE
  5
41C3
330
1D9
100
AcDbEntity
  8
0
100
AcDbLine
 10
3076.5
 20
1725.955334987593
 30
0.0
 11
3076.5
 21
1812.955334987593
 31
0.0
  0
ARC
  5
41C4
330
1D9
100
AcDbEntity
  8
0
100
AcDbCircle
 10
3036.5
 20
1725.955334987593
 30
0.0
 40
92.24999999999999
100
AcDbArc
 50
229.3590000000046
 51
289.4229999999971
  0
LINE
  5
41C5
330
1D9
100
AcDbEntity
  8
0
100
AcDbLine
 10
2976.42
 20
1655.955334987593
 30
0.0
 11
2976.42
 21
1725.955334987593
 31
0.0
  0
LINE
  5
41C6
330
1D9
100
AcDbEntity
  8
0
100
AcDbLine
 10
3036.5
 20
1750.955334987593
 30
0.0
 11
3036.5
 21
1700.955334987592
 31
0.0
  0
LINE
  5
41C7
330
1D9
100
AcDbEntity
  8
0
100
AcDbLine
 10
3076.5
 20
1725.955334987593
 30
0.0
 11
3076.5
 21
1638.955334987593
 31
0.0
  0
LINE
  5
41C8
330
1D9
100
AcDbEntity
  8
0
100
AcDbLine
 10
3076.5
 20
1638.955334987593
 30
0.0
 11
3067.18
 21
1638.955334987593
 31
0.0
  0
ARC
  5
41C9
330
1D9
100
AcDbEntity
  8
0
100
AcDbCircle
 10
3036.5
 20
1725.955334987593
 30
0.0
 40
92.24999999999999
100
AcDbArc
 50
70.57700000000274
 51
130.6409999999952
  0
LINE
  5
41CA
330
1D9
100
AcDbEntity
  8
0
100
AcDbLine
 10
3076.5
 20
1812.955334987593
 30
0.0
 11
3067.18
 21
1812.955334987593
 31
0.0
  0
LINE
  5
41CB
330
1D9
100
AcDbEntity
  8
0
100
AcDbLine
 10
3432.5
 20
1725.955334987593
 30
0.0
 11
3448.5
 21
1714.455334987593
 31
0.0
  0
LINE
  5
41CC
330
1D9
100
AcDbEntity
  8
0
100
AcDbLine
 10
3448.5
 20
1642.955334987593
 30
0.0
 11
3432.5
 21
1642.955334987593
 31
0.0
  0
LINE
  5
41CD
330
1D9
100
AcDbEntity
  8
0
100
AcDbLine
 10
3432.5
 20
1805.335334987591
 30
0.0
 11
3444.409999999999
 21
1785.955334987593
 31
0.0
  0
LINE
  5
41CE
330
1D9
100
AcDbEntity
  8
0
100
AcDbLine
 10
3432.5
 20
1814.955334987593
 30
0.0
 11
3432.5
 21
1725.955334987593
 31
0.0
  0
LINE
  5
41CF
330
1D9
100
AcDbEntity
  8
0
100
AcDbLine
 10
3353.0
 20
1814.955334987593
 30
0.0
 11
3353.0
 21
1725.955334987593
 31
0.0
  0
LINE
  5
41D0
330
1D9
100
AcDbEntity
  8
0
100
AcDbLine
 10
3176.5
 20
1808.455334987592
 30
0.0
 11
3176.5
 21
1725.955334987593
 31
0.0
  0
LINE
  5
41D1
330
1D9
100
AcDbEntity
  8
0
100
AcDbLine
 10
3176.5
 20
1643.455334987593
 30
0.0
 11
3353.0
 21
1643.455334987593
 31
0.0
  0
LINE
  5
41D2
330
1D9
100
AcDbEntity
  8
0
100
AcDbLine
 10
3176.5
 20
1643.455334987593
 30
0.0
 11
3176.5
 21
1725.955334987593
 31
0.0
  0
LINE
  5
41D3
330
1D9
100
AcDbEntity
  8
0
100
AcDbLine
 10
3353.0
 20
1636.955334987592
 30
0.0
 11
3353.0
 21
1725.955334987593
 31
0.0
  0
LINE
  5
41D4
330
1D9
100
AcDbEntity
  8
0
100
AcDbLine
 10
3432.5
 20
1725.955334987593
 30
0.0
 11
3432.5
 21
1636.955334987592
 31
0.0
  0
LINE
  5
41D5
330
1D9
100
AcDbEntity
  8
0
100
AcDbLine
 10
3353.0
 20
1636.955334987592
 30
0.0
 11
3432.5
 21
1636.955334987592
 31
0.0
  0
LINE
  5
41D6
330
1D9
100
AcDbEntity
  8
0
100
AcDbLine
 10
3176.5
 20
1808.455334987592
 30
0.0
 11
3353.0
 21
1808.455334987592
 31
0.0
  0
LINE
  5
41D7
330
1D9
100
AcDbEntity
  8
0
100
AcDbLine
 10
3353.0
 20
1814.955334987593
 30
0.0
 11
3432.5
 21
1814.955334987593
 31
0.0
  0
LINE
  5
41D9
330
1D9
100
AcDbEntity
  8
0
100
AcDbLine
 10
3644.18
 20
1801.455334987593
 30
0.0
 11
3644.18
 21
1714.455334987593
 31
0.0
  0
LINE
  5
41DA
330
1D9
100
AcDbEntity
  8
0
100
AcDbLine
 10
3553.42
 20
1784.455334987593
 30
0.0
 11
3553.42
 21
1714.455334987593
 31
0.0
  0
LINE
  5
41DB
330
1D9
100
AcDbEntity
  8
0
100
AcDbLine
 10
3444.409999999999
 20
1785.955334987593
 30
0.0
 11
3444.409999999999
 21
1659.005334987591
 31
0.0
  0
LINE
  5
41DC
330
1D9
100
AcDbEntity
  8
0
100
AcDbLine
 10
3448.5
 20
1789.955334987593
 30
0.0
 11
3448.5
 21
1714.455334987593
 31
0.0
  0
LINE
  5
41DD
330
1D9
100
AcDbEntity
  8
0
100
AcDbLine
 10
3528.0
 20
1789.955334987593
 30
0.0
 11
3528.0
 21
1714.455334987593
 31
0.0
  0
LINE
  5
41DE
330
1D9
100
AcDbEntity
  8
0
100
AcDbLine
 10
3653.5
 20
1714.455334987593
 30
0.0
 11
3653.5
 21
1801.455334987593
 31
0.0
  0
ARC
  5
41DF
330
1D9
100
AcDbEntity
  8
0
100
AcDbCircle
 10
3613.5
 20
1714.455334987593
 30
0.0
 40
92.24999999999999
100
AcDbArc
 50
229.3590000000046
 51
289.4229999999971
  0
LINE
  5
41E0
330
1D9
100
AcDbEntity
  8
0
100
AcDbLine
 10
3553.42
 20
1644.455334987593
 30
0.0
 11
3553.42
 21
1714.455334987593
 31
0.0
  0
LINE
  5
41E1
330
1D9
100
AcDbEntity
  8
0
100
AcDbLine
 10
3448.5
 20
1714.455334987593
 30
0.0
 11
3448.5
 21
1638.955334987593
 31
0.0
  0
LINE
  5
41E2
330
1D9
100
AcDbEntity
  8
0
100
AcDbLine
 10
3528.0
 20
1638.955334987593
 30
0.0
 11
3528.0
 21
1714.455334987593
 31
0.0
  0
LINE
  5
41E3
330
1D9
100
AcDbEntity
  8
0
100
AcDbLine
 10
3448.5
 20
1638.955334987593
 30
0.0
 11
3528.0
 21
1638.955334987593
 31
0.0
  0
LINE
  5
41E4
330
1D9
100
AcDbEntity
  8
0
100
AcDbLine
 10
3553.42
 20
1644.455334987593
 30
0.0
 11
3528.0
 21
1644.455334987593
 31
0.0
  0
LINE
  5
41E6
330
1D9
100
AcDbEntity
  8
0
100
AcDbLine
 10
3644.18
 20
1627.455334987593
 30
0.0
 11
3644.18
 21
1714.455334987593
 31
0.0
  0
LINE
  5
41E7
330
1D9
100
AcDbEntity
  8
0
100
AcDbLine
 10
3653.5
 20
1714.455334987593
 30
0.0
 11
3653.5
 21
1627.455334987593
 31
0.0
  0
LINE
  5
41E9
330
1D9
100
AcDbEntity
  8
0
100
AcDbLine
 10
3653.5
 20
1627.455334987593
 30
0.0
 11
3644.18
 21
1627.455334987593
 31
0.0
  0
LINE
  5
41EA
330
1D9
100
AcDbEntity
  8
0
100
AcDbLine
 10
3613.5
 20
1739.455334987593
 30
0.0
 11
3613.5
 21
1689.455334987593
 31
0.0
  0
ARC
  5
41EB
330
1D9
100
AcDbEntity
  8
0
100
AcDbCircle
 10
3613.5
 20
1714.455334987593
 30
0.0
 40
92.24999999999999
100
AcDbArc
 50
70.57700000000274
 51
130.6409999999952
  0
LINE
  5
41EC
330
1D9
100
AcDbEntity
  8
0
100
AcDbLine
 10
3448.5
 20
1789.955334987593
 30
0.0
 11
3528.0
 21
1789.955334987593
 31
0.0
  0
LINE
  5
41ED
330
1D9
100
AcDbEntity
  8
0
100
AcDbLine
 10
3448.5
 20
1785.955334987593
 30
0.0
 11
3444.409999999999
 21
1785.955334987593
 31
0.0
  0
LINE
  5
41EE
330
1D9
100
AcDbEntity
  8
0
100
AcDbLine
 10
3553.42
 20
1784.455334987593
 30
0.0
 11
3528.0
 21
1784.455334987593
 31
0.0
  0
LINE
  5
41F0
330
1D9
100
AcDbEntity
  8
0
100
AcDbLine
 10
3653.5
 20
1801.455334987593
 30
0.0
 11
3644.18
 21
1801.455334987593
 31
0.0
  0
LINE
  5
41F1
330
1D9
100
AcDbEntity
  8
0
100
AcDbLine
 10
2445.5
 20
1769.075334987593
 30
0.0
 11
2445.5
 21
1713.955334987593
 31
0.0
  0
LINE
  5
4206
330
1D9
100
AcDbEntity
  8
0
100
AcDbLine
 10
2445.5
 20
1658.825334987593
 30
0.0
 11
2445.5
 21
1713.955334987593
 31
0.0
  0
LINE
  5
422A
330
1D9
100
AcDbEntity
  8
0
100
AcDbLine
 10
3789.5
 20
1784.455334987593
 30
0.0
 11
3789.5
 21
1714.455334987593
 31
0.0
  0
LINE
  5
422B
330
1D9
100
AcDbEntity
  8
0
100
AcDbLine
 10
3798.5
 20
1782.035334987593
 30
0.0
 11
3798.5
 21
1714.455334987593
 31
0.0
  0
LINE
  5
422C
330
1D9
100
AcDbEntity
  8
0
100
AcDbLine
 10
3789.5
 20
1644.455334987593
 30
0.0
 11
3789.5
 21
1714.455334987593
 31
0.0
  0
LINE
  5
422D
330
1D9
100
AcDbEntity
  8
0
100
AcDbLine
 10
3798.5
 20
1646.865334987593
 30
0.0
 11
3798.5
 21
1714.455334987593
 31
0.0
  0
LINE
  5
422E
330
1D9
100
AcDbEntity
  8
0
100
AcDbLine
 10
3798.5
 20
1646.865334987593
 30
0.0
 11
3789.5
 21
1644.455334987593
 31
0.0
  0
LINE
  5
422F
330
1D9
100
AcDbEntity
  8
0
100
AcDbLine
 10
3798.5
 20
1782.035334987593
 30
0.0
 11
3789.5
 21
1784.455334987593
 31
0.0
  0
LINE
  5
4230
330
1D9
100
AcDbEntity
  8
0
100
AcDbLine
 10
2035.5
 20
1225.955334987593
 30
0.0
 11
2035.5
 21
0.0
 31
0.0
  0
TEXT
  5
4353
330
1D9
100
AcDbEntity
  8
0
100
AcDbText
 10
619.7070554687034
 20
1357.892436417976
 30
0.0
 40
48.51116625310172
  1
流れ方向
100
AcDbText
  0
LINE
  5
4354
330
1D9
100
AcDbEntity
  8
0
100
AcDbLine
 10
601.1664138659888
 20
1449.860247982084
 30
0.0
 11
842.2022865712243
 21
1449.860247982084
 31
0.0
  0
SOLID
  5
4355
330
1D9
100
AcDbEntity
  8
0
100
AcDbTrace
 10
842.2022865712243
 20
1466.526914648752
 30
0.0
 11
842.2022865712243
 21
1433.193581315419
 31
0.0
 12
942.2022865712243
 22
1449.860247982084
 32
0.0
 13
942.2022865712243
 23
1449.860247982084
 33
0.0
  0
LINE
  5
4356
330
1D9
100
AcDbEntity
  8
0
100
AcDbLine
 10
3207.166413865989
 20
1449.860247982084
 30
0.0
 11
3448.202286571223
 21
1449.860247982084
 31
0.0
  0
TEXT
  5
4357
330
1D9
100
AcDbEntity
  8
0
100
AcDbText
 10
1922.707055468702
 20
1357.892436417976
 30
0.0
 40
48.51116625310172
  1
流れ方向
100
AcDbText
  0
LINE
  5
4358
330
1D9
100
AcDbEntity
  8
0
100
AcDbLine
 10
1904.166413865987
 20
1449.860247982084
 30
0.0
 11
2145.202286571224
 21
1449.860247982084
 31
0.0
  0
SOLID
  5
4359
330
1D9
100
AcDbEntity
  8
0
100
AcDbTrace
 10
2145.202286571224
 20
1466.526914648752
 30
0.0
 11
2145.202286571224
 21
1433.193581315419
 31
0.0
 12
2245.202286571224
 22
1449.860247982084
 32
0.0
 13
2245.202286571224
 23
1449.860247982084
 33
0.0
  0
TEXT
  5
435A
330
1D9
100
AcDbEntity
  8
0
100
AcDbText
 10
3225.707055468703
 20
1357.892436417976
 30
0.0
 40
48.51116625310172
  1
流れ方向
100
AcDbText
  0
SOLID
  5
435B
330
1D9
100
AcDbEntity
  8
0
100
AcDbTrace
 10
3448.202286571223
 20
1466.526914648752
 30
0.0
 11
3448.202286571223
 21
1433.193581315419
 31
0.0
 12
3548.202286571223
 22
1449.860247982084
 32
0.0
 13
3548.202286571223
 23
1449.860247982084
 33
0.0
  0
TEXT
  5
435D
330
1D9
100
AcDbEntity
  8
0
100
AcDbText
 10
945.4570554687032
 20
131.9371014303833
 30
0.0
 40
48.51116625310172
  1
流れ方向
100
AcDbText
  0
LINE
  5
435E
330
1D9
100
AcDbEntity
  8
0
100
AcDbLine
 10
926.9164138659887
 20
223.9049129944924
 30
0.0
 11
1167.952286571223
 21
223.9049129944924
 31
0.0
  0
SOLID
  5
435F
330
1D9
100
AcDbEntity
  8
0
100
AcDbTrace
 10
1167.952286571223
 20
240.5715796611588
 30
0.0
 11
1167.952286571223
 21
207.2382463278259
 31
0.0
 12
1267.952286571224
 22
223.9049129944924
 32
0.0
 13
1267.952286571224
 23
223.9049129944924
 33
0.0
  0
SOLID
  5
4360
330
1D9
100
AcDbEntity
  8
0
100
AcDbTrace
 10
3122.452286571224
 20
240.5715796611588
 30
0.0
 11
3122.452286571224
 21
207.2382463278259
 31
0.0
 12
3222.452286571224
 22
223.9049129944924
 32
0.0
 13
3222.452286571224
 23
223.9049129944924
 33
0.0
  0
TEXT
  5
4361
330
1D9
100
AcDbEntity
  8
0
100
AcDbText
 10
2899.957055468703
 20
131.9371014303833
 30
0.0
 40
48.51116625310172
  1
流れ方向
100
AcDbText
  0
LINE
  5
4362
330
1D9
100
AcDbEntity
  8
0
100
AcDbLine
 10
2881.416413865989
 20
223.9049129944924
 30
0.0
 11
3122.452286571224
 21
223.9049129944924
 31
0.0
  0
LINE
  5
436C
330
1D9
100
AcDbEntity
  8
0
100
AcDbLine
 10
1625.499999999999
 20
1783.075334987593
 30
0.0
 11
1625.499999999999
 21
1963.955334987593
 31
0.0
  0
LINE
  5
436D
330
1D9
100
AcDbEntity
  8
0
100
AcDbLine
 10
2330.5
 20
1786.705334987593
 30
0.0
 11
2330.5
 21
1963.955334987593
 31
0.0
  0
LINE
  5
436E
330
1D9
100
AcDbEntity
  8
0
100
AcDbLine
 10
1645.5
 20
1945.955334987592
 30
0.0
 11
2310.5
 21
1945.955334987592
 31
0.0
  0
LINE
  5
4372
330
1D9
100
AcDbEntity
  8
0
100
AcDbLine
 10
1625.499999999999
 20
1782.075334987593
 30
0.0
 11
1625.499999999999
 21
2043.955334987593
 31
0.0
  0
LINE
  5
4373
330
1D9
100
AcDbEntity
  8
0
100
AcDbLine
 10
2445.5
 20
1770.075334987593
 30
0.0
 11
2445.5
 21
2043.955334987593
 31
0.0
  0
LINE
  5
4374
330
1D9
100
AcDbEntity
  8
0
100
AcDbLine
 10
1645.5
 20
2025.955334987592
 30
0.0
 11
2425.499999999999
 21
2025.955334987592
 31
0.0
  0
LINE
  5
4378
330
1D9
100
AcDbEntity
  8
0
100
AcDbLine
 10
533.25
 20
580.5520000000001
 30
0.0
 11
533.25
 21
738.0
 31
0.0
  0
LINE
  5
4379
330
1D9
100
AcDbEntity
  8
0
100
AcDbLine
 10
1422.25
 20
580.5520000000001
 30
0.0
 11
1422.25
 21
738.0
 31
0.0
  0
LINE
  5
437A
330
1D9
100
AcDbEntity
  8
0
100
AcDbLine
 10
553.2499999999998
 20
720.0
 30
0.0
 11
1402.25
 21
720.0
 31
0.0
  0
LINE
  5
437E
330
1D9
100
AcDbEntity
  8
0
100
AcDbLine
 10
533.25
 20
580.5520000000001
 30
0.0
 11
533.25
 21
818.0
 31
0.0
  0
LINE
  5
437F
330
1D9
100
AcDbEntity
  8
0
100
AcDbLine
 10
1583.25
 20
556.5520000000001
 30
0.0
 11
1583.25
 21
818.0
 31
0.0
  0
LINE
  5
4380
330
1D9
100
AcDbEntity
  8
0
100
AcDbLine
 10
553.2499999999998
 20
800.0
 30
0.0
 11
1563.25
 21
800.0
 31
0.0
  0
LINE
  5
4384
330
1D9
100
AcDbEntity
  8
0
100
AcDbLine
 10
372.4999999999998
 20
1770.455334987593
 30
0.0
 11
372.4999999999998
 21
1963.955334987593
 31
0.0
  0
LINE
  5
4385
330
1D9
100
AcDbEntity
  8
0
100
AcDbLine
 10
1017.5
 20
1760.955334987593
 30
0.0
 11
1017.5
 21
1963.955334987593
 31
0.0
  0
LINE
  5
4386
330
1D9
100
AcDbEntity
  8
0
100
AcDbLine
 10
392.4999999999998
 20
1945.955334987592
 30
0.0
 11
997.4999999999999
 21
1945.955334987592
 31
0.0
  0
LINE
  5
438A
330
1D9
100
AcDbEntity
  8
0
100
AcDbLine
 10
372.4999999999998
 20
1770.455334987593
 30
0.0
 11
372.4999999999998
 21
2043.955334987593
 31
0.0
  0
LINE
  5
438B
330
1D9
100
AcDbEntity
  8
0
100
AcDbLine
 10
1092.5
 20
1751.455334987593
 30
0.0
 11
1092.5
 21
2043.955334987593
 31
0.0
  0
LINE
  5
438C
330
1D9
100
AcDbEntity
  8
0
100
AcDbLine
 10
392.4999999999998
 20
2025.955334987592
 30
0.0
 11
1072.5
 21
2025.955334987592
 31
0.0
  0
LINE
  5
4390
330
1D9
100
AcDbEntity
  8
0
100
AcDbLine
 10
2437.75
 20
606.0
 30
0.0
 11
2437.75
 21
818.0
 31
0.0
  0
LINE
  5
4391
330
1D9
100
AcDbEntity
  8
0
100
AcDbLine
 10
3587.749999999999
 20
581.5
 30
0.0
 11
3587.749999999999
 21
818.0
 31
0.0
  0
LINE
  5
4392
330
1D9
100
AcDbEntity
  8
0
100
AcDbLine
 10
2457.75
 20
800.0
 30
0.0
 11
3567.75
 21
800.0
 31
0.0
  0
LINE
  5
4396
330
1D9
100
AcDbEntity
  8
0
100
AcDbLine
 10
2878.5
 20
1794.535334987593
 30
0.0
 11
2878.5
 21
1963.955334987593
 31
0.0
  0
LINE
  5
4397
330
1D9
100
AcDbEntity
  8
0
100
AcDbLine
 10
3653.5
 20
1802.455334987593
 30
0.0
 11
3653.5
 21
1963.955334987593
 31
0.0
  0
LINE
  5
4398
330
1D9
100
AcDbEntity
  8
0
100
AcDbLine
 10
2898.5
 20
1945.955334987592
 30
0.0
 11
3633.5
 21
1945.955334987592
 31
0.0
  0
LINE
  5
439C
330
1D9
100
AcDbEntity
  8
0
100
AcDbLine
 10
2878.5
 20
1794.535334987593
 30
0.0
 11
2878.5
 21
2043.955334987593
 31
0.0
  0
LINE
  5
439D
330
1D9
100
AcDbEntity
  8
0
100
AcDbLine
 10
3798.5
 20
1783.035334987593
 30
0.0
 11
3798.5
 21
2043.955334987593
 31
0.0
  0
LINE
  5
439E
330
1D9
100
AcDbEntity
  8
0
100
AcDbLine
 10
2898.5
 20
2025.955334987592
 30
0.0
 11
3778.5
 21
2025.955334987592
 31
0.0
  0
LINE
  5
43A2
330
1D9
100
AcDbEntity
  8
0
100
AcDbLine
 10
2437.75
 20
607.0
 30
0.0
 11
2437.75
 21
738.0
 31
0.0
  0
LINE
  5
43A3
330
1D9
100
AcDbEntity
  8
0
100
AcDbLine
 10
3403.75
 20
607.0
 30
0.0
 11
3403.75
 21
738.0
 31
0.0
  0
LINE
  5
43A4
330
1D9
100
AcDbEntity
  8
0
100
AcDbLine
 10
2457.75
 20
720.0
 30
0.0
 11
3383.75
 21
720.0
 31
0.0
  0
LINE
  5
43A8
330
1D9
100
AcDbEntity
  8
0
100
AcDbLine
 10
533.25
 20
800.0
 30
0.0
 11
553.2499999999998
 21
805.3589838486221
 31
0.0
  0
LINE
  5
43A9
330
1D9
100
AcDbEntity
  8
0
100
AcDbLine
 10
533.25
 20
800.0
 30
0.0
 11
553.2499999999998
 21
794.6410161513778
 31
0.0
  0
LINE
  5
43AA
330
1D9
100
AcDbEntity
  8
0
100
AcDbLine
 10
553.2499999999998
 20
800.0
 30
0.0
 11
533.25
 21
800.0
 31
0.0
  0
LINE
  5
43AB
330
1D9
100
AcDbEntity
  8
0
100
AcDbLine
 10
533.25
 20
720.0
 30
0.0
 11
553.2499999999998
 21
725.3589838486219
 31
0.0
  0
LINE
  5
43AC
330
1D9
100
AcDbEntity
  8
0
100
AcDbLine
 10
533.25
 20
720.0
 30
0.0
 11
553.2499999999998
 21
714.6410161513777
 31
0.0
  0
LINE
  5
43AD
330
1D9
100
AcDbEntity
  8
0
100
AcDbLine
 10
553.2499999999998
 20
720.0
 30
0.0
 11
533.25
 21
720.0
 31
0.0
  0
LINE
  5
43AE
330
1D9
100
AcDbEntity
  8
0
100
AcDbLine
 10
372.4999999999998
 20
2025.955334987592
 30
0.0
 11
392.4999999999998
 21
2031.314318836214
 31
0.0
  0
LINE
  5
43AF
330
1D9
100
AcDbEntity
  8
0
100
AcDbLine
 10
372.4999999999998
 20
2025.955334987592
 30
0.0
 11
392.4999999999998
 21
2020.596351138971
 31
0.0
  0
LINE
  5
43B0
330
1D9
100
AcDbEntity
  8
0
100
AcDbLine
 10
392.4999999999998
 20
2025.955334987592
 30
0.0
 11
372.4999999999998
 21
2025.955334987592
 31
0.0
  0
LINE
  5
43B1
330
1D9
100
AcDbEntity
  8
0
100
AcDbLine
 10
372.4999999999998
 20
1945.955334987592
 30
0.0
 11
392.4999999999998
 21
1951.314318836215
 31
0.0
  0
LINE
  5
43B2
330
1D9
100
AcDbEntity
  8
0
100
AcDbLine
 10
372.4999999999998
 20
1945.955334987592
 30
0.0
 11
392.4999999999998
 21
1940.596351138971
 31
0.0
  0
LINE
  5
43B3
330
1D9
100
AcDbEntity
  8
0
100
AcDbLine
 10
392.4999999999998
 20
1945.955334987592
 30
0.0
 11
372.4999999999998
 21
1945.955334987592
 31
0.0
  0
TEXT
  5
43B4
330
1D9
100
AcDbEntity
  8
0
100
AcDbText
 10
695.0
 20
2040.955334987593
 30
0.0
 40
30.0
  1
720
100
AcDbText
  0
TEXT
  5
43B5
330
1D9
100
AcDbEntity
  8
0
100
AcDbText
 10
655.0
 20
1960.955334987593
 30
0.0
 40
30.0
  1
645
100
AcDbText
  0
TEXT
  5
43B6
330
1D9
100
AcDbEntity
  8
0
100
AcDbText
 10
937.7499999999999
 20
735.0
 30
0.0
 40
30.0
  1
889
100
AcDbText
  0
TEXT
  5
43B7
330
1D9
100
AcDbEntity
  8
0
100
AcDbText
 10
1013.249999999999
 20
815.0
 30
0.0
 40
30.0
  1
1050
100
AcDbText
  0
LINE
  5
43B8
330
1D9
100
AcDbEntity
  8
0
100
AcDbLine
 10
1422.25
 20
720.0
 30
0.0
 11
1402.25
 21
714.6410161513777
 31
0.0
  0
LINE
  5
43B9
330
1D9
100
AcDbEntity
  8
0
100
AcDbLine
 10
1422.25
 20
720.0
 30
0.0
 11
1402.25
 21
725.3589838486219
 31
0.0
  0
LINE
  5
43BA
330
1D9
100
AcDbEntity
  8
0
100
AcDbLine
 10
1402.25
 20
720.0
 30
0.0
 11
1422.25
 21
720.0
 31
0.0
  0
LINE
  5
43BB
330
1D9
100
AcDbEntity
  8
0
100
AcDbLine
 10
1017.5
 20
1945.955334987592
 30
0.0
 11
997.4999999999999
 21
1940.596351138971
 31
0.0
  0
LINE
  5
43BC
330
1D9
100
AcDbEntity
  8
0
100
AcDbLine
 10
1017.5
 20
1945.955334987592
 30
0.0
 11
997.4999999999999
 21
1951.314318836215
 31
0.0
  0
LINE
  5
43BD
330
1D9
100
AcDbEntity
  8
0
100
AcDbLine
 10
997.4999999999999
 20
1945.955334987592
 30
0.0
 11
1017.5
 21
1945.955334987592
 31
0.0
  0
LINE
  5
43BE
330
1D9
100
AcDbEntity
  8
0
100
AcDbLine
 10
1092.5
 20
2025.955334987592
 30
0.0
 11
1072.5
 21
2020.596351138971
 31
0.0
  0
LINE
  5
43BF
330
1D9
100
AcDbEntity
  8
0
100
AcDbLine
 10
1092.5
 20
2025.955334987592
 30
0.0
 11
1072.5
 21
2031.314318836214
 31
0.0
  0
LINE
  5
43C0
330
1D9
100
AcDbEntity
  8
0
100
AcDbLine
 10
1072.5
 20
2025.955334987592
 30
0.0
 11
1092.5
 21
2025.955334987592
 31
0.0
  0
LINE
  5
43C1
330
1D9
100
AcDbEntity
  8
0
100
AcDbLine
 10
1583.25
 20
800.0
 30
0.0
 11
1563.25
 21
794.6410161513778
 31
0.0
  0
LINE
  5
43C2
330
1D9
100
AcDbEntity
  8
0
100
AcDbLine
 10
1583.25
 20
800.0
 30
0.0
 11
1563.25
 21
805.3589838486221
 31
0.0
  0
LINE
  5
43C3
330
1D9
100
AcDbEntity
  8
0
100
AcDbLine
 10
1563.25
 20
800.0
 30
0.0
 11
1583.25
 21
800.0
 31
0.0
  0
LINE
  5
43C4
330
1D9
100
AcDbEntity
  8
0
100
AcDbLine
 10
1625.499999999999
 20
2025.955334987592
 30
0.0
 11
1645.5
 21
2031.314318836214
 31
0.0
  0
LINE
  5
43C5
330
1D9
100
AcDbEntity
  8
0
100
AcDbLine
 10
1625.499999999999
 20
2025.955334987592
 30
0.0
 11
1645.5
 21
2020.596351138971
 31
0.0
  0
LINE
  5
43C6
330
1D9
100
AcDbEntity
  8
0
100
AcDbLine
 10
1645.5
 20
2025.955334987592
 30
0.0
 11
1625.499999999999
 21
2025.955334987592
 31
0.0
  0
LINE
  5
43C7
330
1D9
100
AcDbEntity
  8
0
100
AcDbLine
 10
1625.499999999999
 20
1945.955334987592
 30
0.0
 11
1645.5
 21
1951.314318836215
 31
0.0
  0
LINE
  5
43C8
330
1D9
100
AcDbEntity
  8
0
100
AcDbLine
 10
1625.499999999999
 20
1945.955334987592
 30
0.0
 11
1645.5
 21
1940.596351138971
 31
0.0
  0
LINE
  5
43C9
330
1D9
100
AcDbEntity
  8
0
100
AcDbLine
 10
1645.5
 20
1945.955334987592
 30
0.0
 11
1625.499999999999
 21
1945.955334987592
 31
0.0
  0
TEXT
  5
43CA
330
1D9
100
AcDbEntity
  8
0
100
AcDbText
 10
1998.0
 20
2040.955334987593
 30
0.0
 40
30.0
  1
820
100
AcDbText
  0
TEXT
  5
43CB
330
1D9
100
AcDbEntity
  8
0
100
AcDbText
 10
1940.5
 20
1960.955334987593
 30
0.0
 40
30.0
  1
705
100
AcDbText
  0
LINE
  5
43CC
330
1D9
100
AcDbEntity
  8
0
100
AcDbLine
 10
2437.75
 20
720.0
 30
0.0
 11
2457.75
 21
725.3589838486219
 31
0.0
  0
LINE
  5
43CD
330
1D9
100
AcDbEntity
  8
0
100
AcDbLine
 10
2437.75
 20
720.0
 30
0.0
 11
2457.75
 21
714.6410161513777
 31
0.0
  0
LINE
  5
43CE
330
1D9
100
AcDbEntity
  8
0
100
AcDbLine
 10
2457.75
 20
720.0
 30
0.0
 11
2437.75
 21
720.0
 31
0.0
  0
LINE
  5
43CF
330
1D9
100
AcDbEntity
  8
0
100
AcDbLine
 10
2437.75
 20
800.0
 30
0.0
 11
2457.75
 21
805.3589838486221
 31
0.0
  0
LINE
  5
43D0
330
1D9
100
AcDbEntity
  8
0
100
AcDbLine
 10
2437.75
 20
800.0
 30
0.0
 11
2457.75
 21
794.6410161513778
 31
0.0
  0
LINE
  5
43D1
330
1D9
100
AcDbEntity
  8
0
100
AcDbLine
 10
2457.75
 20
800.0
 30
0.0
 11
2437.75
 21
800.0
 31
0.0
  0
LINE
  5
43D2
330
1D9
100
AcDbEntity
  8
0
100
AcDbLine
 10
2445.5
 20
2025.955334987592
 30
0.0
 11
2425.499999999999
 21
2020.596351138971
 31
0.0
  0
LINE
  5
43D3
330
1D9
100
AcDbEntity
  8
0
100
AcDbLine
 10
2445.5
 20
2025.955334987592
 30
0.0
 11
2425.499999999999
 21
2031.314318836214
 31
0.0
  0
LINE
  5
43D4
330
1D9
100
AcDbEntity
  8
0
100
AcDbLine
 10
2425.499999999999
 20
2025.955334987592
 30
0.0
 11
2445.5
 21
2025.955334987592
 31
0.0
  0
LINE
  5
43D5
330
1D9
100
AcDbEntity
  8
0
100
AcDbLine
 10
2330.5
 20
1945.955334987592
 30
0.0
 11
2310.5
 21
1940.596351138971
 31
0.0
  0
LINE
  5
43D6
330
1D9
100
AcDbEntity
  8
0
100
AcDbLine
 10
2330.5
 20
1945.955334987592
 30
0.0
 11
2310.5
 21
1951.314318836215
 31
0.0
  0
LINE
  5
43D7
330
1D9
100
AcDbEntity
  8
0
100
AcDbLine
 10
2310.5
 20
1945.955334987592
 30
0.0
 11
2330.5
 21
1945.955334987592
 31
0.0
  0
TEXT
  5
43D8
330
1D9
100
AcDbEntity
  8
0
100
AcDbText
 10
2880.75
 20
735.0
 30
0.0
 40
30.0
  1
966
100
AcDbText
  0
TEXT
  5
43D9
330
1D9
100
AcDbEntity
  8
0
100
AcDbText
 10
2970.25
 20
815.0
 30
0.0
 40
30.0
  1
1150
100
AcDbText
  0
LINE
  5
43DA
330
1D9
100
AcDbEntity
  8
0
100
AcDbLine
 10
3403.75
 20
720.0
 30
0.0
 11
3383.75
 21
714.6410161513777
 31
0.0
  0
LINE
  5
43DB
330
1D9
100
AcDbEntity
  8
0
100
AcDbLine
 10
3403.75
 20
720.0
 30
0.0
 11
3383.75
 21
725.3589838486219
 31
0.0
  0
LINE
  5
43DC
330
1D9
100
AcDbEntity
  8
0
100
AcDbLine
 10
3383.75
 20
720.0
 30
0.0
 11
3403.75
 21
720.0
 31
0.0
  0
LINE
  5
43DD
330
1D9
100
AcDbEntity
  8
0
100
AcDbLine
 10
2878.5
 20
2025.955334987592
 30
0.0
 11
2898.5
 21
2031.314318836214
 31
0.0
  0
LINE
  5
43DE
330
1D9
100
AcDbEntity
  8
0
100
AcDbLine
 10
2878.5
 20
2025.955334987592
 30
0.0
 11
2898.5
 21
2020.596351138971
 31
0.0
  0
LINE
  5
43DF
330
1D9
100
AcDbEntity
  8
0
100
AcDbLine
 10
2898.5
 20
2025.955334987592
 30
0.0
 11
2878.5
 21
2025.955334987592
 31
0.0
  0
LINE
  5
43E0
330
1D9
100
AcDbEntity
  8
0
100
AcDbLine
 10
2878.5
 20
1945.955334987592
 30
0.0
 11
2898.5
 21
1951.314318836215
 31
0.0
  0
LINE
  5
43E1
330
1D9
100
AcDbEntity
  8
0
100
AcDbLine
 10
2878.5
 20
1945.955334987592
 30
0.0
 11
2898.5
 21
1940.596351138971
 31
0.0
  0
LINE
  5
43E2
330
1D9
100
AcDbEntity
  8
0
100
AcDbLine
 10
2898.5
 20
1945.955334987592
 30
0.0
 11
2878.5
 21
1945.955334987592
 31
0.0
  0
TEXT
  5
43E3
330
1D9
100
AcDbEntity
  8
0
100
AcDbText
 10
3226.0
 20
1960.955334987593
 30
0.0
 40
30.0
  1
775
100
AcDbText
  0
TEXT
  5
43E4
330
1D9
100
AcDbEntity
  8
0
100
AcDbText
 10
3301.0
 20
2040.955334987593
 30
0.0
 40
30.0
  1
920
100
AcDbText
  0
LINE
  5
43E5
330
1D9
100
AcDbEntity
  8
0
100
AcDbLine
 10
3587.749999999999
 20
800.0
 30
0.0
 11
3567.75
 21
794.6410161513778
 31
0.0
  0
LINE
  5
43E6
330
1D9
100
AcDbEntity
  8
0
100
AcDbLine
 10
3587.749999999999
 20
800.0
 30
0.0
 11
3567.75
 21
805.3589838486221
 31
0.0
  0
LINE
  5
43E7
330
1D9
100
AcDbEntity
  8
0
100
AcDbLine
 10
3567.75
 20
800.0
 30
0.0
 11
3587.749999999999
 21
800.0
 31
0.0
  0
LINE
  5
43E8
330
1D9
100
AcDbEntity
  8
0
100
AcDbLine
 10
3653.5
 20
1945.955334987592
 30
0.0
 11
3633.5
 21
1940.596351138971
 31
0.0
  0
LINE
  5
43E9
330
1D9
100
AcDbEntity
  8
0
100
AcDbLine
 10
3653.5
 20
1945.955334987592
 30
0.0
 11
3633.5
 21
1951.314318836215
 31
0.0
  0
LINE
  5
43EA
330
1D9
100
AcDbEntity
  8
0
100
AcDbLine
 10
3633.5
 20
1945.955334987592
 30
0.0
 11
3653.5
 21
1945.955334987592
 31
0.0
  0
LINE
  5
43EB
330
1D9
100
AcDbEntity
  8
0
100
AcDbLine
 10
3798.5
 20
2025.955334987592
 30
0.0
 11
3778.5
 21
2020.596351138971
 31
0.0
  0
LINE
  5
43EC
330
1D9
100
AcDbEntity
  8
0
100
AcDbLine
 10
3798.5
 20
2025.955334987592
 30
0.0
 11
3778.5
 21
2031.314318836214
 31
0.0
  0
LINE
  5
43ED
330
1D9
100
AcDbEntity
  8
0
100
AcDbLine
 10
3778.5
 20
2025.955334987592
 30
0.0
 11
3798.5
 21
2025.955334987592
 31
0.0
  0
ENDSEC
  0
SECTION
  2
OBJECTS
  0
DICTIONARY
  5
1CD
330
0
100
AcDbDictionary
  3
ACAD_GROUP
350
1CE
  3
ACAD_LAYOUT
350
2DE
  3
ACAD_MLINESTYLE
350
1CF
  3
ACAD_PLOTSETTINGS
350
2DF
1001
ACAD
1000
TREAT_AS_HARD
1070
     0
1000
TREAT_AS_HARD
1070
     0
  0
DICTIONARY
  5
2738
330
1C3
100
AcDbDictionary
  3
ACAD_LAYERSTATES
350
2739
1001
ACAD
1000
TREAT_AS_HARD
1070
     1
1000
TREAT_AS_HARD
1070
     0
  0
DICTIONARY
  5
43F4
330
1D9
100
AcDbDictionary
  3
ACAD_LAYOUTSELFREF
350
442A
1001
ACAD
1000
TREAT_AS_HARD
1070
     0
  0
DICTIONARY
  5
43F2
330
1D6
100
AcDbDictionary
  3
ACAD_LAYOUTSELFREF
350
4429
1001
ACAD
1000
TREAT_AS_HARD
1070
     0
  0
DICTIONARY
  5
1CE
102
{ACAD_REACTORS
330
1CD
102
}
330
1CD
100
AcDbDictionary
1001
ACAD
1000
TREAT_AS_HARD
1070
     0
1000
TREAT_AS_HARD
1070
     0
  0
DICTIONARY
  5
2DE
102
{ACAD_REACTORS
330
1CD
102
}
330
1CD
100
AcDbDictionary
1001
ACAD
1000
TREAT_AS_HARD
1070
     0
1000
TREAT_AS_HARD
1070
     0
  0
DICTIONARY
  5
1CF
102
{ACAD_REACTORS
330
1CD
102
}
330
1CD
100
AcDbDictionary
  3
STANDARD
350
1DC
1001
ACAD
1000
TREAT_AS_HARD
1070
     0
1000
TREAT_AS_HARD
1070
     0
  0
DICTIONARY
  5
2DF
102
{ACAD_REACTORS
330
1CD
102
}
330
1CD
100
AcDbDictionary
1001
ACAD
1000
TREAT_AS_HARD
1070
     0
1000
TREAT_AS_HARD
1070
     0
  0
DICTIONARY
  5
2739
102
{ACAD_REACTORS
330
2738
102
}
330
2738
100
AcDbDictionary
1001
ACAD
1000
TREAT_AS_HARD
1070
     0
1000
TREAT_AS_HARD
1070
     0
  0
XRECORD
  5
442A
102
{ACAD_REACTORS
330
43F4
102
}
330
43F4
100
AcDbXrecord
340
1D9
  0
XRECORD
  5
4429
102
{ACAD_REACTORS
330
43F2
102
}
330
43F2
100
AcDbXrecord
340
1D6
  0
MLINESTYLE
  5
1DC
102
{ACAD_REACTORS
330
1CF
102
}
330
1CF
100
AcDbMlineStyle
  2
STANDARD
 70
     0
  3

 62
     0
 51
90.0
 52
90.0
 71
     2
 49
0.5
 62
   256
  6
BYLAYER
 49
-0.5
 62
   256
  6
BYLAYER
  0
ENDSEC
  0
EOF
