  0
SECTION
  2
HEADER
  9
$ACADVER
  1
AC1012
  9
$DWGCODEPAGE
  3
dos932
  9
$INSBASE
 10
0.0
 20
0.0
 30
0.0
  9
$EXTMIN
 10
30.0
 20
0.0
 30
0.0
  9
$EXTMAX
 10
3990.607053980438
 20
2840.0
 30
0.0
  9
$LIMMIN
 10
0.0
 20
0.0
  9
$LIMMAX
 10
4200.0
 20
2970.0
  9
$ORTHOMODE
 70
     0
  9
$REGENMODE
 70
     1
  9
$FILLMODE
 70
     1
  9
$QTEXTMODE
 70
     0
  9
$MIRRTEXT
 70
     0
  9
$DRAGMODE
 70
     2
  9
$LTSCALE
 40
80.0
  9
$OSMODE
 70
    37
  9
$ATTMODE
 70
     1
  9
$TEXTSIZE
 40
30.0
  9
$TRACEWID
 40
0.05
  9
$TEXTSTYLE
  7
STANDARD
  9
$CLAYER
  8
0
  9
$CELTYPE
  6
BYLAYER
  9
$CECOLOR
 62
   256
  9
$CELTSCALE
 40
1.0
  9
$DELOBJ
 70
     1
  9
$DISPSILH
 70
     0
  9
$DIMSCALE
 40
10.0
  9
$DIMASZ
 40
2.0
  9
$DIMEXO
 40
0.1
  9
$DIMDLI
 40
7.0
  9
$DIMRND
 40
0.0
  9
$DIMDLE
 40
0.0
  9
$DIMEXE
 40
1.8
  9
$DIMTP
 40
0.0
  9
$DIMTM
 40
0.0
  9
$DIMTXT
 40
3.0
  9
$DIMCEN
 40
0.1
  9
$DIMTSZ
 40
0.0
  9
$DIMTOL
 70
     0
  9
$DIMLIM
 70
     0
  9
$DIMTIH
 70
     0
  9
$DIMTOH
 70
     0
  9
$DIMSE1
 70
     0
  9
$DIMSE2
 70
     0
  9
$DIMTAD
 70
     0
  9
$DIMZIN
 70
     9
  9
$DIMBLK
  1
YAZ1
  9
$DIMASO
 70
     1
  9
$DIMSHO
 70
     1
  9
$DIMPOST
  1

  9
$DIMAPOST
  1

  9
$DIMALT
 70
     0
  9
$DIMALTD
 70
     2
  9
$DIMALTF
 40
25.4
  9
$DIMLFAC
 40
1.0
  9
$DIMTOFL
 70
     1
  9
$DIMTVP
 40
1.0
  9
$DIMTIX
 70
     0
  9
$DIMSOXD
 70
     0
  9
$DIMSAH
 70
     1
  9
$DIMBLK1
  1
YAZ1
  9
$DIMBLK2
  1
YAZ1
  9
$DIMSTYLE
  2
YAZ1
  9
$DIMCLRD
 70
   256
  9
$DIMCLRE
 70
   256
  9
$DIMCLRT
 70
   256
  9
$DIMTFAC
 40
1.0
  9
$DIMGAP
 40
0.0
  9
$DIMJUST
 70
     0
  9
$DIMSD1
 70
     0
  9
$DIMSD2
 70
     0
  9
$DIMTOLJ
 70
     1
  9
$DIMTZIN
 70
     9
  9
$DIMALTZ
 70
     9
  9
$DIMALTTZ
 70
     9
  9
$DIMFIT
 70
     3
  9
$DIMUPT
 70
     0
  9
$DIMUNIT
 70
     2
  9
$DIMDEC
 70
     3
  9
$DIMTDEC
 70
     3
  9
$DIMALTU
 70
     2
  9
$DIMALTTD
 70
     2
  9
$DIMTXSTY
  7
STANDARD
  9
$DIMAUNIT
 70
     0
  9
$LUNITS
 70
     2
  9
$LUPREC
 70
     3
  9
$SKETCHINC
 40
0.1
  9
$FILLETRAD
 40
0.0
  9
$AUNITS
 70
     0
  9
$AUPREC
 70
     2
  9
$MENU
  1
amecex
  9
$ELEVATION
 40
0.0
  9
$PELEVATION
 40
0.0
  9
$THICKNESS
 40
0.0
  9
$LIMCHECK
 70
     0
  9
$BLIPMODE
 70
     0
  9
$CHAMFERA
 40
0.0
  9
$CHAMFERB
 40
0.0
  9
$CHAMFERC
 40
0.0
  9
$CHAMFERD
 40
0.0
  9
$SKPOLY
 70
     0
  9
$TDCREATE
 40
2452593.633064710
  9
$TDUPDATE
 40
2456059.490813101
  9
$TDINDWG
 40
0.5507886343
  9
$TDUSRTIMER
 40
0.5507885185
  9
$USRTIMER
 70
     1
  9
$ANGBASE
 50
0.0
  9
$ANGDIR
 70
     0
  9
$PDMODE
 70
     0
  9
$PDSIZE
 40
0.0
  9
$PLINEWID
 40
0.0
  9
$COORDS
 70
     0
  9
$SPLFRAME
 70
     0
  9
$SPLINETYPE
 70
     6
  9
$SPLINESEGS
 70
     8
  9
$ATTDIA
 70
     0
  9
$ATTREQ
 70
     1
  9
$HANDLING
 70
-16383
  9
$HANDSEED
  5
3C70
  9
$SURFTAB1
 70
     6
  9
$SURFTAB2
 70
     6
  9
$SURFTYPE
 70
     6
  9
$SURFU
 70
     6
  9
$SURFV
 70
     6
  9
$UCSNAME
  2

  9
$UCSORG
 10
0.0
 20
0.0
 30
0.0
  9
$UCSXDIR
 10
1.0
 20
0.0
 30
0.0
  9
$UCSYDIR
 10
0.0
 20
1.0
 30
0.0
  9
$PUCSNAME
  2

  9
$PUCSORG
 10
0.0
 20
0.0
 30
0.0
  9
$PUCSXDIR
 10
1.0
 20
0.0
 30
0.0
  9
$PUCSYDIR
 10
0.0
 20
1.0
 30
0.0
  9
$USERI1
 70
     0
  9
$USERI2
 70
     0
  9
$USERI3
 70
     0
  9
$USERI4
 70
     0
  9
$USERI5
 70
     0
  9
$USERR1
 40
30.0
  9
$USERR2
 40
0.0
  9
$USERR3
 40
0.0
  9
$USERR4
 40
0.0
  9
$USERR5
 40
0.0
  9
$WORLDVIEW
 70
     1
  9
$SHADEDGE
 70
     3
  9
$SHADEDIF
 70
    70
  9
$TILEMODE
 70
     1
  9
$MAXACTVP
 70
    16
  9
$PINSBASE
 10
0.0
 20
0.0
 30
0.0
  9
$PLIMCHECK
 70
     0
  9
$PEXTMIN
 10
1.000000000000000E+20
 20
1.000000000000000E+20
 30
1.000000000000000E+20
  9
$PEXTMAX
 10
-1.000000000000000E+20
 20
-1.000000000000000E+20
 30
-1.000000000000000E+20
  9
$PLIMMIN
 10
0.0
 20
0.0
  9
$PLIMMAX
 10
12.0
 20
9.0
  9
$UNITMODE
 70
     0
  9
$VISRETAIN
 70
     0
  9
$PLINEGEN
 70
     0
  9
$PSLTSCALE
 70
     0
  9
$TREEDEPTH
 70
  3020
  9
$PICKSTYLE
 70
     1
  9
$CMLSTYLE
  2
STANDARD
  9
$CMLJUST
 70
     0
  9
$CMLSCALE
 40
1.0
  9
$SAVEIMAGES
 70
     1
  0
ENDSEC
  0
SECTION
  2
CLASSES
  0
CLASS
  1
ACDBDICTIONARYWDFLT
  2
AcDbDictionaryWithDefault
  3
AutoCAD 2000
 90
    32768
280
     0
281
     0
  0
CLASS
  1
ACDBPLACEHOLDER
  2
AcDbPlaceHolder
  3
AutoCAD 2000
 90
    32768
280
     0
281
     0
  0
CLASS
  1
LAYOUT
  2
AcDbLayout
  3
AutoCAD 2000
 90
    32768
280
     0
281
     0
  0
CLASS
  1
DICTIONARYVAR
  2
AcDbDictionaryVar
  3
AutoCAD 2000
 90
    32768
280
     0
281
     0
  0
CLASS
  1
LONG_TRANSACTION
  2
AcDbLongTransaction
  3
AutoCAD 2000
 90
    32768
280
     0
281
     0
  0
CLASS
  1
LWPOLYLINE
  2
AcDbPolyline
  3
AutoCAD 2000
 90
    32768
280
     0
281
     1
  0
CLASS
  1
HATCH
  2
AcDbHatch
  3
AutoCAD 2000
 90
    32768
280
     0
281
     1
  0
CLASS
  1
XRECORD
  2
AcDbXrecord
  3
AutoCAD 2000
 90
    32768
280
     0
281
     0
  0
CLASS
  1
LONG_TRANSACTION
  2
AcDbLongTransaction
  3
AutoCAD 2000
 90
    32768
280
     0
281
     0
  0
CLASS
  1
LWPOLYLINE
  2
AcDbPolyline
  3
AutoCAD 2000
 90
    32768
280
     0
281
     1
  0
CLASS
  1
HATCH
  2
AcDbHatch
  3
AutoCAD 2000
 90
    32768
280
     0
281
     1
  0
CLASS
  1
XRECORD
  2
AcDbXrecord
  3
AutoCAD 2000
 90
    32768
280
     0
281
     0
  0
ENDSEC
  0
SECTION
  2
TABLES
  0
TABLE
  2
VPORT
  5
1C9
330
0
100
AcDbSymbolTable
 70
     2
  0
VPORT
  5
3C6D
330
1C9
100
AcDbSymbolTableRecord
100
AcDbViewportTableRecord
  2
*ACTIVE
 70
     0
 10
0.0
 20
0.0
 11
1.0
 21
1.0
 12
2100.0
 22
1485.0
 13
0.0
 23
0.0
 14
1.0
 24
1.0
 15
0.0
 25
0.0
 16
0.0
 26
0.0
 36
1.0
 17
0.0
 27
0.0
 37
0.0
 40
2970.0
 41
1.81042654028436
 42
50.0
 43
0.0
 44
0.0
 50
0.0
 51
0.0
 71
     0
 72
   100
 73
     1
 74
     1
 75
     0
 76
     0
 77
     0
 78
     0
  0
ENDTAB
  0
TABLE
  2
LTYPE
  5
1C6
330
0
100
AcDbSymbolTable
 70
     3
  0
LTYPE
  5
1D3
330
1C6
100
AcDbSymbolTableRecord
100
AcDbLinetypeTableRecord
  2
BYBLOCK
 70
     0
  3

 72
    65
 73
     0
 40
0.0
  0
LTYPE
  5
1D4
330
1C6
100
AcDbSymbolTableRecord
100
AcDbLinetypeTableRecord
  2
BYLAYER
 70
     0
  3

 72
    65
 73
     0
 40
0.0
  0
LTYPE
  5
1D5
330
1C6
100
AcDbSymbolTableRecord
100
AcDbLinetypeTableRecord
  2
CONTINUOUS
 70
     0
  3
実線
 72
    65
 73
     0
 40
0.0
  0
ENDTAB
  0
TABLE
  2
LAYER
  5
1C3
102
{ACAD_XDICTIONARY
360
2738
102
}
330
0
100
AcDbSymbolTable
 70
     5
  0
LAYER
  5
1D0
330
1C3
100
AcDbSymbolTableRecord
100
AcDbLayerTableRecord
  2
0
 70
     0
 62
     7
  6
CONTINUOUS
  0
ENDTAB
  0
TABLE
  2
STYLE
  5
1C4
330
0
100
AcDbSymbolTable
 70
     1
  0
STYLE
  5
1D1
330
1C4
100
AcDbSymbolTableRecord
100
AcDbTextStyleTableRecord
  2
STANDARD
 70
     0
 40
0.0
 41
1.0
 50
0.0
 71
     0
 42
30.0
  3
TXT
  4
BIGFONT
  0
ENDTAB
  0
TABLE
  2
VIEW
  5
1C7
330
0
100
AcDbSymbolTable
 70
     0
  0
ENDTAB
  0
TABLE
  2
UCS
  5
1C8
330
0
100
AcDbSymbolTable
 70
     0
  0
ENDTAB
  0
TABLE
  2
APPID
  5
1CA
330
0
100
AcDbSymbolTable
 70
     2
  0
APPID
  5
1D2
330
1CA
100
AcDbSymbolTableRecord
100
AcDbRegAppTableRecord
  2
ACAD
 70
     0
  0
APPID
  5
286
330
1CA
100
AcDbSymbolTableRecord
100
AcDbRegAppTableRecord
  2
ACE-LT__COPYRIGHT_TRIALSOFT-JPN
 70
     0
  0
ENDTAB
  0
TABLE
  2
DIMSTYLE
  5
1CB
330
0
100
AcDbSymbolTable
 70
     1
  0
DIMSTYLE
105
1F1
330
1CB
100
AcDbSymbolTableRecord
100
AcDbDimStyleTableRecord
  2
YAZ1
 70
     0
  3

  4

  5
YAZ1
  6
YAZ1
  7
YAZ1
 40
10.0
 41
2.0
 42
0.1
 43
7.0
 44
1.8
 45
0.0
 46
0.0
 47
0.0
 48
0.0
140
3.0
141
0.1
142
0.0
143
25.4
144
1.0
145
1.0
146
1.0
147
0.0
 71
     0
 72
     0
 73
     0
 74
     0
 75
     0
 76
     0
 77
     0
 78
     9
170
     0
171
     2
172
     1
173
     1
174
     0
175
     0
176
   256
177
   256
178
   256
270
     2
271
     3
272
     3
273
     2
274
     2
340
1D1
275
     0
280
     0
281
     0
282
     0
283
     1
284
     9
285
     9
286
     9
287
     3
288
     0
  0
ENDTAB
  0
TABLE
  2
BLOCK_RECORD
  5
1C2
330
0
100
AcDbSymbolTable
 70
     1
  0
BLOCK_RECORD
  5
1D9
102
{ACAD_XDICTIONARY
360
3C39
102
}
330
1C2
100
AcDbSymbolTableRecord
100
AcDbBlockTableRecord
  2
*MODEL_SPACE
  0
BLOCK_RECORD
  5
1D6
102
{ACAD_XDICTIONARY
360
3C37
102
}
330
1C2
100
AcDbSymbolTableRecord
100
AcDbBlockTableRecord
  2
*PAPER_SPACE
  0
BLOCK_RECORD
  5
254
330
1C2
100
AcDbSymbolTableRecord
100
AcDbBlockTableRecord
  2
YAZ1
  0
ENDTAB
  0
ENDSEC
  0
SECTION
  2
BLOCKS
  0
BLOCK
  5
20A
330
1D9
100
AcDbEntity
  8
0
100
AcDbBlockBegin
  2
*MODEL_SPACE
 70
     0
 10
0.0
 20
0.0
 30
0.0
  3
*MODEL_SPACE
  1

  0
ENDBLK
  5
20B
330
1D9
100
AcDbEntity
  8
0
100
AcDbBlockEnd
  0
BLOCK
  5
208
330
1D6
100
AcDbEntity
 67
     1
  8
0
100
AcDbBlockBegin
  2
*PAPER_SPACE
 70
     0
 10
0.0
 20
0.0
 30
0.0
  3
*PAPER_SPACE
  1

  0
ENDBLK
  5
209
330
1D6
100
AcDbEntity
 67
     1
  8
0
100
AcDbBlockEnd
  0
BLOCK
  5
258
330
254
100
AcDbEntity
  8
0
100
AcDbBlockBegin
  2
YAZ1
 70
     0
 10
0.0
 20
0.0
 30
0.0
  3
YAZ1
  1

  0
LINE
  5
255
330
254
100
AcDbEntity
  8
0
100
AcDbLine
 10
0.0
 20
0.0
 30
0.0
 11
-1.0
 21
-0.2679491924311037
 31
0.0
  0
LINE
  5
256
330
254
100
AcDbEntity
  8
0
100
AcDbLine
 10
0.0
 20
0.0
 30
0.0
 11
-1.0
 21
0.2679491924311037
 31
0.0
  0
LINE
  5
257
330
254
100
AcDbEntity
  8
0
100
AcDbLine
 10
-1.0
 20
0.0
 30
0.0
 11
0.0
 21
0.0
 31
0.0
  0
ENDBLK
  5
259
330
254
100
AcDbEntity
  8
0
100
AcDbBlockEnd
  0
ENDSEC
  0
SECTION
  2
ENTITIES
  0
TEXT
  5
3589
330
1D9
100
AcDbEntity
  8
0
100
AcDbText
 10
1877.428263404294
 20
1012.512383790262
 30
0.0
 40
48.51116625310172
  1
呼び径：150
100
AcDbText
  0
TEXT
  5
358A
330
1D9
100
AcDbEntity
  8
0
100
AcDbText
 10
1719.141968043148
 20
939.839685983552
 30
0.0
 40
48.51116625310172
  1
品番：NF150-100VSU
100
AcDbText
  0
TEXT
  5
358B
330
1D9
100
AcDbEntity
  8
0
100
AcDbText
 10
1877.428263404294
 20
2236.557048802669
 30
0.0
 40
48.51116625310172
  1
呼び径：75
100
AcDbText
  0
TEXT
  5
358C
330
1D9
100
AcDbEntity
  8
0
100
AcDbText
 10
1719.141968043148
 20
2163.884350995957
 30
0.0
 40
48.51116625310172
  1
品番：NF75-100VSU
100
AcDbText
  0
LINE
  5
3591
330
1D9
100
AcDbEntity
  8
0
100
AcDbLine
 10
80.0
 20
2450.0
 30
0.0
 11
3990.0
 21
2450.0
 31
0.0
  0
LINE
  5
3592
330
1D9
100
AcDbEntity
  8
0
100
AcDbLine
 10
3990.607053980438
 20
1225.955334987593
 30
0.0
 11
80.60705398043863
 21
1225.955334987593
 31
0.0
  0
LINE
  5
3594
330
1D9
100
AcDbEntity
  8
0
100
AcDbLine
 10
1915.0
 20
1779.455334987592
 30
0.0
 11
2171.0
 21
1779.455334987592
 31
0.0
  0
LINE
  5
3595
330
1D9
100
AcDbEntity
  8
0
100
AcDbLine
 10
1915.0
 20
1665.452334987593
 30
0.0
 11
2171.0
 21
1665.452334987593
 31
0.0
  0
LINE
  5
3596
330
1D9
100
AcDbEntity
  8
0
100
AcDbLine
 10
1764.139999999999
 20
1722.455334987593
 30
0.0
 11
2221.0
 21
1722.455334987593
 31
0.0
  0
LINE
  5
3598
330
1D9
100
AcDbEntity
  8
0
100
AcDbLine
 10
2074.997
 20
614.5
 30
0.0
 11
2196.997
 21
614.5
 31
0.0
  0
LINE
  5
3599
330
1D9
100
AcDbEntity
  8
0
100
AcDbLine
 10
2074.997
 20
385.5
 30
0.0
 11
2196.997
 21
385.5
 31
0.0
  0
LINE
  5
359A
330
1D9
100
AcDbEntity
  8
0
100
AcDbLine
 10
1568.448
 20
500.0
 30
0.0
 11
2196.997
 21
500.0
 31
0.0
  0
LINE
  5
359E
330
1D9
100
AcDbEntity
  8
0
100
AcDbLine
 10
3990.0
 20
0.0
 30
0.0
 11
80.0
 21
0.0
 31
0.0
  0
LINE
  5
359F
330
1D9
100
AcDbEntity
  8
0
100
AcDbLine
 10
80.0
 20
2840.0
 30
0.0
 11
3990.0
 21
2840.0
 31
0.0
  0
TEXT
  5
35A0
330
1D9
100
AcDbEntity
  8
0
100
AcDbText
 10
195.1116189770246
 20
2608.88260459352
 30
0.0
 40
67.91563275434242
  1
フレキベンダーＶＰ 〔偏芯量：100mm　挿口×受口〕
100
AcDbText
  0
LINE
  5
35A1
330
1D9
100
AcDbEntity
  8
0
100
AcDbLine
 10
80.0
 20
0.0
 30
0.0
 11
80.0
 21
2840.0
 31
0.0
  0
TEXT
  5
35A6
330
1D9
100
AcDbEntity
  8
0
100
AcDbText
 10
574.4282634042937
 20
1012.512383790262
 30
0.0
 40
48.51116625310172
  1
呼び径：125
100
AcDbText
  0
TEXT
  5
35A7
330
1D9
100
AcDbEntity
  8
0
100
AcDbText
 10
416.1419680431481
 20
939.839685983552
 30
0.0
 40
48.51116625310172
  1
品番：NF125-100VSU
100
AcDbText
  0
TEXT
  5
35A8
330
1D9
100
AcDbEntity
  8
0
100
AcDbText
 10
574.4282634042937
 20
2236.557048802669
 30
0.0
 40
48.51116625310172
  1
呼び径：50
100
AcDbText
  0
TEXT
  5
35A9
330
1D9
100
AcDbEntity
  8
0
100
AcDbText
 10
416.1419680431481
 20
2163.884350995957
 30
0.0
 40
48.51116625310172
  1
品番：NF50-100VSU
100
AcDbText
  0
LINE
  5
35AA
330
1D9
100
AcDbEntity
  8
0
100
AcDbLine
 10
643.0
 20
582.5
 30
0.0
 11
819.5
 21
582.5
 31
0.0
  0
LINE
  5
35AB
330
1D9
100
AcDbEntity
  8
0
100
AcDbLine
 10
643.0
 20
417.4999999999998
 30
0.0
 11
819.5
 21
417.4999999999998
 31
0.0
  0
LINE
  5
35AC
330
1D9
100
AcDbEntity
  8
0
100
AcDbLine
 10
314.9799999999995
 20
500.0
 30
0.0
 11
899.0
 21
500.0
 31
0.0
  0
LINE
  5
35AD
330
1D9
100
AcDbEntity
  8
0
100
AcDbLine
 10
895.0
 20
1763.955334987593
 30
0.0
 11
615.0
 21
1763.955334987593
 31
0.0
  0
LINE
  5
35AE
330
1D9
100
AcDbEntity
  8
0
100
AcDbLine
 10
895.0
 20
1687.955334987593
 30
0.0
 11
615.0
 21
1687.955334987593
 31
0.0
  0
LINE
  5
35AF
330
1D9
100
AcDbEntity
  8
0
100
AcDbLine
 10
933.0
 20
1725.955334987593
 30
0.0
 11
407.3199999999997
 21
1725.955334987593
 31
0.0
  0
ARC
  5
35B2
330
1D9
100
AcDbEntity
  8
0
100
AcDbCircle
 10
503.0
 20
500.0
 30
0.0
 40
92.24999999999999
100
AcDbArc
 50
70.57700000001926
 51
130.6410000000115
  0
ARC
  5
35B3
330
1D9
100
AcDbEntity
  8
0
100
AcDbCircle
 10
503.0
 20
500.0
 30
0.0
 40
92.24999999999999
100
AcDbArc
 50
229.3589999999884
 51
289.4229999999806
  0
LINE
  5
35B4
330
1D9
100
AcDbEntity
  8
0
100
AcDbLine
 10
442.92
 20
570.0
 30
0.0
 11
354.0
 21
570.0
 31
0.0
  0
LINE
  5
35B5
330
1D9
100
AcDbEntity
  8
0
100
AcDbLine
 10
442.92
 20
430.0
 30
0.0
 11
354.0
 21
430.0
 31
0.0
  0
LINE
  5
35B6
330
1D9
100
AcDbEntity
  8
0
100
AcDbLine
 10
345.0
 20
432.4099999999998
 30
0.0
 11
345.0
 21
500.0
 31
0.0
  0
LINE
  5
35B7
330
1D9
100
AcDbEntity
  8
0
100
AcDbLine
 10
354.0
 20
430.0
 30
0.0
 11
354.0
 21
500.0
 31
0.0
  0
LINE
  5
35B8
330
1D9
100
AcDbEntity
  8
0
100
AcDbLine
 10
345.0
 20
432.4099999999998
 30
0.0
 11
354.0
 21
430.0
 31
0.0
  0
LINE
  5
35B9
330
1D9
100
AcDbEntity
  8
0
100
AcDbLine
 10
345.0
 20
567.5799999999997
 30
0.0
 11
354.0
 21
570.0
 31
0.0
  0
LINE
  5
35BA
330
1D9
100
AcDbEntity
  8
0
100
AcDbLine
 10
345.0
 20
567.5799999999997
 30
0.0
 11
345.0
 21
500.0
 31
0.0
  0
LINE
  5
35BB
330
1D9
100
AcDbEntity
  8
0
100
AcDbLine
 10
354.0
 20
570.0
 30
0.0
 11
354.0
 21
500.0
 31
0.0
  0
LINE
  5
35BC
330
1D9
100
AcDbEntity
  8
0
100
AcDbLine
 10
442.92
 20
430.0
 30
0.0
 11
442.92
 21
500.0
 31
0.0
  0
LINE
  5
35BD
330
1D9
100
AcDbEntity
  8
0
100
AcDbLine
 10
442.92
 20
570.0
 30
0.0
 11
442.92
 21
500.0
 31
0.0
  0
LINE
  5
35BE
330
1D9
100
AcDbEntity
  8
0
100
AcDbLine
 10
643.0
 20
582.5
 30
0.0
 11
643.0
 21
500.0
 31
0.0
  0
LINE
  5
35BF
330
1D9
100
AcDbEntity
  8
0
100
AcDbLine
 10
543.0
 20
500.0
 30
0.0
 11
543.0
 21
587.0
 31
0.0
  0
LINE
  5
35C0
330
1D9
100
AcDbEntity
  8
0
100
AcDbLine
 10
533.6800000000001
 20
587.0
 30
0.0
 11
533.6800000000001
 21
413.0
 31
0.0
  0
LINE
  5
35C1
330
1D9
100
AcDbEntity
  8
0
100
AcDbLine
 10
543.0
 20
570.0
 30
0.0
 11
643.0
 21
570.0
 31
0.0
  0
LINE
  5
35C2
330
1D9
100
AcDbEntity
  8
0
100
AcDbLine
 10
543.0
 20
430.0
 30
0.0
 11
643.0
 21
430.0
 31
0.0
  0
LINE
  5
35C3
330
1D9
100
AcDbEntity
  8
0
100
AcDbLine
 10
543.0
 20
413.0
 30
0.0
 11
533.6800000000001
 21
413.0
 31
0.0
  0
LINE
  5
35C4
330
1D9
100
AcDbEntity
  8
0
100
AcDbLine
 10
503.0
 20
525.0
 30
0.0
 11
503.0
 21
475.0
 31
0.0
  0
LINE
  5
35C5
330
1D9
100
AcDbEntity
  8
0
100
AcDbLine
 10
543.0
 20
500.0
 30
0.0
 11
543.0
 21
413.0
 31
0.0
  0
LINE
  5
35C6
330
1D9
100
AcDbEntity
  8
0
100
AcDbLine
 10
643.0
 20
417.4999999999998
 30
0.0
 11
643.0
 21
500.0
 31
0.0
  0
LINE
  5
35C7
330
1D9
100
AcDbEntity
  8
0
100
AcDbLine
 10
543.0
 20
587.0
 30
0.0
 11
533.6800000000001
 21
587.0
 31
0.0
  0
ARC
  5
35C8
330
1D9
100
AcDbEntity
  8
0
100
AcDbCircle
 10
470.5
 20
1725.955334987593
 30
0.0
 40
37.5
100
AcDbArc
 50
88.23220000000878
 51
128.7639999999856
  0
ARC
  5
35C9
330
1D9
100
AcDbEntity
  8
0
100
AcDbCircle
 10
470.5
 20
1725.955334987593
 30
0.0
 40
37.5
100
AcDbArc
 50
231.2360000000143
 51
271.7680000000056
  0
ARC
  5
35CA
330
1D9
100
AcDbEntity
  8
0
100
AcDbCircle
 10
446.3999999999996
 20
1755.975334987593
 30
0.0
 40
1.0
100
AcDbArc
 50
224.9999999999976
 51
308.7639999999856
  0
LINE
  5
35CB
330
1D9
100
AcDbEntity
  8
0
100
AcDbLine
 10
420.0
 20
1725.955334987593
 30
0.0
 11
420.0
 21
1755.955334987593
 31
0.0
  0
LINE
  5
35CC
330
1D9
100
AcDbEntity
  8
0
100
AcDbLine
 10
420.0
 20
1755.955334987593
 30
0.0
 11
445.0
 21
1755.955334987593
 31
0.0
  0
LINE
  5
35CD
330
1D9
100
AcDbEntity
  8
0
100
AcDbLine
 10
445.0
 20
1755.955334987593
 30
0.0
 11
445.6899999999996
 21
1755.268334987593
 31
0.0
  0
LINE
  5
35CE
330
1D9
100
AcDbEntity
  8
0
100
AcDbLine
 10
446.3299999999998
 20
1754.626334987593
 30
0.0
 11
446.3299999999998
 21
1725.955334987593
 31
0.0
  0
ARC
  5
35CF
330
1D9
100
AcDbEntity
  8
0
100
AcDbCircle
 10
446.3999999999996
 20
1695.935334987592
 30
0.0
 40
1.0
100
AcDbArc
 50
51.23589999999197
 51
135.0000000000022
  0
LINE
  5
35D0
330
1D9
100
AcDbEntity
  8
0
100
AcDbLine
 10
420.0
 20
1695.955334987592
 30
0.0
 11
445.0
 21
1695.955334987592
 31
0.0
  0
LINE
  5
35D1
330
1D9
100
AcDbEntity
  8
0
100
AcDbLine
 10
445.0
 20
1695.955334987592
 30
0.0
 11
445.6899999999996
 21
1696.642334987593
 31
0.0
  0
LINE
  5
35D2
330
1D9
100
AcDbEntity
  8
0
100
AcDbLine
 10
420.0
 20
1725.955334987593
 30
0.0
 11
420.0
 21
1695.955334987592
 31
0.0
  0
LINE
  5
35D3
330
1D9
100
AcDbEntity
  8
0
100
AcDbLine
 10
446.3299999999998
 20
1697.284334987593
 30
0.0
 11
446.3299999999998
 21
1725.955334987593
 31
0.0
  0
LINE
  5
35D4
330
1D9
100
AcDbEntity
  8
0
100
AcDbLine
 10
515.0
 20
1755.955334987593
 30
0.0
 11
615.0
 21
1755.955334987593
 31
0.0
  0
LINE
  5
35D5
330
1D9
100
AcDbEntity
  8
0
100
AcDbLine
 10
515.0
 20
1695.955334987592
 30
0.0
 11
615.0
 21
1695.955334987592
 31
0.0
  0
LINE
  5
35D6
330
1D9
100
AcDbEntity
  8
0
100
AcDbLine
 10
487.5599999999995
 20
1695.395334987593
 30
0.0
 11
489.0
 21
1693.955334987593
 31
0.0
  0
ARC
  5
35D7
330
1D9
100
AcDbEntity
  8
0
100
AcDbCircle
 10
470.5
 20
1725.955334987593
 30
0.0
 40
35.0
100
AcDbArc
 50
289.1819999999801
 51
299.1729999999813
  0
LINE
  5
35D8
330
1D9
100
AcDbEntity
  8
0
100
AcDbLine
 10
482.0
 20
1725.955334987593
 30
0.0
 11
482.0
 21
1690.262334987593
 31
0.0
  0
LINE
  5
35D9
330
1D9
100
AcDbEntity
  8
0
100
AcDbLine
 10
515.0
 20
1725.955334987593
 30
0.0
 11
515.0
 21
1693.955334987593
 31
0.0
  0
LINE
  5
35DA
330
1D9
100
AcDbEntity
  8
0
100
AcDbLine
 10
489.0
 20
1693.955334987593
 30
0.0
 11
489.0
 21
1725.955334987593
 31
0.0
  0
LINE
  5
35DB
330
1D9
100
AcDbEntity
  8
0
100
AcDbLine
 10
471.6599999999998
 20
1688.473334987593
 30
0.0
 11
471.6599999999998
 21
1725.955334987593
 31
0.0
  0
LINE
  5
35DC
330
1D9
100
AcDbEntity
  8
0
100
AcDbLine
 10
477.7699999999994
 20
1689.166334987593
 30
0.0
 11
477.7699999999994
 21
1725.955334987593
 31
0.0
  0
LINE
  5
35DD
330
1D9
100
AcDbEntity
  8
0
100
AcDbLine
 10
489.0
 20
1693.955334987593
 30
0.0
 11
515.0
 21
1693.955334987593
 31
0.0
  0
ARC
  5
35DE
330
1D9
100
AcDbEntity
  8
0
100
AcDbCircle
 10
470.5
 20
1725.955334987593
 30
0.0
 40
37.5
100
AcDbArc
 50
281.1709999999876
 51
287.8580000000225
  0
ARC
  5
35DF
330
1D9
100
AcDbEntity
  8
0
100
AcDbCircle
 10
474.5
 20
1690.681334987593
 30
0.0
 40
3.6
100
AcDbArc
 50
217.8349999999906
 51
335.103999999993
  0
LINE
  5
35E0
330
1D9
100
AcDbEntity
  8
0
100
AcDbLine
 10
489.0
 20
1757.955334987593
 30
0.0
 11
515.0
 21
1757.955334987593
 31
0.0
  0
ARC
  5
35E1
330
1D9
100
AcDbEntity
  8
0
100
AcDbCircle
 10
470.5
 20
1725.955334987593
 30
0.0
 40
37.5
100
AcDbArc
 50
72.14150000000127
 51
78.82850000000222
  0
ARC
  5
35E2
330
1D9
100
AcDbEntity
  8
0
100
AcDbCircle
 10
474.5
 20
1761.229334987593
 30
0.0
 40
3.6
100
AcDbArc
 50
24.89620000000525
 51
142.1650000000092
  0
LINE
  5
35E3
330
1D9
100
AcDbEntity
  8
0
100
AcDbLine
 10
487.5599999999995
 20
1756.515334987593
 30
0.0
 11
489.0
 21
1757.955334987593
 31
0.0
  0
LINE
  5
35E4
330
1D9
100
AcDbEntity
  8
0
100
AcDbLine
 10
487.5599999999995
 20
1756.515334987593
 30
0.0
 11
487.5599999999995
 21
1725.955334987593
 31
0.0
  0
LINE
  5
35E5
330
1D9
100
AcDbEntity
  8
0
100
AcDbLine
 10
489.0
 20
1757.955334987593
 30
0.0
 11
489.0
 21
1725.955334987593
 31
0.0
  0
LINE
  5
35E6
330
1D9
100
AcDbEntity
  8
0
100
AcDbLine
 10
470.5
 20
1725.955334987593
 30
0.0
 11
470.5
 21
1740.955334987593
 31
0.0
  0
ARC
  5
35E7
330
1D9
100
AcDbEntity
  8
0
100
AcDbCircle
 10
470.5
 20
1725.955334987593
 30
0.0
 40
35.0
100
AcDbArc
 50
60.82740000001199
 51
70.81789999997728
  0
LINE
  5
35E8
330
1D9
100
AcDbEntity
  8
0
100
AcDbLine
 10
487.5599999999995
 20
1695.395334987593
 30
0.0
 11
487.5599999999995
 21
1725.955334987593
 31
0.0
  0
LINE
  5
35E9
330
1D9
100
AcDbEntity
  8
0
100
AcDbLine
 10
470.5
 20
1725.955334987593
 30
0.0
 11
470.5
 21
1710.955334987593
 31
0.0
  0
LINE
  5
35EA
330
1D9
100
AcDbEntity
  8
0
100
AcDbLine
 10
482.0
 20
1725.955334987593
 30
0.0
 11
482.0
 21
1761.648334987593
 31
0.0
  0
LINE
  5
35EB
330
1D9
100
AcDbEntity
  8
0
100
AcDbLine
 10
471.6599999999998
 20
1763.437334987592
 30
0.0
 11
471.6599999999998
 21
1725.955334987593
 31
0.0
  0
LINE
  5
35EC
330
1D9
100
AcDbEntity
  8
0
100
AcDbLine
 10
477.7699999999994
 20
1762.744334987591
 30
0.0
 11
477.7699999999994
 21
1725.955334987593
 31
0.0
  0
LINE
  5
35ED
330
1D9
100
AcDbEntity
  8
0
100
AcDbLine
 10
515.0
 20
1725.955334987593
 30
0.0
 11
515.0
 21
1757.955334987593
 31
0.0
  0
LINE
  5
35EE
330
1D9
100
AcDbEntity
  8
0
100
AcDbLine
 10
615.0
 20
1725.955334987593
 30
0.0
 11
615.0
 21
1687.955334987593
 31
0.0
  0
LINE
  5
35EF
330
1D9
100
AcDbEntity
  8
0
100
AcDbLine
 10
615.0
 20
1725.955334987593
 30
0.0
 11
615.0
 21
1763.955334987593
 31
0.0
  0
LINE
  5
35F1
330
1D9
100
AcDbEntity
  8
0
100
AcDbLine
 10
1384.0
 20
2450.0
 30
0.0
 11
1384.0
 21
0.0
 31
0.0
  0
LINE
  5
35F2
330
1D9
100
AcDbEntity
  8
0
100
AcDbLine
 10
1120.0
 20
575.4999999999999
 30
0.0
 11
1110.68
 21
575.4999999999999
 31
0.0
  0
LINE
  5
35F3
330
1D9
100
AcDbEntity
  8
0
100
AcDbLine
 10
1045.0
 20
558.4999999999999
 30
0.0
 11
1120.0
 21
558.4999999999999
 31
0.0
  0
LINE
  5
35F4
330
1D9
100
AcDbEntity
  8
0
100
AcDbLine
 10
1120.0
 20
401.4999999999998
 30
0.0
 11
1110.68
 21
401.4999999999998
 31
0.0
  0
LINE
  5
35F5
330
1D9
100
AcDbEntity
  8
0
100
AcDbLine
 10
1045.0
 20
418.5
 30
0.0
 11
1120.0
 21
418.5
 31
0.0
  0
LINE
  5
35F6
330
1D9
100
AcDbEntity
  8
0
100
AcDbLine
 10
915.0
 20
488.4999999999998
 30
0.0
 11
1151.059999999999
 21
488.4999999999998
 31
0.0
  0
ARC
  5
35F7
330
1D9
100
AcDbEntity
  8
0
100
AcDbCircle
 10
1080.0
 20
488.4999999999998
 30
0.0
 40
92.24999999999999
100
AcDbArc
 50
70.57700000001926
 51
130.6410000000115
  0
LINE
  5
35F8
330
1D9
100
AcDbEntity
  8
0
100
AcDbLine
 10
1110.68
 20
575.4999999999999
 30
0.0
 11
1110.68
 21
488.4999999999998
 31
0.0
  0
LINE
  5
35F9
330
1D9
100
AcDbEntity
  8
0
100
AcDbLine
 10
819.5
 20
589.0
 30
0.0
 11
819.5
 21
500.0
 31
0.0
  0
LINE
  5
35FA
330
1D9
100
AcDbEntity
  8
0
100
AcDbLine
 10
899.0
 20
589.0
 30
0.0
 11
899.0
 21
500.0
 31
0.0
  0
LINE
  5
35FB
330
1D9
100
AcDbEntity
  8
0
100
AcDbLine
 10
899.0
 20
579.3799999999992
 30
0.0
 11
910.9099999999997
 21
560.0
 31
0.0
  0
LINE
  5
35FC
330
1D9
100
AcDbEntity
  8
0
100
AcDbLine
 10
915.0
 20
564.0
 30
0.0
 11
994.5
 21
564.0
 31
0.0
  0
LINE
  5
35FD
330
1D9
100
AcDbEntity
  8
0
100
AcDbLine
 10
915.0
 20
413.0
 30
0.0
 11
994.5
 21
413.0
 31
0.0
  0
LINE
  5
35FE
330
1D9
100
AcDbEntity
  8
0
100
AcDbLine
 10
819.5
 20
411.0
 30
0.0
 11
899.0
 21
411.0
 31
0.0
  0
LINE
  5
35FF
330
1D9
100
AcDbEntity
  8
0
100
AcDbLine
 10
819.5
 20
411.0
 30
0.0
 11
819.5
 21
500.0
 31
0.0
  0
LINE
  5
3600
330
1D9
100
AcDbEntity
  8
0
100
AcDbLine
 10
915.0
 20
488.4999999999998
 30
0.0
 11
915.0
 21
413.0
 31
0.0
  0
LINE
  5
3601
330
1D9
100
AcDbEntity
  8
0
100
AcDbLine
 10
910.9099999999997
 20
560.0
 30
0.0
 11
910.9099999999997
 21
433.0499999999991
 31
0.0
  0
LINE
  5
3602
330
1D9
100
AcDbEntity
  8
0
100
AcDbLine
 10
899.0
 20
500.0
 30
0.0
 11
899.0
 21
411.0
 31
0.0
  0
LINE
  5
3603
330
1D9
100
AcDbEntity
  8
0
100
AcDbLine
 10
915.0
 20
417.0
 30
0.0
 11
899.0
 21
417.0
 31
0.0
  0
LINE
  5
3604
330
1D9
100
AcDbEntity
  8
0
100
AcDbLine
 10
899.0
 20
500.0
 30
0.0
 11
915.0
 21
488.4999999999998
 31
0.0
  0
LINE
  5
3605
330
1D9
100
AcDbEntity
  8
0
100
AcDbLine
 10
915.0
 20
560.0
 30
0.0
 11
910.9099999999997
 21
560.0
 31
0.0
  0
LINE
  5
3606
330
1D9
100
AcDbEntity
  8
0
100
AcDbLine
 10
915.0
 20
564.0
 30
0.0
 11
915.0
 21
488.4999999999998
 31
0.0
  0
ARC
  5
3607
330
1D9
100
AcDbEntity
  8
0
100
AcDbCircle
 10
1080.0
 20
488.4999999999998
 30
0.0
 40
92.24999999999999
100
AcDbArc
 50
229.3589999999884
 51
289.4229999999806
  0
LINE
  5
3608
330
1D9
100
AcDbEntity
  8
0
100
AcDbLine
 10
994.5
 20
413.0
 30
0.0
 11
994.5
 21
488.4999999999998
 31
0.0
  0
LINE
  5
3609
330
1D9
100
AcDbEntity
  8
0
100
AcDbLine
 10
1019.919999999999
 20
418.5
 30
0.0
 11
1019.919999999999
 21
488.4999999999998
 31
0.0
  0
LINE
  5
360A
330
1D9
100
AcDbEntity
  8
0
100
AcDbLine
 10
1019.919999999999
 20
418.5
 30
0.0
 11
994.5
 21
418.5
 31
0.0
  0
LINE
  5
360B
330
1D9
100
AcDbEntity
  8
0
100
AcDbLine
 10
1019.919999999999
 20
558.4999999999999
 30
0.0
 11
994.5
 21
558.4999999999999
 31
0.0
  0
LINE
  5
360C
330
1D9
100
AcDbEntity
  8
0
100
AcDbLine
 10
994.5
 20
564.0
 30
0.0
 11
994.5
 21
488.4999999999998
 31
0.0
  0
LINE
  5
360D
330
1D9
100
AcDbEntity
  8
0
100
AcDbLine
 10
1019.919999999999
 20
558.4999999999999
 30
0.0
 11
1019.919999999999
 21
488.4999999999998
 31
0.0
  0
LINE
  5
360E
330
1D9
100
AcDbEntity
  8
0
100
AcDbLine
 10
1080.0
 20
513.4999999999998
 30
0.0
 11
1080.0
 21
463.4999999999998
 31
0.0
  0
LINE
  5
360F
330
1D9
100
AcDbEntity
  8
0
100
AcDbLine
 10
1110.68
 20
401.4999999999998
 30
0.0
 11
1110.68
 21
488.4999999999998
 31
0.0
  0
LINE
  5
3610
330
1D9
100
AcDbEntity
  8
0
100
AcDbLine
 10
1045.0
 20
488.4999999999998
 30
0.0
 11
1045.0
 21
418.5
 31
0.0
  0
LINE
  5
3611
330
1D9
100
AcDbEntity
  8
0
100
AcDbLine
 10
1045.0
 20
488.4999999999998
 30
0.0
 11
1045.0
 21
558.4999999999999
 31
0.0
  0
LINE
  5
3612
330
1D9
100
AcDbEntity
  8
0
100
AcDbLine
 10
819.5
 20
589.0
 30
0.0
 11
899.0
 21
589.0
 31
0.0
  0
LINE
  5
3613
330
1D9
100
AcDbEntity
  8
0
100
AcDbLine
 10
1120.0
 20
488.4999999999998
 30
0.0
 11
1120.0
 21
575.4999999999999
 31
0.0
  0
LINE
  5
3614
330
1D9
100
AcDbEntity
  8
0
100
AcDbLine
 10
1120.0
 20
488.4999999999998
 30
0.0
 11
1120.0
 21
401.4999999999998
 31
0.0
  0
ARC
  5
3615
330
1D9
100
AcDbEntity
  8
0
100
AcDbCircle
 10
1791.0
 20
500.0
 30
0.0
 40
106.4999999999999
100
AcDbArc
 50
71.50600000002256
 51
129.2270000000098
  0
ARC
  5
3616
330
1D9
100
AcDbEntity
  8
0
100
AcDbCircle
 10
1791.0
 20
500.0
 30
0.0
 40
106.4999999999999
100
AcDbArc
 50
230.77299999999
 51
288.4939999999774
  0
LINE
  5
3617
330
1D9
100
AcDbEntity
  8
0
100
AcDbLine
 10
1723.649999999999
 20
582.5
 30
0.0
 11
1723.649999999999
 21
500.0
 31
0.0
  0
LINE
  5
3618
330
1D9
100
AcDbEntity
  8
0
100
AcDbLine
 10
1591.0
 20
579.5520000000001
 30
0.0
 11
1591.0
 21
500.0
 31
0.0
  0
LINE
  5
3619
330
1D9
100
AcDbEntity
  8
0
100
AcDbLine
 10
1602.0
 20
582.5
 30
0.0
 11
1602.0
 21
500.0
 31
0.0
  0
LINE
  5
361A
330
1D9
100
AcDbEntity
  8
0
100
AcDbLine
 10
1723.649999999999
 20
417.4999999999998
 30
0.0
 11
1602.0
 21
417.4999999999998
 31
0.0
  0
LINE
  5
361B
330
1D9
100
AcDbEntity
  8
0
100
AcDbLine
 10
1591.0
 20
420.4470000000001
 30
0.0
 11
1591.0
 21
500.0
 31
0.0
  0
LINE
  5
361C
330
1D9
100
AcDbEntity
  8
0
100
AcDbLine
 10
1602.0
 20
417.4999999999998
 30
0.0
 11
1602.0
 21
500.0
 31
0.0
  0
LINE
  5
361D
330
1D9
100
AcDbEntity
  8
0
100
AcDbLine
 10
1591.0
 20
420.4470000000001
 30
0.0
 11
1602.0
 21
417.4999999999998
 31
0.0
  0
LINE
  5
361E
330
1D9
100
AcDbEntity
  8
0
100
AcDbLine
 10
1723.649999999999
 20
417.4999999999998
 30
0.0
 11
1723.649999999999
 21
500.0
 31
0.0
  0
LINE
  5
361F
330
1D9
100
AcDbEntity
  8
0
100
AcDbLine
 10
1723.649999999999
 20
582.5
 30
0.0
 11
1602.0
 21
582.5
 31
0.0
  0
LINE
  5
3620
330
1D9
100
AcDbEntity
  8
0
100
AcDbLine
 10
1591.0
 20
579.5520000000001
 30
0.0
 11
1602.0
 21
582.5
 31
0.0
  0
LINE
  5
3621
330
1D9
100
AcDbEntity
  8
0
100
AcDbLine
 10
2074.997
 20
614.5
 30
0.0
 11
2074.997
 21
500.0
 31
0.0
  0
LINE
  5
3622
330
1D9
100
AcDbEntity
  8
0
100
AcDbLine
 10
1930.996999999999
 20
608.0
 30
0.0
 11
1930.996999999999
 21
500.0
 31
0.0
  0
LINE
  5
3623
330
1D9
100
AcDbEntity
  8
0
100
AcDbLine
 10
1831.0
 20
500.0
 30
0.0
 11
1831.0
 21
601.0
 31
0.0
  0
LINE
  5
3624
330
1D9
100
AcDbEntity
  8
0
100
AcDbLine
 10
1824.783
 20
601.0
 30
0.0
 11
1824.783
 21
500.0
 31
0.0
  0
LINE
  5
3625
330
1D9
100
AcDbEntity
  8
0
100
AcDbLine
 10
1930.996999999999
 20
392.0
 30
0.0
 11
2074.997
 21
392.0
 31
0.0
  0
LINE
  5
3626
330
1D9
100
AcDbEntity
  8
0
100
AcDbLine
 10
1930.996999999999
 20
417.4999999999998
 30
0.0
 11
1831.0
 21
417.4999999999998
 31
0.0
  0
LINE
  5
3627
330
1D9
100
AcDbEntity
  8
0
100
AcDbLine
 10
1831.0
 20
500.0
 30
0.0
 11
1831.0
 21
399.0
 31
0.0
  0
LINE
  5
3628
330
1D9
100
AcDbEntity
  8
0
100
AcDbLine
 10
1824.783
 20
399.0
 30
0.0
 11
1824.783
 21
500.0
 31
0.0
  0
LINE
  5
3629
330
1D9
100
AcDbEntity
  8
0
100
AcDbLine
 10
1824.783
 20
399.0
 30
0.0
 11
1831.0
 21
399.0
 31
0.0
  0
LINE
  5
362A
330
1D9
100
AcDbEntity
  8
0
100
AcDbLine
 10
1791.0
 20
525.0
 30
0.0
 11
1791.0
 21
475.0
 31
0.0
  0
LINE
  5
362B
330
1D9
100
AcDbEntity
  8
0
100
AcDbLine
 10
1930.996999999999
 20
392.0
 30
0.0
 11
1930.996999999999
 21
500.0
 31
0.0
  0
LINE
  5
362C
330
1D9
100
AcDbEntity
  8
0
100
AcDbLine
 10
2074.997
 20
385.5
 30
0.0
 11
2074.997
 21
500.0
 31
0.0
  0
LINE
  5
362D
330
1D9
100
AcDbEntity
  8
0
100
AcDbLine
 10
1930.996999999999
 20
608.0
 30
0.0
 11
2074.997
 21
608.0
 31
0.0
  0
LINE
  5
362E
330
1D9
100
AcDbEntity
  8
0
100
AcDbLine
 10
1930.996999999999
 20
582.5
 30
0.0
 11
1831.0
 21
582.5
 31
0.0
  0
LINE
  5
362F
330
1D9
100
AcDbEntity
  8
0
100
AcDbLine
 10
1824.783
 20
601.0
 30
0.0
 11
1831.0
 21
601.0
 31
0.0
  0
LINE
  5
3630
330
1D9
100
AcDbEntity
  8
0
100
AcDbLine
 10
947.0
 20
1751.955334987593
 30
0.0
 11
975.0
 21
1751.955334987593
 31
0.0
  0
LINE
  5
3631
330
1D9
100
AcDbEntity
  8
0
100
AcDbLine
 10
947.0
 20
1685.955334987593
 30
0.0
 11
975.0
 21
1685.955334987593
 31
0.0
  0
LINE
  5
3632
330
1D9
100
AcDbEntity
  8
0
100
AcDbLine
 10
1056.43
 20
1718.955334987593
 30
0.0
 11
947.0
 21
1718.955334987593
 31
0.0
  0
LINE
  5
3633
330
1D9
100
AcDbEntity
  8
0
100
AcDbLine
 10
947.0
 20
1685.955334987593
 30
0.0
 11
947.0
 21
1718.955334987593
 31
0.0
  0
LINE
  5
3634
330
1D9
100
AcDbEntity
  8
0
100
AcDbLine
 10
933.0
 20
1725.955334987593
 30
0.0
 11
933.0
 21
1684.955334987592
 31
0.0
  0
LINE
  5
3635
330
1D9
100
AcDbEntity
  8
0
100
AcDbLine
 10
895.0
 20
1725.955334987593
 30
0.0
 11
895.0
 21
1684.955334987592
 31
0.0
  0
LINE
  5
3636
330
1D9
100
AcDbEntity
  8
0
100
AcDbLine
 10
933.0
 20
1684.955334987592
 30
0.0
 11
895.0
 21
1684.955334987592
 31
0.0
  0
LINE
  5
3637
330
1D9
100
AcDbEntity
  8
0
100
AcDbLine
 10
947.0
 20
1687.955334987593
 30
0.0
 11
933.0
 21
1687.955334987593
 31
0.0
  0
LINE
  5
3638
330
1D9
100
AcDbEntity
  8
0
100
AcDbLine
 10
933.0
 20
1766.955334987593
 30
0.0
 11
895.0
 21
1766.955334987593
 31
0.0
  0
LINE
  5
3639
330
1D9
100
AcDbEntity
  8
0
100
AcDbLine
 10
895.0
 20
1725.955334987593
 30
0.0
 11
895.0
 21
1766.955334987593
 31
0.0
  0
LINE
  5
363A
330
1D9
100
AcDbEntity
  8
0
100
AcDbLine
 10
947.0
 20
1718.955334987593
 30
0.0
 11
947.0
 21
1751.955334987593
 31
0.0
  0
LINE
  5
363B
330
1D9
100
AcDbEntity
  8
0
100
AcDbLine
 10
947.0
 20
1749.955334987593
 30
0.0
 11
941.5900000000002
 21
1749.955334987593
 31
0.0
  0
LINE
  5
363C
330
1D9
100
AcDbEntity
  8
0
100
AcDbLine
 10
933.0
 20
1725.955334987593
 30
0.0
 11
947.0
 21
1718.955334987593
 31
0.0
  0
LINE
  5
363D
330
1D9
100
AcDbEntity
  8
0
100
AcDbLine
 10
941.5900000000002
 20
1749.955334987593
 30
0.0
 11
941.5900000000002
 21
1696.034334987593
 31
0.0
  0
LINE
  5
363E
330
1D9
100
AcDbEntity
  8
0
100
AcDbLine
 10
933.0
 20
1762.673334987593
 30
0.0
 11
941.5900000000002
 21
1749.955334987593
 31
0.0
  0
LINE
  5
363F
330
1D9
100
AcDbEntity
  8
0
100
AcDbLine
 10
933.0
 20
1725.955334987593
 30
0.0
 11
933.0
 21
1766.955334987593
 31
0.0
  0
LINE
  5
3640
330
1D9
100
AcDbEntity
  8
0
100
AcDbLine
 10
1019.0
 20
1750.955334987593
 30
0.0
 11
1045.0
 21
1750.955334987593
 31
0.0
  0
LINE
  5
3641
330
1D9
100
AcDbEntity
  8
0
100
AcDbLine
 10
1019.0
 20
1686.955334987592
 30
0.0
 11
1045.0
 21
1686.955334987592
 31
0.0
  0
LINE
  5
3642
330
1D9
100
AcDbEntity
  8
0
100
AcDbLine
 10
1020.0
 20
1748.955334987592
 30
0.0
 11
1045.0
 21
1748.955334987592
 31
0.0
  0
LINE
  5
3643
330
1D9
100
AcDbEntity
  8
0
100
AcDbLine
 10
1020.0
 20
1688.955334987593
 30
0.0
 11
1045.0
 21
1688.955334987593
 31
0.0
  0
LINE
  5
3644
330
1D9
100
AcDbEntity
  8
0
100
AcDbLine
 10
975.0
 20
1718.955334987593
 30
0.0
 11
975.0
 21
1685.955334987593
 31
0.0
  0
LINE
  5
3645
330
1D9
100
AcDbEntity
  8
0
100
AcDbLine
 10
1012.0
 20
1718.955334987593
 30
0.0
 11
1012.0
 21
1683.262334987593
 31
0.0
  0
LINE
  5
3646
330
1D9
100
AcDbEntity
  8
0
100
AcDbLine
 10
1020.0
 20
1718.955334987593
 30
0.0
 11
1020.0
 21
1688.955334987593
 31
0.0
  0
LINE
  5
3647
330
1D9
100
AcDbEntity
  8
0
100
AcDbLine
 10
1017.559999999998
 20
1749.515334987593
 30
0.0
 11
1017.559999999998
 21
1688.395334987593
 31
0.0
  0
LINE
  5
3648
330
1D9
100
AcDbEntity
  8
0
100
AcDbLine
 10
1019.0
 20
1686.955334987592
 30
0.0
 11
1019.0
 21
1750.955334987593
 31
0.0
  0
LINE
  5
3649
330
1D9
100
AcDbEntity
  8
0
100
AcDbLine
 10
976.33
 20
1690.284334987593
 30
0.0
 11
976.33
 21
1718.955334987593
 31
0.0
  0
LINE
  5
364A
330
1D9
100
AcDbEntity
  8
0
100
AcDbLine
 10
1007.77
 20
1755.744334987593
 30
0.0
 11
1007.77
 21
1682.166334987593
 31
0.0
  0
LINE
  5
364B
330
1D9
100
AcDbEntity
  8
0
100
AcDbLine
 10
1001.659999999999
 20
1756.437334987593
 30
0.0
 11
1001.659999999999
 21
1681.473334987592
 31
0.0
  0
ARC
  5
364C
330
1D9
100
AcDbEntity
  8
0
100
AcDbCircle
 10
1000.5
 20
1718.955334987593
 30
0.0
 40
37.5
100
AcDbArc
 50
231.2360000000143
 51
271.7680000000056
  0
LINE
  5
364D
330
1D9
100
AcDbEntity
  8
0
100
AcDbLine
 10
975.0
 20
1688.955334987593
 30
0.0
 11
975.6899999999998
 21
1689.642334987593
 31
0.0
  0
ARC
  5
364E
330
1D9
100
AcDbEntity
  8
0
100
AcDbCircle
 10
976.3999999999997
 20
1688.935334987593
 30
0.0
 40
1.0
100
AcDbArc
 50
51.23589999999197
 51
135.0000000000022
  0
ARC
  5
364F
330
1D9
100
AcDbEntity
  8
0
100
AcDbCircle
 10
1000.5
 20
1718.955334987593
 30
0.0
 40
37.5
100
AcDbArc
 50
281.1709999999876
 51
287.8580000000225
  0
LINE
  5
3650
330
1D9
100
AcDbEntity
  8
0
100
AcDbLine
 10
1017.559999999998
 20
1688.395334987593
 30
0.0
 11
1019.0
 21
1686.955334987592
 31
0.0
  0
ARC
  5
3651
330
1D9
100
AcDbEntity
  8
0
100
AcDbCircle
 10
1000.5
 20
1718.955334987593
 30
0.0
 40
35.0
100
AcDbArc
 50
289.1819999999801
 51
299.1729999999813
  0
ARC
  5
3652
330
1D9
100
AcDbEntity
  8
0
100
AcDbCircle
 10
1004.499999999999
 20
1683.681334987593
 30
0.0
 40
3.6
100
AcDbArc
 50
217.8349999999906
 51
335.103999999993
  0
ARC
  5
3653
330
1D9
100
AcDbEntity
  8
0
100
AcDbCircle
 10
1000.5
 20
1718.955334987593
 30
0.0
 40
37.5
100
AcDbArc
 50
88.23220000000878
 51
128.7639999999856
  0
ARC
  5
3654
330
1D9
100
AcDbEntity
  8
0
100
AcDbCircle
 10
976.3999999999997
 20
1748.975334987592
 30
0.0
 40
1.0
100
AcDbArc
 50
224.9999999999976
 51
308.7639999999856
  0
LINE
  5
3655
330
1D9
100
AcDbEntity
  8
0
100
AcDbLine
 10
975.0
 20
1718.955334987593
 30
0.0
 11
975.0
 21
1751.955334987593
 31
0.0
  0
LINE
  5
3656
330
1D9
100
AcDbEntity
  8
0
100
AcDbLine
 10
975.0
 20
1748.955334987592
 30
0.0
 11
975.6899999999998
 21
1748.268334987593
 31
0.0
  0
LINE
  5
3657
330
1D9
100
AcDbEntity
  8
0
100
AcDbLine
 10
976.33
 20
1747.626334987593
 30
0.0
 11
976.33
 21
1718.955334987593
 31
0.0
  0
ARC
  5
3658
330
1D9
100
AcDbEntity
  8
0
100
AcDbCircle
 10
1000.5
 20
1718.955334987593
 30
0.0
 40
37.5
100
AcDbArc
 50
72.14150000000127
 51
78.82850000000222
  0
LINE
  5
3659
330
1D9
100
AcDbEntity
  8
0
100
AcDbLine
 10
1017.559999999998
 20
1749.515334987593
 30
0.0
 11
1019.0
 21
1750.955334987593
 31
0.0
  0
LINE
  5
365A
330
1D9
100
AcDbEntity
  8
0
100
AcDbLine
 10
1012.0
 20
1718.955334987593
 30
0.0
 11
1012.0
 21
1754.648334987593
 31
0.0
  0
ARC
  5
365B
330
1D9
100
AcDbEntity
  8
0
100
AcDbCircle
 10
1000.5
 20
1718.955334987593
 30
0.0
 40
35.0
100
AcDbArc
 50
60.82740000001199
 51
70.81789999997728
  0
LINE
  5
365C
330
1D9
100
AcDbEntity
  8
0
100
AcDbLine
 10
1020.0
 20
1718.955334987593
 30
0.0
 11
1020.0
 21
1748.955334987592
 31
0.0
  0
LINE
  5
365D
330
1D9
100
AcDbEntity
  8
0
100
AcDbLine
 10
1000.5
 20
1718.955334987593
 30
0.0
 11
1000.5
 21
1733.955334987593
 31
0.0
  0
ARC
  5
365E
330
1D9
100
AcDbEntity
  8
0
100
AcDbCircle
 10
1004.499999999999
 20
1754.229334987591
 30
0.0
 40
3.6
100
AcDbArc
 50
24.89620000000525
 51
142.1650000000092
  0
LINE
  5
365F
330
1D9
100
AcDbEntity
  8
0
100
AcDbLine
 10
1000.5
 20
1718.955334987593
 30
0.0
 11
1000.5
 21
1703.955334987593
 31
0.0
  0
LINE
  5
3660
330
1D9
100
AcDbEntity
  8
0
100
AcDbLine
 10
1045.0
 20
1718.955334987593
 30
0.0
 11
1045.0
 21
1686.955334987592
 31
0.0
  0
LINE
  5
3661
330
1D9
100
AcDbEntity
  8
0
100
AcDbLine
 10
1045.0
 20
1718.955334987593
 30
0.0
 11
1045.0
 21
1750.955334987593
 31
0.0
  0
ARC
  5
3662
330
1D9
100
AcDbEntity
  8
0
100
AcDbCircle
 10
1792.0
 20
1722.455334987593
 30
0.0
 40
55.5
100
AcDbArc
 50
72.73740000001194
 51
120.1330000000135
  0
ARC
  5
3663
330
1D9
100
AcDbEntity
  8
0
100
AcDbCircle
 10
1792.0
 20
1722.455334987593
 30
0.0
 40
55.5
100
AcDbArc
 50
227.6239999999759
 51
287.2629999999953
  0
LINE
  5
3664
330
1D9
100
AcDbEntity
  8
0
100
AcDbLine
 10
1764.139999999999
 20
1770.455334987593
 30
0.0
 11
1754.59
 21
1681.452334987593
 31
0.0
  0
LINE
  5
3665
330
1D9
100
AcDbEntity
  8
0
100
AcDbLine
 10
1713.0
 20
1682.452334987593
 30
0.0
 11
1713.0
 21
1769.455334987593
 31
0.0
  0
LINE
  5
3666
330
1D9
100
AcDbEntity
  8
0
100
AcDbLine
 10
1754.59
 20
1681.452334987593
 30
0.0
 11
1714.0
 21
1681.452334987593
 31
0.0
  0
LINE
  5
3667
330
1D9
100
AcDbEntity
  8
0
100
AcDbLine
 10
1714.0
 20
1681.452334987593
 30
0.0
 11
1713.0
 21
1682.452334987593
 31
0.0
  0
LINE
  5
3668
330
1D9
100
AcDbEntity
  8
0
100
AcDbLine
 10
1764.139999999999
 20
1770.455334987593
 30
0.0
 11
1714.0
 21
1770.455334987593
 31
0.0
  0
LINE
  5
3669
330
1D9
100
AcDbEntity
  8
0
100
AcDbLine
 10
1697.899999999999
 20
1725.955334987593
 30
0.0
 11
1754.59
 21
1725.955334987593
 31
0.0
  0
LINE
  5
366A
330
1D9
100
AcDbEntity
  8
0
100
AcDbLine
 10
1714.0
 20
1770.455334987593
 30
0.0
 11
1713.0
 21
1769.455334987593
 31
0.0
  0
LINE
  5
366B
330
1D9
100
AcDbEntity
  8
0
100
AcDbLine
 10
1754.59
 20
1725.955334987593
 30
0.0
 11
1764.139999999999
 21
1722.455334987593
 31
0.0
  0
LINE
  5
366C
330
1D9
100
AcDbEntity
  8
0
100
AcDbLine
 10
1815.0
 20
1766.955334987593
 30
0.0
 11
1915.0
 21
1766.955334987593
 31
0.0
  0
LINE
  5
366D
330
1D9
100
AcDbEntity
  8
0
100
AcDbLine
 10
1815.0
 20
1677.952334987593
 30
0.0
 11
1915.0
 21
1677.952334987593
 31
0.0
  0
LINE
  5
366E
330
1D9
100
AcDbEntity
  8
0
100
AcDbLine
 10
1815.0
 20
1722.455334987593
 30
0.0
 11
1815.0
 21
1669.452334987592
 31
0.0
  0
LINE
  5
366F
330
1D9
100
AcDbEntity
  8
0
100
AcDbLine
 10
1808.469999999999
 20
1775.455334987593
 30
0.0
 11
1808.469999999999
 21
1669.452334987592
 31
0.0
  0
LINE
  5
3670
330
1D9
100
AcDbEntity
  8
0
100
AcDbLine
 10
1815.0
 20
1669.452334987592
 30
0.0
 11
1808.469999999999
 21
1669.452334987592
 31
0.0
  0
LINE
  5
3671
330
1D9
100
AcDbEntity
  8
0
100
AcDbLine
 10
1815.0
 20
1775.455334987593
 30
0.0
 11
1808.469999999999
 21
1775.455334987593
 31
0.0
  0
LINE
  5
3672
330
1D9
100
AcDbEntity
  8
0
100
AcDbLine
 10
1792.0
 20
1735.065334987593
 30
0.0
 11
1792.0
 21
1710.595334987593
 31
0.0
  0
LINE
  5
3673
330
1D9
100
AcDbEntity
  8
0
100
AcDbLine
 10
1815.0
 20
1722.455334987593
 30
0.0
 11
1815.0
 21
1775.455334987593
 31
0.0
  0
LINE
  5
3674
330
1D9
100
AcDbEntity
  8
0
100
AcDbLine
 10
1915.0
 20
1722.455334987593
 30
0.0
 11
1915.0
 21
1665.452334987593
 31
0.0
  0
LINE
  5
3675
330
1D9
100
AcDbEntity
  8
0
100
AcDbLine
 10
1915.0
 20
1722.455334987593
 30
0.0
 11
1915.0
 21
1779.455334987592
 31
0.0
  0
LINE
  5
372B
330
1D9
100
AcDbEntity
  8
0
100
AcDbLine
 10
3990.0
 20
2840.0
 30
0.0
 11
3990.0
 21
0.0
 31
0.0
  0
TEXT
  5
3730
330
1D9
100
AcDbEntity
  8
0
100
AcDbText
 10
3180.428263404293
 20
1012.512383790262
 30
0.0
 40
48.51116625310172
  1
呼び径：200
100
AcDbText
  0
TEXT
  5
3731
330
1D9
100
AcDbEntity
  8
0
100
AcDbText
 10
3022.141968043148
 20
939.839685983552
 30
0.0
 40
48.51116625310172
  1
品番：NF200-100VSU
100
AcDbText
  0
TEXT
  5
3732
330
1D9
100
AcDbEntity
  8
0
100
AcDbText
 10
3180.428263404293
 20
2236.557048802669
 30
0.0
 40
48.51116625310172
  1
呼び径：100
100
AcDbText
  0
TEXT
  5
3733
330
1D9
100
AcDbEntity
  8
0
100
AcDbText
 10
3022.141968043148
 20
2163.884350995957
 30
0.0
 40
48.51116625310172
  1
品番：NF100-100VSU
100
AcDbText
  0
LINE
  5
3734
330
1D9
100
AcDbEntity
  8
0
100
AcDbLine
 10
3263.496999999999
 20
366.5
 30
0.0
 11
3495.779999999999
 21
366.5
 31
0.0
  0
LINE
  5
3735
330
1D9
100
AcDbEntity
  8
0
100
AcDbLine
 10
3263.496999999999
 20
633.4999999999999
 30
0.0
 11
3434.923999999998
 21
633.4999999999999
 31
0.0
  0
LINE
  5
3736
330
1D9
100
AcDbEntity
  8
0
100
AcDbLine
 10
2829.699
 20
500.0
 30
0.0
 11
3431.496999999998
 21
500.0
 31
0.0
  0
LINE
  5
3737
330
1D9
100
AcDbEntity
  8
0
100
AcDbLine
 10
3263.0
 20
1795.955334987592
 30
0.0
 11
3426.5
 21
1795.955334987592
 31
0.0
  0
LINE
  5
3738
330
1D9
100
AcDbEntity
  8
0
100
AcDbLine
 10
3263.0
 20
1655.955334987593
 30
0.0
 11
3426.5
 21
1655.955334987593
 31
0.0
  0
LINE
  5
3739
330
1D9
100
AcDbEntity
  8
0
100
AcDbLine
 10
2963.449999999999
 20
1725.955334987593
 30
0.0
 11
3490.0
 21
1725.955334987593
 31
0.0
  0
LINE
  5
373B
330
1D9
100
AcDbEntity
  8
0
100
AcDbLine
 10
2687.0
 20
2450.0
 30
0.0
 11
2687.0
 21
0.0
 31
0.0
  0
ARC
  5
373C
330
1D9
100
AcDbEntity
  8
0
100
AcDbCircle
 10
2440.0
 20
476.0
 30
0.0
 40
106.4999999999999
100
AcDbArc
 50
230.77299999999
 51
288.4939999999774
  0
LINE
  5
373D
330
1D9
100
AcDbEntity
  8
0
100
AcDbLine
 10
2232.997
 20
476.0
 30
0.0
 11
2496.71
 21
476.0
 31
0.0
  0
LINE
  5
373E
330
1D9
100
AcDbEntity
  8
0
100
AcDbLine
 10
2391.0
 20
393.5
 30
0.0
 11
2480.0
 21
393.5
 31
0.0
  0
ARC
  5
373F
330
1D9
100
AcDbEntity
  8
0
100
AcDbCircle
 10
2440.0
 20
476.0
 30
0.0
 40
106.4999999999999
100
AcDbArc
 50
71.50600000002256
 51
129.2270000000098
  0
LINE
  5
3740
330
1D9
100
AcDbEntity
  8
0
100
AcDbLine
 10
2391.0
 20
558.4999999999999
 30
0.0
 11
2480.0
 21
558.4999999999999
 31
0.0
  0
LINE
  5
3741
330
1D9
100
AcDbEntity
  8
0
100
AcDbLine
 10
2196.997
 20
603.2130000000002
 30
0.0
 11
2219.243999999999
 21
560.5
 31
0.0
  0
LINE
  5
3742
330
1D9
100
AcDbEntity
  8
0
100
AcDbLine
 10
2196.997
 20
614.5
 30
0.0
 11
2196.997
 21
500.0
 31
0.0
  0
LINE
  5
3743
330
1D9
100
AcDbEntity
  8
0
100
AcDbLine
 10
2232.997
 20
565.0
 30
0.0
 11
2320.0
 21
565.0
 31
0.0
  0
LINE
  5
3744
330
1D9
100
AcDbEntity
  8
0
100
AcDbLine
 10
2232.997
 20
387.0
 30
0.0
 11
2320.0
 21
387.0
 31
0.0
  0
LINE
  5
3745
330
1D9
100
AcDbEntity
  8
0
100
AcDbLine
 10
2196.997
 20
385.5
 30
0.0
 11
2196.997
 21
500.0
 31
0.0
  0
LINE
  5
3746
330
1D9
100
AcDbEntity
  8
0
100
AcDbLine
 10
2232.997
 20
387.0
 30
0.0
 11
2232.997
 21
476.0
 31
0.0
  0
LINE
  5
3747
330
1D9
100
AcDbEntity
  8
0
100
AcDbLine
 10
2219.243999999999
 20
560.5
 30
0.0
 11
2219.243999999999
 21
415.5169999999998
 31
0.0
  0
LINE
  5
3748
330
1D9
100
AcDbEntity
  8
0
100
AcDbLine
 10
2196.997
 20
391.5
 30
0.0
 11
2232.997
 21
391.5
 31
0.0
  0
LINE
  5
3749
330
1D9
100
AcDbEntity
  8
0
100
AcDbLine
 10
2219.243999999999
 20
560.5
 30
0.0
 11
2232.997
 21
560.5
 31
0.0
  0
LINE
  5
374A
330
1D9
100
AcDbEntity
  8
0
100
AcDbLine
 10
2196.997
 20
500.0
 30
0.0
 11
2232.997
 21
476.0
 31
0.0
  0
LINE
  5
374B
330
1D9
100
AcDbEntity
  8
0
100
AcDbLine
 10
2232.997
 20
565.0
 30
0.0
 11
2232.997
 21
476.0
 31
0.0
  0
LINE
  5
374C
330
1D9
100
AcDbEntity
  8
0
100
AcDbLine
 10
2372.649999999999
 20
558.4999999999999
 30
0.0
 11
2320.0
 21
558.4999999999999
 31
0.0
  0
LINE
  5
374D
330
1D9
100
AcDbEntity
  8
0
100
AcDbLine
 10
2372.649999999999
 20
393.5
 30
0.0
 11
2320.0
 21
393.5
 31
0.0
  0
LINE
  5
374E
330
1D9
100
AcDbEntity
  8
0
100
AcDbLine
 10
2320.0
 20
387.0
 30
0.0
 11
2320.0
 21
476.0
 31
0.0
  0
LINE
  5
374F
330
1D9
100
AcDbEntity
  8
0
100
AcDbLine
 10
2320.0
 20
565.0
 30
0.0
 11
2320.0
 21
476.0
 31
0.0
  0
LINE
  5
3750
330
1D9
100
AcDbEntity
  8
0
100
AcDbLine
 10
2372.649999999999
 20
558.4999999999999
 30
0.0
 11
2372.649999999999
 21
393.5
 31
0.0
  0
LINE
  5
3751
330
1D9
100
AcDbEntity
  8
0
100
AcDbLine
 10
2391.0
 20
558.4999999999999
 30
0.0
 11
2391.0
 21
393.5
 31
0.0
  0
LINE
  5
3752
330
1D9
100
AcDbEntity
  8
0
100
AcDbLine
 10
2480.0
 20
476.0
 30
0.0
 11
2480.0
 21
577.0
 31
0.0
  0
LINE
  5
3753
330
1D9
100
AcDbEntity
  8
0
100
AcDbLine
 10
2473.779999999999
 20
577.0
 30
0.0
 11
2473.779999999999
 21
375.0
 31
0.0
  0
LINE
  5
3754
330
1D9
100
AcDbEntity
  8
0
100
AcDbLine
 10
2440.0
 20
501.0
 30
0.0
 11
2440.0
 21
451.0
 31
0.0
  0
LINE
  5
3755
330
1D9
100
AcDbEntity
  8
0
100
AcDbLine
 10
2480.0
 20
476.0
 30
0.0
 11
2480.0
 21
375.0
 31
0.0
  0
LINE
  5
3756
330
1D9
100
AcDbEntity
  8
0
100
AcDbLine
 10
2473.779999999999
 20
375.0
 30
0.0
 11
2480.0
 21
375.0
 31
0.0
  0
LINE
  5
3757
330
1D9
100
AcDbEntity
  8
0
100
AcDbLine
 10
2473.779999999999
 20
577.0
 30
0.0
 11
2480.0
 21
577.0
 31
0.0
  0
ARC
  5
3758
330
1D9
100
AcDbEntity
  8
0
100
AcDbCircle
 10
3100.5
 20
500.0
 30
0.0
 40
137.7499999999999
100
AcDbArc
 50
231.6309999999909
 51
288.6720000000149
  0
ARC
  5
3759
330
1D9
100
AcDbEntity
  8
0
100
AcDbCircle
 10
3100.5
 20
500.0
 30
0.0
 40
137.7499999999999
100
AcDbArc
 50
71.32830000000318
 51
128.369000000009
  0
LINE
  5
375A
330
1D9
100
AcDbEntity
  8
0
100
AcDbLine
 10
2867.5
 20
608.0
 30
0.0
 11
2867.5
 21
500.0
 31
0.0
  0
LINE
  5
375B
330
1D9
100
AcDbEntity
  8
0
100
AcDbLine
 10
2855.5
 20
500.0
 30
0.0
 11
2855.5
 21
605.0
 31
0.0
  0
LINE
  5
375C
330
1D9
100
AcDbEntity
  8
0
100
AcDbLine
 10
3014.994999999998
 20
608.0
 30
0.0
 11
3014.994999999998
 21
500.0
 31
0.0
  0
LINE
  5
375D
330
1D9
100
AcDbEntity
  8
0
100
AcDbLine
 10
2867.5
 20
392.0
 30
0.0
 11
3014.994999999998
 21
392.0
 31
0.0
  0
LINE
  5
375E
330
1D9
100
AcDbEntity
  8
0
100
AcDbLine
 10
2867.5
 20
392.0
 30
0.0
 11
2867.5
 21
500.0
 31
0.0
  0
LINE
  5
375F
330
1D9
100
AcDbEntity
  8
0
100
AcDbLine
 10
2855.5
 20
500.0
 30
0.0
 11
2855.5
 21
395.0
 31
0.0
  0
LINE
  5
3760
330
1D9
100
AcDbEntity
  8
0
100
AcDbLine
 10
2855.5
 20
395.0
 30
0.0
 11
2867.5
 21
392.0
 31
0.0
  0
LINE
  5
3761
330
1D9
100
AcDbEntity
  8
0
100
AcDbLine
 10
3014.994999999998
 20
392.0
 30
0.0
 11
3014.994999999998
 21
500.0
 31
0.0
  0
LINE
  5
3762
330
1D9
100
AcDbEntity
  8
0
100
AcDbLine
 10
2867.5
 20
608.0
 30
0.0
 11
3014.994999999998
 21
608.0
 31
0.0
  0
LINE
  5
3763
330
1D9
100
AcDbEntity
  8
0
100
AcDbLine
 10
2855.5
 20
605.0
 30
0.0
 11
2867.5
 21
608.0
 31
0.0
  0
LINE
  5
3764
330
1D9
100
AcDbEntity
  8
0
100
AcDbLine
 10
3144.6
 20
630.4999999999998
 30
0.0
 11
3144.6
 21
500.0
 31
0.0
  0
LINE
  5
3765
330
1D9
100
AcDbEntity
  8
0
100
AcDbLine
 10
3251.496999999999
 20
625.6999999999997
 30
0.0
 11
3251.496999999999
 21
500.0
 31
0.0
  0
LINE
  5
3766
330
1D9
100
AcDbEntity
  8
0
100
AcDbLine
 10
3155.499999999998
 20
630.4999999999998
 30
0.0
 11
3155.499999999998
 21
500.0
 31
0.0
  0
LINE
  5
3767
330
1D9
100
AcDbEntity
  8
0
100
AcDbLine
 10
3155.499999999998
 20
392.0
 30
0.0
 11
3251.496999999999
 21
392.0
 31
0.0
  0
LINE
  5
3768
330
1D9
100
AcDbEntity
  8
0
100
AcDbLine
 10
3144.6
 20
369.5
 30
0.0
 11
3144.6
 21
500.0
 31
0.0
  0
LINE
  5
3769
330
1D9
100
AcDbEntity
  8
0
100
AcDbLine
 10
3155.499999999998
 20
369.5
 30
0.0
 11
3155.499999999998
 21
500.0
 31
0.0
  0
LINE
  5
376A
330
1D9
100
AcDbEntity
  8
0
100
AcDbLine
 10
3144.6
 20
369.5
 30
0.0
 11
3155.499999999998
 21
369.5
 31
0.0
  0
LINE
  5
376B
330
1D9
100
AcDbEntity
  8
0
100
AcDbLine
 10
3100.5
 20
525.0
 30
0.0
 11
3100.5
 21
475.0
 31
0.0
  0
LINE
  5
376C
330
1D9
100
AcDbEntity
  8
0
100
AcDbLine
 10
3251.496999999999
 20
369.5
 30
0.0
 11
3263.496999999999
 21
366.5
 31
0.0
  0
LINE
  5
376D
330
1D9
100
AcDbEntity
  8
0
100
AcDbLine
 10
3251.496999999999
 20
374.3000000000001
 30
0.0
 11
3251.496999999999
 21
500.0
 31
0.0
  0
LINE
  5
376E
330
1D9
100
AcDbEntity
  8
0
100
AcDbLine
 10
3251.496999999999
 20
369.5
 30
0.0
 11
3251.496999999999
 21
374.3000000000001
 31
0.0
  0
LINE
  5
376F
330
1D9
100
AcDbEntity
  8
0
100
AcDbLine
 10
3155.499999999998
 20
608.0
 30
0.0
 11
3251.496999999999
 21
608.0
 31
0.0
  0
LINE
  5
3770
330
1D9
100
AcDbEntity
  8
0
100
AcDbLine
 10
3144.6
 20
630.4999999999998
 30
0.0
 11
3155.499999999998
 21
630.4999999999998
 31
0.0
  0
LINE
  5
3771
330
1D9
100
AcDbEntity
  8
0
100
AcDbLine
 10
3251.496999999999
 20
630.4999999999998
 30
0.0
 11
3251.496999999999
 21
625.6999999999997
 31
0.0
  0
LINE
  5
3772
330
1D9
100
AcDbEntity
  8
0
100
AcDbLine
 10
3251.496999999999
 20
630.4999999999998
 30
0.0
 11
3263.496999999999
 21
633.4999999999999
 31
0.0
  0
LINE
  5
3773
330
1D9
100
AcDbEntity
  8
0
100
AcDbLine
 10
2246.0
 20
1758.955334987593
 30
0.0
 11
2296.0
 21
1758.955334987593
 31
0.0
  0
LINE
  5
3774
330
1D9
100
AcDbEntity
  8
0
100
AcDbLine
 10
2246.0
 20
1661.952334987593
 30
0.0
 11
2296.0
 21
1661.952334987593
 31
0.0
  0
LINE
  5
3775
330
1D9
100
AcDbEntity
  8
0
100
AcDbLine
 10
2246.0
 20
1710.455334987593
 30
0.0
 11
2296.0
 21
1710.455334987593
 31
0.0
  0
LINE
  5
3776
330
1D9
100
AcDbEntity
  8
0
100
AcDbLine
 10
2171.0
 20
1783.955334987593
 30
0.0
 11
2221.0
 21
1783.955334987593
 31
0.0
  0
LINE
  5
3777
330
1D9
100
AcDbEntity
  8
0
100
AcDbLine
 10
2171.0
 20
1660.952334987593
 30
0.0
 11
2221.0
 21
1660.952334987593
 31
0.0
  0
LINE
  5
3778
330
1D9
100
AcDbEntity
  8
0
100
AcDbLine
 10
2171.0
 20
1722.455334987593
 30
0.0
 11
2171.0
 21
1660.952334987593
 31
0.0
  0
LINE
  5
3779
330
1D9
100
AcDbEntity
  8
0
100
AcDbLine
 10
2171.0
 20
1722.455334987593
 30
0.0
 11
2171.0
 21
1783.955334987593
 31
0.0
  0
LINE
  5
377A
330
1D9
100
AcDbEntity
  8
0
100
AcDbLine
 10
2221.0
 20
1722.455334987593
 30
0.0
 11
2221.0
 21
1660.952334987593
 31
0.0
  0
LINE
  5
377B
330
1D9
100
AcDbEntity
  8
0
100
AcDbLine
 10
2246.0
 20
1710.455334987593
 30
0.0
 11
2246.0
 21
1661.952334987593
 31
0.0
  0
LINE
  5
377C
330
1D9
100
AcDbEntity
  8
0
100
AcDbLine
 10
2236.069999999999
 20
1756.955334987593
 30
0.0
 11
2236.069999999999
 21
1676.309334987593
 31
0.0
  0
LINE
  5
377D
330
1D9
100
AcDbEntity
  8
0
100
AcDbLine
 10
2246.0
 20
1663.952334987593
 30
0.0
 11
2221.0
 21
1663.952334987593
 31
0.0
  0
LINE
  5
377E
330
1D9
100
AcDbEntity
  8
0
100
AcDbLine
 10
2221.0
 20
1777.955334987592
 30
0.0
 11
2236.069999999999
 21
1756.955334987593
 31
0.0
  0
LINE
  5
377F
330
1D9
100
AcDbEntity
  8
0
100
AcDbLine
 10
2221.0
 20
1722.455334987593
 30
0.0
 11
2246.0
 21
1710.455334987593
 31
0.0
  0
LINE
  5
3780
330
1D9
100
AcDbEntity
  8
0
100
AcDbLine
 10
2221.0
 20
1722.455334987593
 30
0.0
 11
2221.0
 21
1783.955334987593
 31
0.0
  0
LINE
  5
3781
330
1D9
100
AcDbEntity
  8
0
100
AcDbLine
 10
2246.0
 20
1756.955334987593
 30
0.0
 11
2236.069999999999
 21
1756.955334987593
 31
0.0
  0
LINE
  5
3782
330
1D9
100
AcDbEntity
  8
0
100
AcDbLine
 10
2246.0
 20
1710.455334987593
 30
0.0
 11
2246.0
 21
1758.955334987593
 31
0.0
  0
ARC
  5
3783
330
1D9
100
AcDbEntity
  8
0
100
AcDbCircle
 10
2335.0
 20
1706.955334987593
 30
0.0
 40
55.5
100
AcDbArc
 50
72.73740000001194
 51
120.1330000000135
  0
LINE
  5
3784
330
1D9
100
AcDbEntity
  8
0
100
AcDbLine
 10
2358.0
 20
1751.455334987593
 30
0.0
 11
2313.0
 21
1751.455334987593
 31
0.0
  0
ARC
  5
3785
330
1D9
100
AcDbEntity
  8
0
100
AcDbCircle
 10
2335.0
 20
1706.955334987593
 30
0.0
 40
55.5
100
AcDbArc
 50
227.6239999999759
 51
287.2629999999953
  0
LINE
  5
3786
330
1D9
100
AcDbEntity
  8
0
100
AcDbLine
 10
2313.0
 20
1706.955334987593
 30
0.0
 11
2371.92
 21
1706.955334987593
 31
0.0
  0
LINE
  5
3787
330
1D9
100
AcDbEntity
  8
0
100
AcDbLine
 10
2358.0
 20
1662.452334987593
 30
0.0
 11
2313.0
 21
1662.452334987593
 31
0.0
  0
LINE
  5
3788
330
1D9
100
AcDbEntity
  8
0
100
AcDbLine
 10
2313.0
 20
1706.955334987593
 30
0.0
 11
2313.0
 21
1662.452334987593
 31
0.0
  0
LINE
  5
3789
330
1D9
100
AcDbEntity
  8
0
100
AcDbLine
 10
2296.0
 20
1710.455334987593
 30
0.0
 11
2296.0
 21
1661.952334987593
 31
0.0
  0
LINE
  5
378A
330
1D9
100
AcDbEntity
  8
0
100
AcDbLine
 10
2297.59
 20
1665.952334987593
 30
0.0
 11
2307.139999999999
 21
1754.955334987593
 31
0.0
  0
LINE
  5
378B
330
1D9
100
AcDbEntity
  8
0
100
AcDbLine
 10
2297.59
 20
1665.952334987593
 30
0.0
 11
2296.0
 21
1665.952334987593
 31
0.0
  0
LINE
  5
378C
330
1D9
100
AcDbEntity
  8
0
100
AcDbLine
 10
2307.139999999999
 20
1754.955334987593
 30
0.0
 11
2296.0
 21
1754.955334987593
 31
0.0
  0
LINE
  5
378D
330
1D9
100
AcDbEntity
  8
0
100
AcDbLine
 10
2295.219999999999
 20
1710.455334987593
 30
0.0
 11
2313.0
 21
1706.955334987593
 31
0.0
  0
LINE
  5
378E
330
1D9
100
AcDbEntity
  8
0
100
AcDbLine
 10
2296.0
 20
1710.455334987593
 30
0.0
 11
2296.0
 21
1758.955334987593
 31
0.0
  0
LINE
  5
378F
330
1D9
100
AcDbEntity
  8
0
100
AcDbLine
 10
2335.0
 20
1719.565334987593
 30
0.0
 11
2335.0
 21
1695.100334987593
 31
0.0
  0
LINE
  5
3790
330
1D9
100
AcDbEntity
  8
0
100
AcDbLine
 10
2313.0
 20
1706.955334987593
 30
0.0
 11
2313.0
 21
1751.455334987593
 31
0.0
  0
LINE
  5
3791
330
1D9
100
AcDbEntity
  8
0
100
AcDbLine
 10
2358.0
 20
1706.955334987593
 30
0.0
 11
2358.0
 21
1653.952334987593
 31
0.0
  0
LINE
  5
3792
330
1D9
100
AcDbEntity
  8
0
100
AcDbLine
 10
2351.469999999999
 20
1759.955334987592
 30
0.0
 11
2351.469999999999
 21
1653.952334987593
 31
0.0
  0
LINE
  5
3793
330
1D9
100
AcDbEntity
  8
0
100
AcDbLine
 10
2358.0
 20
1653.952334987593
 30
0.0
 11
2351.469999999999
 21
1653.952334987593
 31
0.0
  0
LINE
  5
3794
330
1D9
100
AcDbEntity
  8
0
100
AcDbLine
 10
2358.0
 20
1759.955334987592
 30
0.0
 11
2351.469999999999
 21
1759.955334987592
 31
0.0
  0
LINE
  5
3795
330
1D9
100
AcDbEntity
  8
0
100
AcDbLine
 10
2358.0
 20
1706.955334987593
 30
0.0
 11
2358.0
 21
1759.955334987592
 31
0.0
  0
ARC
  5
3796
330
1D9
100
AcDbEntity
  8
0
100
AcDbCircle
 10
3128.0
 20
1725.955334987593
 30
0.0
 40
76.5
100
AcDbArc
 50
69.70319999999496
 51
131.8319999999933
  0
LINE
  5
3797
330
1D9
100
AcDbEntity
  8
0
100
AcDbLine
 10
3154.54
 20
1797.705334987593
 30
0.0
 11
3154.54
 21
1725.955334987593
 31
0.0
  0
LINE
  5
3798
330
1D9
100
AcDbEntity
  8
0
100
AcDbLine
 10
3163.0
 20
1725.955334987593
 30
0.0
 11
3163.0
 21
1797.705334987593
 31
0.0
  0
ARC
  5
3799
330
1D9
100
AcDbEntity
  8
0
100
AcDbCircle
 10
3128.0
 20
1725.955334987593
 30
0.0
 40
76.5
100
AcDbArc
 50
228.1680000000064
 51
290.2969999999971
  0
LINE
  5
379A
330
1D9
100
AcDbEntity
  8
0
100
AcDbLine
 10
3076.979999999998
 20
1782.955334987593
 30
0.0
 11
2993.0
 21
1782.955334987593
 31
0.0
  0
LINE
  5
379B
330
1D9
100
AcDbEntity
  8
0
100
AcDbLine
 10
3076.979999999998
 20
1668.955334987592
 30
0.0
 11
2993.0
 21
1668.955334987592
 31
0.0
  0
LINE
  5
379C
330
1D9
100
AcDbEntity
  8
0
100
AcDbLine
 10
2986.0
 20
1670.825334987593
 30
0.0
 11
2986.0
 21
1725.955334987593
 31
0.0
  0
LINE
  5
379D
330
1D9
100
AcDbEntity
  8
0
100
AcDbLine
 10
2993.0
 20
1668.955334987592
 30
0.0
 11
2993.0
 21
1725.955334987593
 31
0.0
  0
LINE
  5
379E
330
1D9
100
AcDbEntity
  8
0
100
AcDbLine
 10
2986.0
 20
1670.825334987593
 30
0.0
 11
2993.0
 21
1668.955334987592
 31
0.0
  0
LINE
  5
379F
330
1D9
100
AcDbEntity
  8
0
100
AcDbLine
 10
2986.0
 20
1781.075334987593
 30
0.0
 11
2993.0
 21
1782.955334987593
 31
0.0
  0
LINE
  5
37A0
330
1D9
100
AcDbEntity
  8
0
100
AcDbLine
 10
2986.0
 20
1781.075334987593
 30
0.0
 11
2986.0
 21
1725.955334987593
 31
0.0
  0
LINE
  5
37A1
330
1D9
100
AcDbEntity
  8
0
100
AcDbLine
 10
2993.0
 20
1782.955334987593
 30
0.0
 11
2993.0
 21
1725.955334987593
 31
0.0
  0
LINE
  5
37A2
330
1D9
100
AcDbEntity
  8
0
100
AcDbLine
 10
3076.979999999998
 20
1668.955334987592
 30
0.0
 11
3076.979999999998
 21
1725.955334987593
 31
0.0
  0
LINE
  5
37A3
330
1D9
100
AcDbEntity
  8
0
100
AcDbLine
 10
3076.979999999998
 20
1782.955334987593
 30
0.0
 11
3076.979999999998
 21
1725.955334987593
 31
0.0
  0
LINE
  5
37A4
330
1D9
100
AcDbEntity
  8
0
100
AcDbLine
 10
3163.0
 20
1782.955334987593
 30
0.0
 11
3263.0
 21
1782.955334987593
 31
0.0
  0
LINE
  5
37A5
330
1D9
100
AcDbEntity
  8
0
100
AcDbLine
 10
3163.0
 20
1668.955334987592
 30
0.0
 11
3263.0
 21
1668.955334987592
 31
0.0
  0
LINE
  5
37A6
330
1D9
100
AcDbEntity
  8
0
100
AcDbLine
 10
3154.54
 20
1654.205334987593
 30
0.0
 11
3154.54
 21
1725.955334987593
 31
0.0
  0
LINE
  5
37A7
330
1D9
100
AcDbEntity
  8
0
100
AcDbLine
 10
3163.0
 20
1725.955334987593
 30
0.0
 11
3163.0
 21
1654.205334987593
 31
0.0
  0
LINE
  5
37A8
330
1D9
100
AcDbEntity
  8
0
100
AcDbLine
 10
3163.0
 20
1654.205334987593
 30
0.0
 11
3154.54
 21
1654.205334987593
 31
0.0
  0
LINE
  5
37A9
330
1D9
100
AcDbEntity
  8
0
100
AcDbLine
 10
3128.0
 20
1750.955334987593
 30
0.0
 11
3128.0
 21
1700.955334987592
 31
0.0
  0
LINE
  5
37AA
330
1D9
100
AcDbEntity
  8
0
100
AcDbLine
 10
3263.0
 20
1725.955334987593
 30
0.0
 11
3263.0
 21
1655.955334987593
 31
0.0
  0
LINE
  5
37AB
330
1D9
100
AcDbEntity
  8
0
100
AcDbLine
 10
3263.0
 20
1725.955334987593
 30
0.0
 11
3263.0
 21
1795.955334987592
 31
0.0
  0
TEXT
  5
37AC
330
1D9
100
AcDbEntity
  8
0
100
AcDbText
 10
2859.582929673814
 20
2512.619782322264
 30
0.0
 40
48.51116625310172
  1
接合方式：接着接合
100
AcDbText
  0
LINE
  5
37AD
330
1D9
100
AcDbEntity
  8
0
100
AcDbLine
 10
3163.0
 20
1797.705334987593
 30
0.0
 11
3154.54
 21
1797.705334987593
 31
0.0
  0
LINE
  5
37AE
330
1D9
100
AcDbEntity
  8
0
100
AcDbLine
 10
3705.5
 20
583.4999999999999
 30
0.0
 11
3821.5
 21
583.4999999999999
 31
0.0
  0
LINE
  5
37AF
330
1D9
100
AcDbEntity
  8
0
100
AcDbLine
 10
3705.5
 20
367.5
 30
0.0
 11
3821.5
 21
367.5
 31
0.0
  0
LINE
  5
37B0
330
1D9
100
AcDbEntity
  8
0
100
AcDbLine
 10
3495.779999999999
 20
475.4999999999998
 30
0.0
 11
3855.85
 21
475.4999999999998
 31
0.0
  0
ARC
  5
37B1
330
1D9
100
AcDbEntity
  8
0
100
AcDbCircle
 10
3766.5
 20
475.4999999999998
 30
0.0
 40
137.7499999999999
100
AcDbArc
 50
231.6309999999909
 51
288.6720000000149
  0
ARC
  5
37B2
330
1D9
100
AcDbEntity
  8
0
100
AcDbCircle
 10
3766.5
 20
475.4999999999998
 30
0.0
 40
137.7499999999999
100
AcDbArc
 50
71.32830000000318
 51
128.369000000009
  0
LINE
  5
37B3
330
1D9
100
AcDbEntity
  8
0
100
AcDbLine
 10
3705.5
 20
583.4999999999999
 30
0.0
 11
3705.5
 21
475.4999999999998
 31
0.0
  0
LINE
  5
37B4
330
1D9
100
AcDbEntity
  8
0
100
AcDbLine
 10
3479.923999999999
 20
584.4999999999998
 30
0.0
 11
3479.923999999999
 21
384.3000000000001
 31
0.0
  0
LINE
  5
37B5
330
1D9
100
AcDbEntity
  8
0
100
AcDbLine
 10
3495.779999999999
 20
366.5
 30
0.0
 11
3495.779999999999
 21
584.4999999999998
 31
0.0
  0
LINE
  5
37B6
330
1D9
100
AcDbEntity
  8
0
100
AcDbLine
 10
3520.68
 20
590.8500000000002
 30
0.0
 11
3520.68
 21
360.1500000000005
 31
0.0
  0
LINE
  5
37B7
330
1D9
100
AcDbEntity
  8
0
100
AcDbLine
 10
3680.989999999999
 20
583.4999999999999
 30
0.0
 11
3680.989999999999
 21
367.5
 31
0.0
  0
LINE
  5
37B8
330
1D9
100
AcDbEntity
  8
0
100
AcDbLine
 10
3601.5
 20
590.8500000000002
 30
0.0
 11
3601.5
 21
360.1500000000005
 31
0.0
  0
LINE
  5
37B9
330
1D9
100
AcDbEntity
  8
0
100
AcDbLine
 10
3431.496999999998
 20
625.6999999999997
 30
0.0
 11
3431.496999999998
 21
384.3000000000001
 31
0.0
  0
LINE
  5
37BA
330
1D9
100
AcDbEntity
  8
0
100
AcDbLine
 10
3520.68
 20
360.1500000000005
 30
0.0
 11
3601.5
 21
360.1500000000005
 31
0.0
  0
LINE
  5
37BB
330
1D9
100
AcDbEntity
  8
0
100
AcDbLine
 10
3495.779999999999
 20
366.5
 30
0.0
 11
3520.68
 21
360.1500000000005
 31
0.0
  0
LINE
  5
37BC
330
1D9
100
AcDbEntity
  8
0
100
AcDbLine
 10
3431.496999999998
 20
500.0
 30
0.0
 11
3495.779999999999
 21
475.4999999999998
 31
0.0
  0
LINE
  5
37BD
330
1D9
100
AcDbEntity
  8
0
100
AcDbLine
 10
3601.5
 20
367.5
 30
0.0
 11
3680.989999999999
 21
367.5
 31
0.0
  0
LINE
  5
37BE
330
1D9
100
AcDbEntity
  8
0
100
AcDbLine
 10
3705.5
 20
367.5
 30
0.0
 11
3705.5
 21
475.4999999999998
 31
0.0
  0
LINE
  5
37BF
330
1D9
100
AcDbEntity
  8
0
100
AcDbLine
 10
3520.68
 20
590.8500000000002
 30
0.0
 11
3601.5
 21
590.8500000000002
 31
0.0
  0
LINE
  5
37C0
330
1D9
100
AcDbEntity
  8
0
100
AcDbLine
 10
3479.923999999999
 20
584.4999999999998
 30
0.0
 11
3495.779999999999
 21
584.4999999999998
 31
0.0
  0
LINE
  5
37C1
330
1D9
100
AcDbEntity
  8
0
100
AcDbLine
 10
3434.923999999998
 20
633.4999999999999
 30
0.0
 11
3479.923999999999
 21
584.4999999999998
 31
0.0
  0
LINE
  5
37C2
330
1D9
100
AcDbEntity
  8
0
100
AcDbLine
 10
3495.779999999999
 20
584.4999999999998
 30
0.0
 11
3520.68
 21
590.8500000000002
 31
0.0
  0
LINE
  5
37C3
330
1D9
100
AcDbEntity
  8
0
100
AcDbLine
 10
3601.5
 20
583.4999999999999
 30
0.0
 11
3680.989999999999
 21
583.4999999999999
 31
0.0
  0
LINE
  5
37C4
330
1D9
100
AcDbEntity
  8
0
100
AcDbLine
 10
3810.6
 20
345.0
 30
0.0
 11
3810.6
 21
606.0
 31
0.0
  0
LINE
  5
37C5
330
1D9
100
AcDbEntity
  8
0
100
AcDbLine
 10
3821.5
 20
606.0
 30
0.0
 11
3821.5
 21
475.4999999999998
 31
0.0
  0
LINE
  5
37C6
330
1D9
100
AcDbEntity
  8
0
100
AcDbLine
 10
3821.5
 20
345.0
 30
0.0
 11
3821.5
 21
475.4999999999998
 31
0.0
  0
LINE
  5
37C7
330
1D9
100
AcDbEntity
  8
0
100
AcDbLine
 10
3810.6
 20
345.0
 30
0.0
 11
3821.5
 21
345.0
 31
0.0
  0
LINE
  5
37C8
330
1D9
100
AcDbEntity
  8
0
100
AcDbLine
 10
3766.5
 20
500.4999999999998
 30
0.0
 11
3766.5
 21
450.4999999999998
 31
0.0
  0
LINE
  5
37C9
330
1D9
100
AcDbEntity
  8
0
100
AcDbLine
 10
3810.6
 20
606.0
 30
0.0
 11
3821.5
 21
606.0
 31
0.0
  0
ARC
  5
37CA
330
1D9
100
AcDbEntity
  8
0
100
AcDbCircle
 10
3656.0
 20
1713.955334987593
 30
0.0
 40
76.5
100
AcDbArc
 50
69.70319999999496
 51
131.8319999999933
  0
LINE
  5
37CB
330
1D9
100
AcDbEntity
  8
0
100
AcDbLine
 10
3426.5
 20
1801.455334987593
 30
0.0
 11
3426.5
 21
1725.955334987593
 31
0.0
  0
LINE
  5
37CC
330
1D9
100
AcDbEntity
  8
0
100
AcDbLine
 10
3490.0
 20
1801.455334987593
 30
0.0
 11
3490.0
 21
1725.955334987593
 31
0.0
  0
LINE
  5
37CD
330
1D9
100
AcDbEntity
  8
0
100
AcDbLine
 10
3604.979999999999
 20
1770.955334987593
 30
0.0
 11
3571.5
 21
1770.955334987593
 31
0.0
  0
LINE
  5
37CE
330
1D9
100
AcDbEntity
  8
0
100
AcDbLine
 10
3604.979999999999
 20
1656.955334987593
 30
0.0
 11
3571.5
 21
1656.955334987593
 31
0.0
  0
LINE
  5
37CF
330
1D9
100
AcDbEntity
  8
0
100
AcDbLine
 10
3508.0
 20
1713.955334987593
 30
0.0
 11
3719.82
 21
1713.955334987593
 31
0.0
  0
LINE
  5
37D0
330
1D9
100
AcDbEntity
  8
0
100
AcDbLine
 10
3490.0
 20
1793.545334987593
 30
0.0
 11
3502.360000000001
 21
1773.455334987593
 31
0.0
  0
LINE
  5
37D1
330
1D9
100
AcDbEntity
  8
0
100
AcDbLine
 10
3490.0
 20
1725.955334987593
 30
0.0
 11
3508.0
 21
1713.955334987593
 31
0.0
  0
LINE
  5
37D2
330
1D9
100
AcDbEntity
  8
0
100
AcDbLine
 10
3508.0
 20
1654.455334987592
 30
0.0
 11
3490.0
 21
1654.455334987592
 31
0.0
  0
LINE
  5
37D3
330
1D9
100
AcDbEntity
  8
0
100
AcDbLine
 10
3490.0
 20
1650.455334987593
 30
0.0
 11
3490.0
 21
1725.955334987593
 31
0.0
  0
LINE
  5
37D4
330
1D9
100
AcDbEntity
  8
0
100
AcDbLine
 10
3426.5
 20
1650.455334987593
 30
0.0
 11
3426.5
 21
1725.955334987593
 31
0.0
  0
LINE
  5
37D5
330
1D9
100
AcDbEntity
  8
0
100
AcDbLine
 10
3426.5
 20
1650.455334987593
 30
0.0
 11
3490.0
 21
1650.455334987593
 31
0.0
  0
LINE
  5
37D6
330
1D9
100
AcDbEntity
  8
0
100
AcDbLine
 10
3571.5
 20
1651.955334987593
 30
0.0
 11
3571.5
 21
1713.955334987593
 31
0.0
  0
LINE
  5
37D7
330
1D9
100
AcDbEntity
  8
0
100
AcDbLine
 10
3508.0
 20
1651.955334987593
 30
0.0
 11
3508.0
 21
1713.955334987593
 31
0.0
  0
LINE
  5
37D8
330
1D9
100
AcDbEntity
  8
0
100
AcDbLine
 10
3502.360000000001
 20
1773.455334987593
 30
0.0
 11
3502.360000000001
 21
1665.995334987593
 31
0.0
  0
LINE
  5
37D9
330
1D9
100
AcDbEntity
  8
0
100
AcDbLine
 10
3508.0
 20
1651.955334987593
 30
0.0
 11
3571.5
 21
1651.955334987593
 31
0.0
  0
LINE
  5
37DA
330
1D9
100
AcDbEntity
  8
0
100
AcDbLine
 10
3508.0
 20
1775.955334987592
 30
0.0
 11
3571.5
 21
1775.955334987592
 31
0.0
  0
LINE
  5
37DB
330
1D9
100
AcDbEntity
  8
0
100
AcDbLine
 10
3508.0
 20
1773.455334987593
 30
0.0
 11
3502.360000000001
 21
1773.455334987593
 31
0.0
  0
LINE
  5
37DC
330
1D9
100
AcDbEntity
  8
0
100
AcDbLine
 10
3508.0
 20
1775.955334987592
 30
0.0
 11
3508.0
 21
1713.955334987593
 31
0.0
  0
LINE
  5
37DD
330
1D9
100
AcDbEntity
  8
0
100
AcDbLine
 10
3571.5
 20
1775.955334987592
 30
0.0
 11
3571.5
 21
1713.955334987593
 31
0.0
  0
LINE
  5
37DE
330
1D9
100
AcDbEntity
  8
0
100
AcDbLine
 10
3636.0
 20
1770.955334987593
 30
0.0
 11
3691.0
 21
1770.955334987593
 31
0.0
  0
ARC
  5
37DF
330
1D9
100
AcDbEntity
  8
0
100
AcDbCircle
 10
3656.0
 20
1713.955334987593
 30
0.0
 40
76.5
100
AcDbArc
 50
228.1680000000064
 51
290.2969999999971
  0
LINE
  5
37E0
330
1D9
100
AcDbEntity
  8
0
100
AcDbLine
 10
3636.0
 20
1656.955334987593
 30
0.0
 11
3691.0
 21
1656.955334987593
 31
0.0
  0
LINE
  5
37E1
330
1D9
100
AcDbEntity
  8
0
100
AcDbLine
 10
3636.0
 20
1713.955334987593
 30
0.0
 11
3636.0
 21
1656.955334987593
 31
0.0
  0
LINE
  5
37E2
330
1D9
100
AcDbEntity
  8
0
100
AcDbLine
 10
3604.979999999999
 20
1770.955334987593
 30
0.0
 11
3604.979999999999
 21
1656.955334987593
 31
0.0
  0
LINE
  5
37E3
330
1D9
100
AcDbEntity
  8
0
100
AcDbLine
 10
3656.0
 20
1738.955334987593
 30
0.0
 11
3656.0
 21
1688.955334987593
 31
0.0
  0
LINE
  5
37E4
330
1D9
100
AcDbEntity
  8
0
100
AcDbLine
 10
3636.0
 20
1713.955334987593
 30
0.0
 11
3636.0
 21
1770.955334987593
 31
0.0
  0
LINE
  5
37E5
330
1D9
100
AcDbEntity
  8
0
100
AcDbLine
 10
3691.0
 20
1713.955334987593
 30
0.0
 11
3691.0
 21
1642.205334987593
 31
0.0
  0
LINE
  5
37E6
330
1D9
100
AcDbEntity
  8
0
100
AcDbLine
 10
3682.540000000001
 20
1642.205334987593
 30
0.0
 11
3682.540000000001
 21
1785.705334987593
 31
0.0
  0
LINE
  5
37E7
330
1D9
100
AcDbEntity
  8
0
100
AcDbLine
 10
3691.0
 20
1642.205334987593
 30
0.0
 11
3682.540000000001
 21
1642.205334987593
 31
0.0
  0
LINE
  5
37E8
330
1D9
100
AcDbEntity
  8
0
100
AcDbLine
 10
3691.0
 20
1785.705334987593
 30
0.0
 11
3682.540000000001
 21
1785.705334987593
 31
0.0
  0
LINE
  5
37E9
330
1D9
100
AcDbEntity
  8
0
100
AcDbLine
 10
3691.0
 20
1713.955334987593
 30
0.0
 11
3691.0
 21
1785.705334987593
 31
0.0
  0
LINE
  5
37EA
330
1D9
100
AcDbEntity
  8
0
100
AcDbLine
 10
3426.5
 20
1801.455334987593
 30
0.0
 11
3490.0
 21
1801.455334987593
 31
0.0
  0
TEXT
  5
37ED
330
1D9
100
AcDbEntity
  8
0
100
AcDbText
 10
2859.582929673814
 20
2619.829270159938
 30
0.0
 40
48.51116625310172
  1
最高使用圧力：大気圧（自然流下）
100
AcDbText
  0
TEXT
  5
381D
330
1D9
100
AcDbEntity
  8
0
100
AcDbText
 10
2859.582929673814
 20
2727.993337267484
 30
0.0
 40
48.51116625310172
  1
材質：U-PVC
100
AcDbText
  0
TEXT
  5
3B75
330
1D9
100
AcDbEntity
  8
0
100
AcDbText
 10
620.314109449142
 20
1357.892436417976
 30
0.0
 40
48.51116625310172
  1
流れ方向
100
AcDbText
  0
LINE
  5
3B76
330
1D9
100
AcDbEntity
  8
0
100
AcDbLine
 10
601.7734678464274
 20
1449.860247982084
 30
0.0
 11
842.8093405516628
 21
1449.860247982084
 31
0.0
  0
SOLID
  5
3B77
330
1D9
100
AcDbEntity
  8
0
100
AcDbTrace
 10
842.8093405516628
 20
1466.526914648752
 30
0.0
 11
842.8093405516628
 21
1433.193581315419
 31
0.0
 12
942.8093405516628
 22
1449.860247982084
 32
0.0
 13
942.8093405516628
 23
1449.860247982084
 33
0.0
  0
LINE
  5
3B78
330
1D9
100
AcDbEntity
  8
0
100
AcDbLine
 10
3207.773467846427
 20
1449.860247982084
 30
0.0
 11
3448.809340551663
 21
1449.860247982084
 31
0.0
  0
TEXT
  5
3B79
330
1D9
100
AcDbEntity
  8
0
100
AcDbText
 10
1923.314109449142
 20
1357.892436417976
 30
0.0
 40
48.51116625310172
  1
流れ方向
100
AcDbText
  0
LINE
  5
3B7A
330
1D9
100
AcDbEntity
  8
0
100
AcDbLine
 10
1904.773467846426
 20
1449.860247982084
 30
0.0
 11
2145.809340551662
 21
1449.860247982084
 31
0.0
  0
SOLID
  5
3B7B
330
1D9
100
AcDbEntity
  8
0
100
AcDbTrace
 10
2145.809340551662
 20
1466.526914648752
 30
0.0
 11
2145.809340551662
 21
1433.193581315419
 31
0.0
 12
2245.809340551662
 22
1449.860247982084
 32
0.0
 13
2245.809340551662
 23
1449.860247982084
 33
0.0
  0
TEXT
  5
3B7C
330
1D9
100
AcDbEntity
  8
0
100
AcDbText
 10
3226.314109449142
 20
1357.892436417976
 30
0.0
 40
48.51116625310172
  1
流れ方向
100
AcDbText
  0
SOLID
  5
3B7D
330
1D9
100
AcDbEntity
  8
0
100
AcDbTrace
 10
3448.809340551663
 20
1466.526914648752
 30
0.0
 11
3448.809340551663
 21
1433.193581315419
 31
0.0
 12
3548.809340551663
 22
1449.860247982084
 32
0.0
 13
3548.809340551663
 23
1449.860247982084
 33
0.0
  0
TEXT
  5
3B85
330
1D9
100
AcDbEntity
  8
0
100
AcDbText
 10
1923.31410944914
 20
131.9371014303833
 30
0.0
 40
48.51116625310172
  1
流れ方向
100
AcDbText
  0
LINE
  5
3B86
330
1D9
100
AcDbEntity
  8
0
100
AcDbLine
 10
1904.773467846426
 20
223.9049129944924
 30
0.0
 11
2145.809340551662
 21
223.9049129944924
 31
0.0
  0
TEXT
  5
3B87
330
1D9
100
AcDbEntity
  8
0
100
AcDbText
 10
620.3141094491416
 20
131.9371014303833
 30
0.0
 40
48.51116625310172
  1
流れ方向
100
AcDbText
  0
LINE
  5
3B88
330
1D9
100
AcDbEntity
  8
0
100
AcDbLine
 10
601.7734678464271
 20
223.9049129944924
 30
0.0
 11
842.8093405516625
 21
223.9049129944924
 31
0.0
  0
SOLID
  5
3B89
330
1D9
100
AcDbEntity
  8
0
100
AcDbTrace
 10
842.8093405516625
 20
240.5715796611588
 30
0.0
 11
842.8093405516625
 21
207.2382463278259
 31
0.0
 12
942.8093405516625
 22
223.9049129944924
 32
0.0
 13
942.8093405516625
 23
223.9049129944924
 33
0.0
  0
LINE
  5
3B8A
330
1D9
100
AcDbEntity
  8
0
100
AcDbLine
 10
3207.773467846427
 20
223.9049129944924
 30
0.0
 11
3448.809340551662
 21
223.9049129944924
 31
0.0
  0
TEXT
  5
3B8B
330
1D9
100
AcDbEntity
  8
0
100
AcDbText
 10
3226.314109449141
 20
131.9371014303833
 30
0.0
 40
48.51116625310172
  1
流れ方向
100
AcDbText
  0
SOLID
  5
3B8C
330
1D9
100
AcDbEntity
  8
0
100
AcDbTrace
 10
2145.809340551662
 20
240.5715796611588
 30
0.0
 11
2145.809340551662
 21
207.2382463278259
 31
0.0
 12
2245.809340551662
 22
223.9049129944924
 32
0.0
 13
2245.809340551662
 23
223.9049129944924
 33
0.0
  0
SOLID
  5
3B8D
330
1D9
100
AcDbEntity
  8
0
100
AcDbTrace
 10
3448.809340551662
 20
240.5715796611588
 30
0.0
 11
3448.809340551662
 21
207.2382463278259
 31
0.0
 12
3548.809340551662
 22
223.9049129944924
 32
0.0
 13
3548.809340551662
 23
223.9049129944924
 33
0.0
  0
LINE
  5
3B97
330
1D9
100
AcDbEntity
  8
0
100
AcDbLine
 10
2358.0
 20
1760.955334987593
 30
0.0
 11
2358.0
 21
2043.955334987593
 31
0.0
  0
LINE
  5
3B98
330
1D9
100
AcDbEntity
  8
0
100
AcDbLine
 10
1713.0
 20
1770.455334987593
 30
0.0
 11
1713.0
 21
2043.955334987593
 31
0.0
  0
LINE
  5
3B99
330
1D9
100
AcDbEntity
  8
0
100
AcDbLine
 10
2338.0
 20
2025.955334987592
 30
0.0
 11
1733.0
 21
2025.955334987592
 31
0.0
  0
LINE
  5
3B9D
330
1D9
100
AcDbEntity
  8
0
100
AcDbLine
 10
1591.0
 20
580.5520000000001
 30
0.0
 11
1591.0
 21
818.0
 31
0.0
  0
LINE
  5
3B9E
330
1D9
100
AcDbEntity
  8
0
100
AcDbLine
 10
2480.0
 20
578.0
 30
0.0
 11
2480.0
 21
818.0
 31
0.0
  0
LINE
  5
3B9F
330
1D9
100
AcDbEntity
  8
0
100
AcDbLine
 10
1611.0
 20
800.0
 30
0.0
 11
2460.0
 21
800.0
 31
0.0
  0
LINE
  5
3BA3
330
1D9
100
AcDbEntity
  8
0
100
AcDbLine
 10
1713.0
 20
1770.455334987593
 30
0.0
 11
1713.0
 21
1963.955334987593
 31
0.0
  0
LINE
  5
3BA4
330
1D9
100
AcDbEntity
  8
0
100
AcDbLine
 10
2313.0
 20
1752.455334987593
 30
0.0
 11
2313.0
 21
1963.955334987593
 31
0.0
  0
LINE
  5
3BA5
330
1D9
100
AcDbEntity
  8
0
100
AcDbLine
 10
1733.0
 20
1945.955334987592
 30
0.0
 11
2293.0
 21
1945.955334987592
 31
0.0
  0
LINE
  5
3BA9
330
1D9
100
AcDbEntity
  8
0
100
AcDbLine
 10
1591.0
 20
580.5520000000001
 30
0.0
 11
1591.0
 21
738.0
 31
0.0
  0
LINE
  5
3BAA
330
1D9
100
AcDbEntity
  8
0
100
AcDbLine
 10
2391.0
 20
559.4999999999998
 30
0.0
 11
2391.0
 21
738.0
 31
0.0
  0
LINE
  5
3BAB
330
1D9
100
AcDbEntity
  8
0
100
AcDbLine
 10
1611.0
 20
720.0
 30
0.0
 11
2371.0
 21
720.0
 31
0.0
  0
LINE
  5
3BAF
330
1D9
100
AcDbEntity
  8
0
100
AcDbLine
 10
345.0
 20
568.5799999999998
 30
0.0
 11
345.0
 21
818.0
 31
0.0
  0
LINE
  5
3BB0
330
1D9
100
AcDbEntity
  8
0
100
AcDbLine
 10
1120.0
 20
576.4999999999998
 30
0.0
 11
1120.0
 21
818.0
 31
0.0
  0
LINE
  5
3BB1
330
1D9
100
AcDbEntity
  8
0
100
AcDbLine
 10
365.0
 20
800.0
 30
0.0
 11
1100.0
 21
800.0
 31
0.0
  0
LINE
  5
3BB5
330
1D9
100
AcDbEntity
  8
0
100
AcDbLine
 10
345.0
 20
568.5799999999998
 30
0.0
 11
345.0
 21
738.0
 31
0.0
  0
LINE
  5
3BB6
330
1D9
100
AcDbEntity
  8
0
100
AcDbLine
 10
1045.0
 20
559.4999999999998
 30
0.0
 11
1045.0
 21
738.0
 31
0.0
  0
LINE
  5
3BB7
330
1D9
100
AcDbEntity
  8
0
100
AcDbLine
 10
365.0
 20
720.0
 30
0.0
 11
1025.0
 21
720.0
 31
0.0
  0
LINE
  5
3BBB
330
1D9
100
AcDbEntity
  8
0
100
AcDbLine
 10
420.0
 20
1757.955334987593
 30
0.0
 11
420.0
 21
2043.955334987593
 31
0.0
  0
LINE
  5
3BBC
330
1D9
100
AcDbEntity
  8
0
100
AcDbLine
 10
1045.0
 20
1752.955334987593
 30
0.0
 11
1045.0
 21
2043.955334987593
 31
0.0
  0
LINE
  5
3BBD
330
1D9
100
AcDbEntity
  8
0
100
AcDbLine
 10
440.0
 20
2025.955334987592
 30
0.0
 11
1025.0
 21
2025.955334987592
 31
0.0
  0
LINE
  5
3BC1
330
1D9
100
AcDbEntity
  8
0
100
AcDbLine
 10
420.0
 20
1756.955334987593
 30
0.0
 11
420.0
 21
1963.955334987593
 31
0.0
  0
LINE
  5
3BC2
330
1D9
100
AcDbEntity
  8
0
100
AcDbLine
 10
1020.0
 20
1749.955334987593
 30
0.0
 11
1020.0
 21
1963.955334987593
 31
0.0
  0
LINE
  5
3BC3
330
1D9
100
AcDbEntity
  8
0
100
AcDbLine
 10
440.0
 20
1945.955334987592
 30
0.0
 11
1000.0
 21
1945.955334987592
 31
0.0
  0
LINE
  5
3BC7
330
1D9
100
AcDbEntity
  8
0
100
AcDbLine
 10
2855.5
 20
606.0
 30
0.0
 11
2855.5
 21
818.0
 31
0.0
  0
LINE
  5
3BC8
330
1D9
100
AcDbEntity
  8
0
100
AcDbLine
 10
3821.5
 20
607.0
 30
0.0
 11
3821.5
 21
818.0
 31
0.0
  0
LINE
  5
3BC9
330
1D9
100
AcDbEntity
  8
0
100
AcDbLine
 10
2875.5
 20
800.0
 30
0.0
 11
3801.5
 21
800.0
 31
0.0
  0
LINE
  5
3BCD
330
1D9
100
AcDbEntity
  8
0
100
AcDbLine
 10
2855.5
 20
606.0
 30
0.0
 11
2855.5
 21
738.0
 31
0.0
  0
LINE
  5
3BCE
330
1D9
100
AcDbEntity
  8
0
100
AcDbLine
 10
3705.5
 20
584.4999999999998
 30
0.0
 11
3705.5
 21
738.0
 31
0.0
  0
LINE
  5
3BCF
330
1D9
100
AcDbEntity
  8
0
100
AcDbLine
 10
2875.5
 20
720.0
 30
0.0
 11
3685.5
 21
720.0
 31
0.0
  0
LINE
  5
3BD3
330
1D9
100
AcDbEntity
  8
0
100
AcDbLine
 10
2986.0
 20
1782.075334987593
 30
0.0
 11
2986.0
 21
2043.955334987593
 31
0.0
  0
LINE
  5
3BD4
330
1D9
100
AcDbEntity
  8
0
100
AcDbLine
 10
3691.0
 20
1786.705334987593
 30
0.0
 11
3691.0
 21
2043.955334987593
 31
0.0
  0
LINE
  5
3BD5
330
1D9
100
AcDbEntity
  8
0
100
AcDbLine
 10
3006.0
 20
2025.955334987592
 30
0.0
 11
3671.0
 21
2025.955334987592
 31
0.0
  0
LINE
  5
3BD9
330
1D9
100
AcDbEntity
  8
0
100
AcDbLine
 10
2986.0
 20
1782.075334987593
 30
0.0
 11
2986.0
 21
1963.955334987593
 31
0.0
  0
LINE
  5
3BDA
330
1D9
100
AcDbEntity
  8
0
100
AcDbLine
 10
3636.0
 20
1771.955334987593
 30
0.0
 11
3636.0
 21
1963.955334987593
 31
0.0
  0
LINE
  5
3BDB
330
1D9
100
AcDbEntity
  8
0
100
AcDbLine
 10
3006.0
 20
1945.955334987592
 30
0.0
 11
3616.0
 21
1945.955334987592
 31
0.0
  0
LINE
  5
3BDF
330
1D9
100
AcDbEntity
  8
0
100
AcDbLine
 10
345.0
 20
720.0
 30
0.0
 11
365.0
 21
725.3589838486219
 31
0.0
  0
LINE
  5
3BE0
330
1D9
100
AcDbEntity
  8
0
100
AcDbLine
 10
345.0
 20
720.0
 30
0.0
 11
365.0
 21
714.6410161513777
 31
0.0
  0
LINE
  5
3BE1
330
1D9
100
AcDbEntity
  8
0
100
AcDbLine
 10
365.0
 20
720.0
 30
0.0
 11
345.0
 21
720.0
 31
0.0
  0
LINE
  5
3BE2
330
1D9
100
AcDbEntity
  8
0
100
AcDbLine
 10
345.0
 20
800.0
 30
0.0
 11
365.0
 21
805.3589838486221
 31
0.0
  0
LINE
  5
3BE3
330
1D9
100
AcDbEntity
  8
0
100
AcDbLine
 10
345.0
 20
800.0
 30
0.0
 11
365.0
 21
794.6410161513778
 31
0.0
  0
LINE
  5
3BE4
330
1D9
100
AcDbEntity
  8
0
100
AcDbLine
 10
365.0
 20
800.0
 30
0.0
 11
345.0
 21
800.0
 31
0.0
  0
LINE
  5
3BE5
330
1D9
100
AcDbEntity
  8
0
100
AcDbLine
 10
1120.0
 20
800.0
 30
0.0
 11
1100.0
 21
794.6410161513778
 31
0.0
  0
LINE
  5
3BE6
330
1D9
100
AcDbEntity
  8
0
100
AcDbLine
 10
1120.0
 20
800.0
 30
0.0
 11
1100.0
 21
805.3589838486221
 31
0.0
  0
LINE
  5
3BE7
330
1D9
100
AcDbEntity
  8
0
100
AcDbLine
 10
1100.0
 20
800.0
 30
0.0
 11
1120.0
 21
800.0
 31
0.0
  0
TEXT
  5
3BE8
330
1D9
100
AcDbEntity
  8
0
100
AcDbText
 10
692.4999999999998
 20
815.0
 30
0.0
 40
30.0
  1
775
100
AcDbText
  0
TEXT
  5
3BE9
330
1D9
100
AcDbEntity
  8
0
100
AcDbText
 10
660.0
 20
735.0
 30
0.0
 40
30.0
  1
700
100
AcDbText
  0
LINE
  5
3BEA
330
1D9
100
AcDbEntity
  8
0
100
AcDbLine
 10
1045.0
 20
720.0
 30
0.0
 11
1025.0
 21
714.6410161513777
 31
0.0
  0
LINE
  5
3BEB
330
1D9
100
AcDbEntity
  8
0
100
AcDbLine
 10
1045.0
 20
720.0
 30
0.0
 11
1025.0
 21
725.3589838486219
 31
0.0
  0
LINE
  5
3BEC
330
1D9
100
AcDbEntity
  8
0
100
AcDbLine
 10
1025.0
 20
720.0
 30
0.0
 11
1045.0
 21
720.0
 31
0.0
  0
LINE
  5
3BED
330
1D9
100
AcDbEntity
  8
0
100
AcDbLine
 10
1591.0
 20
720.0
 30
0.0
 11
1611.0
 21
725.3589838486219
 31
0.0
  0
LINE
  5
3BEE
330
1D9
100
AcDbEntity
  8
0
100
AcDbLine
 10
1591.0
 20
720.0
 30
0.0
 11
1611.0
 21
714.6410161513777
 31
0.0
  0
LINE
  5
3BEF
330
1D9
100
AcDbEntity
  8
0
100
AcDbLine
 10
1611.0
 20
720.0
 30
0.0
 11
1591.0
 21
720.0
 31
0.0
  0
LINE
  5
3BF0
330
1D9
100
AcDbEntity
  8
0
100
AcDbLine
 10
1591.0
 20
800.0
 30
0.0
 11
1611.0
 21
805.3589838486221
 31
0.0
  0
LINE
  5
3BF1
330
1D9
100
AcDbEntity
  8
0
100
AcDbLine
 10
1591.0
 20
800.0
 30
0.0
 11
1611.0
 21
794.6410161513778
 31
0.0
  0
LINE
  5
3BF2
330
1D9
100
AcDbEntity
  8
0
100
AcDbLine
 10
1611.0
 20
800.0
 30
0.0
 11
1591.0
 21
800.0
 31
0.0
  0
TEXT
  5
3BF3
330
1D9
100
AcDbEntity
  8
0
100
AcDbText
 10
685.0
 20
1960.955334987593
 30
0.0
 40
30.0
  1
600
100
AcDbText
  0
TEXT
  5
3BF4
330
1D9
100
AcDbEntity
  8
0
100
AcDbText
 10
692.4999999999998
 20
2040.955334987593
 30
0.0
 40
30.0
  1
625
100
AcDbText
  0
LINE
  5
3BF5
330
1D9
100
AcDbEntity
  8
0
100
AcDbLine
 10
420.0
 20
1945.955334987592
 30
0.0
 11
440.0
 21
1951.314318836215
 31
0.0
  0
LINE
  5
3BF6
330
1D9
100
AcDbEntity
  8
0
100
AcDbLine
 10
420.0
 20
1945.955334987592
 30
0.0
 11
440.0
 21
1940.596351138971
 31
0.0
  0
LINE
  5
3BF7
330
1D9
100
AcDbEntity
  8
0
100
AcDbLine
 10
440.0
 20
1945.955334987592
 30
0.0
 11
420.0
 21
1945.955334987592
 31
0.0
  0
LINE
  5
3BF8
330
1D9
100
AcDbEntity
  8
0
100
AcDbLine
 10
420.0
 20
2025.955334987592
 30
0.0
 11
440.0
 21
2031.314318836214
 31
0.0
  0
LINE
  5
3BF9
330
1D9
100
AcDbEntity
  8
0
100
AcDbLine
 10
420.0
 20
2025.955334987592
 30
0.0
 11
440.0
 21
2020.596351138971
 31
0.0
  0
LINE
  5
3BFA
330
1D9
100
AcDbEntity
  8
0
100
AcDbLine
 10
440.0
 20
2025.955334987592
 30
0.0
 11
420.0
 21
2025.955334987592
 31
0.0
  0
LINE
  5
3BFB
330
1D9
100
AcDbEntity
  8
0
100
AcDbLine
 10
1020.0
 20
1945.955334987592
 30
0.0
 11
1000.0
 21
1940.596351138971
 31
0.0
  0
LINE
  5
3BFC
330
1D9
100
AcDbEntity
  8
0
100
AcDbLine
 10
1020.0
 20
1945.955334987592
 30
0.0
 11
1000.0
 21
1951.314318836215
 31
0.0
  0
LINE
  5
3BFD
330
1D9
100
AcDbEntity
  8
0
100
AcDbLine
 10
1000.0
 20
1945.955334987592
 30
0.0
 11
1020.0
 21
1945.955334987592
 31
0.0
  0
LINE
  5
3BFE
330
1D9
100
AcDbEntity
  8
0
100
AcDbLine
 10
1045.0
 20
2025.955334987592
 30
0.0
 11
1025.0
 21
2020.596351138971
 31
0.0
  0
LINE
  5
3BFF
330
1D9
100
AcDbEntity
  8
0
100
AcDbLine
 10
1045.0
 20
2025.955334987592
 30
0.0
 11
1025.0
 21
2031.314318836214
 31
0.0
  0
LINE
  5
3C00
330
1D9
100
AcDbEntity
  8
0
100
AcDbLine
 10
1025.0
 20
2025.955334987592
 30
0.0
 11
1045.0
 21
2025.955334987592
 31
0.0
  0
LINE
  5
3C01
330
1D9
100
AcDbEntity
  8
0
100
AcDbLine
 10
1713.0
 20
1945.955334987592
 30
0.0
 11
1733.0
 21
1951.314318836215
 31
0.0
  0
LINE
  5
3C02
330
1D9
100
AcDbEntity
  8
0
100
AcDbLine
 10
1713.0
 20
1945.955334987592
 30
0.0
 11
1733.0
 21
1940.596351138971
 31
0.0
  0
LINE
  5
3C03
330
1D9
100
AcDbEntity
  8
0
100
AcDbLine
 10
1733.0
 20
1945.955334987592
 30
0.0
 11
1713.0
 21
1945.955334987592
 31
0.0
  0
LINE
  5
3C04
330
1D9
100
AcDbEntity
  8
0
100
AcDbLine
 10
1713.0
 20
2025.955334987592
 30
0.0
 11
1733.0
 21
2031.314318836214
 31
0.0
  0
LINE
  5
3C05
330
1D9
100
AcDbEntity
  8
0
100
AcDbLine
 10
1713.0
 20
2025.955334987592
 30
0.0
 11
1733.0
 21
2020.596351138971
 31
0.0
  0
LINE
  5
3C06
330
1D9
100
AcDbEntity
  8
0
100
AcDbLine
 10
1733.0
 20
2025.955334987592
 30
0.0
 11
1713.0
 21
2025.955334987592
 31
0.0
  0
TEXT
  5
3C07
330
1D9
100
AcDbEntity
  8
0
100
AcDbText
 10
3298.5
 20
815.0
 30
0.0
 40
30.0
  1
966
100
AcDbText
  0
TEXT
  5
3C08
330
1D9
100
AcDbEntity
  8
0
100
AcDbText
 10
1995.5
 20
815.0
 30
0.0
 40
30.0
  1
889
100
AcDbText
  0
TEXT
  5
3C09
330
1D9
100
AcDbEntity
  8
0
100
AcDbText
 10
1956.0
 20
735.0
 30
0.0
 40
30.0
  1
800
100
AcDbText
  0
LINE
  5
3C0A
330
1D9
100
AcDbEntity
  8
0
100
AcDbLine
 10
2391.0
 20
720.0
 30
0.0
 11
2371.0
 21
714.6410161513777
 31
0.0
  0
LINE
  5
3C0B
330
1D9
100
AcDbEntity
  8
0
100
AcDbLine
 10
2391.0
 20
720.0
 30
0.0
 11
2371.0
 21
725.3589838486219
 31
0.0
  0
LINE
  5
3C0C
330
1D9
100
AcDbEntity
  8
0
100
AcDbLine
 10
2371.0
 20
720.0
 30
0.0
 11
2391.0
 21
720.0
 31
0.0
  0
LINE
  5
3C0D
330
1D9
100
AcDbEntity
  8
0
100
AcDbLine
 10
2480.0
 20
800.0
 30
0.0
 11
2460.0
 21
794.6410161513778
 31
0.0
  0
LINE
  5
3C0E
330
1D9
100
AcDbEntity
  8
0
100
AcDbLine
 10
2480.0
 20
800.0
 30
0.0
 11
2460.0
 21
805.3589838486221
 31
0.0
  0
LINE
  5
3C0F
330
1D9
100
AcDbEntity
  8
0
100
AcDbLine
 10
2460.0
 20
800.0
 30
0.0
 11
2480.0
 21
800.0
 31
0.0
  0
LINE
  5
3C10
330
1D9
100
AcDbEntity
  8
0
100
AcDbLine
 10
2855.5
 20
720.0
 30
0.0
 11
2875.5
 21
725.3589838486219
 31
0.0
  0
LINE
  5
3C11
330
1D9
100
AcDbEntity
  8
0
100
AcDbLine
 10
2855.5
 20
720.0
 30
0.0
 11
2875.5
 21
714.6410161513777
 31
0.0
  0
LINE
  5
3C12
330
1D9
100
AcDbEntity
  8
0
100
AcDbLine
 10
2875.5
 20
720.0
 30
0.0
 11
2855.5
 21
720.0
 31
0.0
  0
LINE
  5
3C13
330
1D9
100
AcDbEntity
  8
0
100
AcDbLine
 10
2855.5
 20
800.0
 30
0.0
 11
2875.5
 21
805.3589838486221
 31
0.0
  0
LINE
  5
3C14
330
1D9
100
AcDbEntity
  8
0
100
AcDbLine
 10
2855.5
 20
800.0
 30
0.0
 11
2875.5
 21
794.6410161513778
 31
0.0
  0
LINE
  5
3C15
330
1D9
100
AcDbEntity
  8
0
100
AcDbLine
 10
2875.5
 20
800.0
 30
0.0
 11
2855.5
 21
800.0
 31
0.0
  0
TEXT
  5
3C16
330
1D9
100
AcDbEntity
  8
0
100
AcDbText
 10
3243.0
 20
735.0
 30
0.0
 40
30.0
  1
850
100
AcDbText
  0
LINE
  5
3C17
330
1D9
100
AcDbEntity
  8
0
100
AcDbLine
 10
3705.5
 20
720.0
 30
0.0
 11
3685.5
 21
714.6410161513777
 31
0.0
  0
LINE
  5
3C18
330
1D9
100
AcDbEntity
  8
0
100
AcDbLine
 10
3705.5
 20
720.0
 30
0.0
 11
3685.5
 21
725.3589838486219
 31
0.0
  0
LINE
  5
3C19
330
1D9
100
AcDbEntity
  8
0
100
AcDbLine
 10
3685.5
 20
720.0
 30
0.0
 11
3705.5
 21
720.0
 31
0.0
  0
LINE
  5
3C1A
330
1D9
100
AcDbEntity
  8
0
100
AcDbLine
 10
3821.5
 20
800.0
 30
0.0
 11
3801.5
 21
794.6410161513778
 31
0.0
  0
LINE
  5
3C1B
330
1D9
100
AcDbEntity
  8
0
100
AcDbLine
 10
3821.5
 20
800.0
 30
0.0
 11
3801.5
 21
805.3589838486221
 31
0.0
  0
LINE
  5
3C1C
330
1D9
100
AcDbEntity
  8
0
100
AcDbLine
 10
3801.5
 20
800.0
 30
0.0
 11
3821.5
 21
800.0
 31
0.0
  0
TEXT
  5
3C1D
330
1D9
100
AcDbEntity
  8
0
100
AcDbText
 10
3273.5
 20
1960.955334987593
 30
0.0
 40
30.0
  1
650
100
AcDbText
  0
TEXT
  5
3C1E
330
1D9
100
AcDbEntity
  8
0
100
AcDbText
 10
3301.0
 20
2040.955334987593
 30
0.0
 40
30.0
  1
705
100
AcDbText
  0
TEXT
  5
3C1F
330
1D9
100
AcDbEntity
  8
0
100
AcDbText
 10
1978.0
 20
1960.955334987593
 30
0.0
 40
30.0
  1
600
100
AcDbText
  0
TEXT
  5
3C20
330
1D9
100
AcDbEntity
  8
0
100
AcDbText
 10
1995.5
 20
2040.955334987593
 30
0.0
 40
30.0
  1
645
100
AcDbText
  0
LINE
  5
3C21
330
1D9
100
AcDbEntity
  8
0
100
AcDbLine
 10
2313.0
 20
1945.955334987592
 30
0.0
 11
2293.0
 21
1940.596351138971
 31
0.0
  0
LINE
  5
3C22
330
1D9
100
AcDbEntity
  8
0
100
AcDbLine
 10
2313.0
 20
1945.955334987592
 30
0.0
 11
2293.0
 21
1951.314318836215
 31
0.0
  0
LINE
  5
3C23
330
1D9
100
AcDbEntity
  8
0
100
AcDbLine
 10
2293.0
 20
1945.955334987592
 30
0.0
 11
2313.0
 21
1945.955334987592
 31
0.0
  0
LINE
  5
3C24
330
1D9
100
AcDbEntity
  8
0
100
AcDbLine
 10
2358.0
 20
2025.955334987592
 30
0.0
 11
2338.0
 21
2020.596351138971
 31
0.0
  0
LINE
  5
3C25
330
1D9
100
AcDbEntity
  8
0
100
AcDbLine
 10
2358.0
 20
2025.955334987592
 30
0.0
 11
2338.0
 21
2031.314318836214
 31
0.0
  0
LINE
  5
3C26
330
1D9
100
AcDbEntity
  8
0
100
AcDbLine
 10
2338.0
 20
2025.955334987592
 30
0.0
 11
2358.0
 21
2025.955334987592
 31
0.0
  0
LINE
  5
3C27
330
1D9
100
AcDbEntity
  8
0
100
AcDbLine
 10
2986.0
 20
1945.955334987592
 30
0.0
 11
3006.0
 21
1951.314318836215
 31
0.0
  0
LINE
  5
3C28
330
1D9
100
AcDbEntity
  8
0
100
AcDbLine
 10
2986.0
 20
1945.955334987592
 30
0.0
 11
3006.0
 21
1940.596351138971
 31
0.0
  0
LINE
  5
3C29
330
1D9
100
AcDbEntity
  8
0
100
AcDbLine
 10
3006.0
 20
1945.955334987592
 30
0.0
 11
2986.0
 21
1945.955334987592
 31
0.0
  0
LINE
  5
3C2A
330
1D9
100
AcDbEntity
  8
0
100
AcDbLine
 10
2986.0
 20
2025.955334987592
 30
0.0
 11
3006.0
 21
2031.314318836214
 31
0.0
  0
LINE
  5
3C2B
330
1D9
100
AcDbEntity
  8
0
100
AcDbLine
 10
2986.0
 20
2025.955334987592
 30
0.0
 11
3006.0
 21
2020.596351138971
 31
0.0
  0
LINE
  5
3C2C
330
1D9
100
AcDbEntity
  8
0
100
AcDbLine
 10
3006.0
 20
2025.955334987592
 30
0.0
 11
2986.0
 21
2025.955334987592
 31
0.0
  0
LINE
  5
3C2D
330
1D9
100
AcDbEntity
  8
0
100
AcDbLine
 10
3691.0
 20
2025.955334987592
 30
0.0
 11
3671.0
 21
2020.596351138971
 31
0.0
  0
LINE
  5
3C2E
330
1D9
100
AcDbEntity
  8
0
100
AcDbLine
 10
3691.0
 20
2025.955334987592
 30
0.0
 11
3671.0
 21
2031.314318836214
 31
0.0
  0
LINE
  5
3C2F
330
1D9
100
AcDbEntity
  8
0
100
AcDbLine
 10
3671.0
 20
2025.955334987592
 30
0.0
 11
3691.0
 21
2025.955334987592
 31
0.0
  0
LINE
  5
3C30
330
1D9
100
AcDbEntity
  8
0
100
AcDbLine
 10
3636.0
 20
1945.955334987592
 30
0.0
 11
3616.0
 21
1940.596351138971
 31
0.0
  0
LINE
  5
3C31
330
1D9
100
AcDbEntity
  8
0
100
AcDbLine
 10
3636.0
 20
1945.955334987592
 30
0.0
 11
3616.0
 21
1951.314318836215
 31
0.0
  0
LINE
  5
3C32
330
1D9
100
AcDbEntity
  8
0
100
AcDbLine
 10
3616.0
 20
1945.955334987592
 30
0.0
 11
3636.0
 21
1945.955334987592
 31
0.0
  0
ENDSEC
  0
SECTION
  2
OBJECTS
  0
DICTIONARY
  5
1CD
330
0
100
AcDbDictionary
  3
ACAD_GROUP
350
1CE
  3
ACAD_LAYOUT
350
2DE
  3
ACAD_MLINESTYLE
350
1CF
  3
ACAD_PLOTSETTINGS
350
2DF
1001
ACAD
1000
TREAT_AS_HARD
1070
     0
1000
TREAT_AS_HARD
1070
     0
  0
DICTIONARY
  5
2738
330
1C3
100
AcDbDictionary
  3
ACAD_LAYERSTATES
350
2739
1001
ACAD
1000
TREAT_AS_HARD
1070
     1
1000
TREAT_AS_HARD
1070
     0
  0
DICTIONARY
  5
3C39
330
1D9
100
AcDbDictionary
  3
ACAD_LAYOUTSELFREF
350
3C6F
1001
ACAD
1000
TREAT_AS_HARD
1070
     0
  0
DICTIONARY
  5
3C37
330
1D6
100
AcDbDictionary
  3
ACAD_LAYOUTSELFREF
350
3C6E
1001
ACAD
1000
TREAT_AS_HARD
1070
     0
  0
DICTIONARY
  5
1CE
102
{ACAD_REACTORS
330
1CD
102
}
330
1CD
100
AcDbDictionary
1001
ACAD
1000
TREAT_AS_HARD
1070
     0
1000
TREAT_AS_HARD
1070
     0
  0
DICTIONARY
  5
2DE
102
{ACAD_REACTORS
330
1CD
102
}
330
1CD
100
AcDbDictionary
1001
ACAD
1000
TREAT_AS_HARD
1070
     0
1000
TREAT_AS_HARD
1070
     0
  0
DICTIONARY
  5
1CF
102
{ACAD_REACTORS
330
1CD
102
}
330
1CD
100
AcDbDictionary
  3
STANDARD
350
1DC
1001
ACAD
1000
TREAT_AS_HARD
1070
     0
1000
TREAT_AS_HARD
1070
     0
  0
DICTIONARY
  5
2DF
102
{ACAD_REACTORS
330
1CD
102
}
330
1CD
100
AcDbDictionary
1001
ACAD
1000
TREAT_AS_HARD
1070
     0
1000
TREAT_AS_HARD
1070
     0
  0
DICTIONARY
  5
2739
102
{ACAD_REACTORS
330
2738
102
}
330
2738
100
AcDbDictionary
1001
ACAD
1000
TREAT_AS_HARD
1070
     0
1000
TREAT_AS_HARD
1070
     0
  0
XRECORD
  5
3C6F
102
{ACAD_REACTORS
330
3C39
102
}
330
3C39
100
AcDbXrecord
340
1D9
  0
XRECORD
  5
3C6E
102
{ACAD_REACTORS
330
3C37
102
}
330
3C37
100
AcDbXrecord
340
1D6
  0
MLINESTYLE
  5
1DC
102
{ACAD_REACTORS
330
1CF
102
}
330
1CF
100
AcDbMlineStyle
  2
STANDARD
 70
     0
  3

 62
     0
 51
90.0
 52
90.0
 71
     2
 49
0.5
 62
   256
  6
BYLAYER
 49
-0.5
 62
   256
  6
BYLAYER
  0
ENDSEC
  0
EOF
