  0
SECTION
  2
HEADER
  9
$ACADVER
  1
AC1012
  9
$DWGCODEPAGE
  3
dos932
  9
$INSBASE
 10
0.0
 20
0.0
 30
0.0
  9
$EXTMIN
 10
30.0
 20
0.0
 30
0.0
  9
$EXTMAX
 10
3990.607053980438
 20
2840.0
 30
0.0
  9
$LIMMIN
 10
0.0
 20
0.0
  9
$LIMMAX
 10
4200.0
 20
2970.0
  9
$ORTHOMODE
 70
     0
  9
$REGENMODE
 70
     1
  9
$FILLMODE
 70
     1
  9
$QTEXTMODE
 70
     0
  9
$MIRRTEXT
 70
     0
  9
$DRAGMODE
 70
     2
  9
$LTSCALE
 40
80.0
  9
$OSMODE
 70
    37
  9
$ATTMODE
 70
     1
  9
$TEXTSIZE
 40
30.0
  9
$TRACEWID
 40
0.05
  9
$TEXTSTYLE
  7
STANDARD
  9
$CLAYER
  8
0
  9
$CELTYPE
  6
BYLAYER
  9
$CECOLOR
 62
   256
  9
$CELTSCALE
 40
1.0
  9
$DELOBJ
 70
     1
  9
$DISPSILH
 70
     0
  9
$DIMSCALE
 40
10.0
  9
$DIMASZ
 40
2.0
  9
$DIMEXO
 40
0.1
  9
$DIMDLI
 40
7.0
  9
$DIMRND
 40
0.0
  9
$DIMDLE
 40
0.0
  9
$DIMEXE
 40
1.8
  9
$DIMTP
 40
0.0
  9
$DIMTM
 40
0.0
  9
$DIMTXT
 40
3.0
  9
$DIMCEN
 40
0.1
  9
$DIMTSZ
 40
0.0
  9
$DIMTOL
 70
     0
  9
$DIMLIM
 70
     0
  9
$DIMTIH
 70
     0
  9
$DIMTOH
 70
     0
  9
$DIMSE1
 70
     0
  9
$DIMSE2
 70
     0
  9
$DIMTAD
 70
     0
  9
$DIMZIN
 70
     9
  9
$DIMBLK
  1
YAZ1
  9
$DIMASO
 70
     1
  9
$DIMSHO
 70
     1
  9
$DIMPOST
  1

  9
$DIMAPOST
  1

  9
$DIMALT
 70
     0
  9
$DIMALTD
 70
     2
  9
$DIMALTF
 40
25.4
  9
$DIMLFAC
 40
1.0
  9
$DIMTOFL
 70
     1
  9
$DIMTVP
 40
1.0
  9
$DIMTIX
 70
     0
  9
$DIMSOXD
 70
     0
  9
$DIMSAH
 70
     1
  9
$DIMBLK1
  1
YAZ1
  9
$DIMBLK2
  1
YAZ1
  9
$DIMSTYLE
  2
YAZ1
  9
$DIMCLRD
 70
   256
  9
$DIMCLRE
 70
   256
  9
$DIMCLRT
 70
   256
  9
$DIMTFAC
 40
1.0
  9
$DIMGAP
 40
0.0
  9
$DIMJUST
 70
     0
  9
$DIMSD1
 70
     0
  9
$DIMSD2
 70
     0
  9
$DIMTOLJ
 70
     1
  9
$DIMTZIN
 70
     9
  9
$DIMALTZ
 70
     9
  9
$DIMALTTZ
 70
     9
  9
$DIMFIT
 70
     3
  9
$DIMUPT
 70
     0
  9
$DIMUNIT
 70
     2
  9
$DIMDEC
 70
     3
  9
$DIMTDEC
 70
     3
  9
$DIMALTU
 70
     2
  9
$DIMALTTD
 70
     2
  9
$DIMTXSTY
  7
STANDARD
  9
$DIMAUNIT
 70
     0
  9
$LUNITS
 70
     2
  9
$LUPREC
 70
     3
  9
$SKETCHINC
 40
0.1
  9
$FILLETRAD
 40
0.0
  9
$AUNITS
 70
     0
  9
$AUPREC
 70
     2
  9
$MENU
  1
amecex
  9
$ELEVATION
 40
0.0
  9
$PELEVATION
 40
0.0
  9
$THICKNESS
 40
0.0
  9
$LIMCHECK
 70
     0
  9
$BLIPMODE
 70
     0
  9
$CHAMFERA
 40
0.0
  9
$CHAMFERB
 40
0.0
  9
$CHAMFERC
 40
0.0
  9
$CHAMFERD
 40
0.0
  9
$SKPOLY
 70
     0
  9
$TDCREATE
 40
2452593.633064710
  9
$TDUPDATE
 40
2456059.491251655
  9
$TDINDWG
 40
0.5670616088
  9
$TDUSRTIMER
 40
0.5670614931
  9
$USRTIMER
 70
     1
  9
$ANGBASE
 50
0.0
  9
$ANGDIR
 70
     0
  9
$PDMODE
 70
     0
  9
$PDSIZE
 40
0.0
  9
$PLINEWID
 40
0.0
  9
$COORDS
 70
     0
  9
$SPLFRAME
 70
     0
  9
$SPLINETYPE
 70
     6
  9
$SPLINESEGS
 70
     8
  9
$ATTDIA
 70
     0
  9
$ATTREQ
 70
     1
  9
$HANDLING
 70
-16383
  9
$HANDSEED
  5
457A
  9
$SURFTAB1
 70
     6
  9
$SURFTAB2
 70
     6
  9
$SURFTYPE
 70
     6
  9
$SURFU
 70
     6
  9
$SURFV
 70
     6
  9
$UCSNAME
  2

  9
$UCSORG
 10
0.0
 20
0.0
 30
0.0
  9
$UCSXDIR
 10
1.0
 20
0.0
 30
0.0
  9
$UCSYDIR
 10
0.0
 20
1.0
 30
0.0
  9
$PUCSNAME
  2

  9
$PUCSORG
 10
0.0
 20
0.0
 30
0.0
  9
$PUCSXDIR
 10
1.0
 20
0.0
 30
0.0
  9
$PUCSYDIR
 10
0.0
 20
1.0
 30
0.0
  9
$USERI1
 70
     0
  9
$USERI2
 70
     0
  9
$USERI3
 70
     0
  9
$USERI4
 70
     0
  9
$USERI5
 70
     0
  9
$USERR1
 40
30.0
  9
$USERR2
 40
0.0
  9
$USERR3
 40
0.0
  9
$USERR4
 40
0.0
  9
$USERR5
 40
0.0
  9
$WORLDVIEW
 70
     1
  9
$SHADEDGE
 70
     3
  9
$SHADEDIF
 70
    70
  9
$TILEMODE
 70
     1
  9
$MAXACTVP
 70
    16
  9
$PINSBASE
 10
0.0
 20
0.0
 30
0.0
  9
$PLIMCHECK
 70
     0
  9
$PEXTMIN
 10
1.000000000000000E+20
 20
1.000000000000000E+20
 30
1.000000000000000E+20
  9
$PEXTMAX
 10
-1.000000000000000E+20
 20
-1.000000000000000E+20
 30
-1.000000000000000E+20
  9
$PLIMMIN
 10
0.0
 20
0.0
  9
$PLIMMAX
 10
12.0
 20
9.0
  9
$UNITMODE
 70
     0
  9
$VISRETAIN
 70
     0
  9
$PLINEGEN
 70
     0
  9
$PSLTSCALE
 70
     0
  9
$TREEDEPTH
 70
  3020
  9
$PICKSTYLE
 70
     1
  9
$CMLSTYLE
  2
STANDARD
  9
$CMLJUST
 70
     0
  9
$CMLSCALE
 40
1.0
  9
$SAVEIMAGES
 70
     1
  0
ENDSEC
  0
SECTION
  2
CLASSES
  0
CLASS
  1
ACDBDICTIONARYWDFLT
  2
AcDbDictionaryWithDefault
  3
AutoCAD 2000
 90
    32768
280
     0
281
     0
  0
CLASS
  1
ACDBPLACEHOLDER
  2
AcDbPlaceHolder
  3
AutoCAD 2000
 90
    32768
280
     0
281
     0
  0
CLASS
  1
LAYOUT
  2
AcDbLayout
  3
AutoCAD 2000
 90
    32768
280
     0
281
     0
  0
CLASS
  1
DICTIONARYVAR
  2
AcDbDictionaryVar
  3
AutoCAD 2000
 90
    32768
280
     0
281
     0
  0
CLASS
  1
LONG_TRANSACTION
  2
AcDbLongTransaction
  3
AutoCAD 2000
 90
    32768
280
     0
281
     0
  0
CLASS
  1
LWPOLYLINE
  2
AcDbPolyline
  3
AutoCAD 2000
 90
    32768
280
     0
281
     1
  0
CLASS
  1
HATCH
  2
AcDbHatch
  3
AutoCAD 2000
 90
    32768
280
     0
281
     1
  0
CLASS
  1
XRECORD
  2
AcDbXrecord
  3
AutoCAD 2000
 90
    32768
280
     0
281
     0
  0
CLASS
  1
LONG_TRANSACTION
  2
AcDbLongTransaction
  3
AutoCAD 2000
 90
    32768
280
     0
281
     0
  0
CLASS
  1
LWPOLYLINE
  2
AcDbPolyline
  3
AutoCAD 2000
 90
    32768
280
     0
281
     1
  0
CLASS
  1
HATCH
  2
AcDbHatch
  3
AutoCAD 2000
 90
    32768
280
     0
281
     1
  0
CLASS
  1
XRECORD
  2
AcDbXrecord
  3
AutoCAD 2000
 90
    32768
280
     0
281
     0
  0
ENDSEC
  0
SECTION
  2
TABLES
  0
TABLE
  2
VPORT
  5
1C9
330
0
100
AcDbSymbolTable
 70
     2
  0
VPORT
  5
4577
330
1C9
100
AcDbSymbolTableRecord
100
AcDbViewportTableRecord
  2
*ACTIVE
 70
     0
 10
0.0
 20
0.0
 11
1.0
 21
1.0
 12
2666.552141264579
 22
1782.241357370295
 13
0.0
 23
0.0
 14
1.0
 24
1.0
 15
0.0
 25
0.0
 16
0.0
 26
0.0
 36
1.0
 17
0.0
 27
0.0
 37
0.0
 40
4155.667527895544
 41
1.81042654028436
 42
50.0
 43
0.0
 44
0.0
 50
0.0
 51
0.0
 71
     0
 72
   100
 73
     1
 74
     1
 75
     0
 76
     0
 77
     0
 78
     0
  0
ENDTAB
  0
TABLE
  2
LTYPE
  5
1C6
330
0
100
AcDbSymbolTable
 70
     2
  0
LTYPE
  5
1D3
330
1C6
100
AcDbSymbolTableRecord
100
AcDbLinetypeTableRecord
  2
BYBLOCK
 70
     0
  3

 72
    65
 73
     0
 40
0.0
  0
LTYPE
  5
1D4
330
1C6
100
AcDbSymbolTableRecord
100
AcDbLinetypeTableRecord
  2
BYLAYER
 70
     0
  3

 72
    65
 73
     0
 40
0.0
  0
LTYPE
  5
1D5
330
1C6
100
AcDbSymbolTableRecord
100
AcDbLinetypeTableRecord
  2
CONTINUOUS
 70
     0
  3
実線
 72
    65
 73
     0
 40
0.0
  0
ENDTAB
  0
TABLE
  2
LAYER
  5
1C3
102
{ACAD_XDICTIONARY
360
2738
102
}
330
0
100
AcDbSymbolTable
 70
     4
  0
LAYER
  5
1D0
330
1C3
100
AcDbSymbolTableRecord
100
AcDbLayerTableRecord
  2
0
 70
     0
 62
     7
  6
CONTINUOUS
  0
ENDTAB
  0
TABLE
  2
STYLE
  5
1C4
330
0
100
AcDbSymbolTable
 70
     1
  0
STYLE
  5
1D1
330
1C4
100
AcDbSymbolTableRecord
100
AcDbTextStyleTableRecord
  2
STANDARD
 70
     0
 40
0.0
 41
1.0
 50
0.0
 71
     0
 42
30.0
  3
TXT
  4
BIGFONT
  0
ENDTAB
  0
TABLE
  2
VIEW
  5
1C7
330
0
100
AcDbSymbolTable
 70
     0
  0
ENDTAB
  0
TABLE
  2
UCS
  5
1C8
330
0
100
AcDbSymbolTable
 70
     0
  0
ENDTAB
  0
TABLE
  2
APPID
  5
1CA
330
0
100
AcDbSymbolTable
 70
     2
  0
APPID
  5
1D2
330
1CA
100
AcDbSymbolTableRecord
100
AcDbRegAppTableRecord
  2
ACAD
 70
     0
  0
APPID
  5
286
330
1CA
100
AcDbSymbolTableRecord
100
AcDbRegAppTableRecord
  2
ACE-LT__COPYRIGHT_TRIALSOFT-JPN
 70
     0
  0
ENDTAB
  0
TABLE
  2
DIMSTYLE
  5
1CB
330
0
100
AcDbSymbolTable
 70
     1
  0
DIMSTYLE
105
1F1
330
1CB
100
AcDbSymbolTableRecord
100
AcDbDimStyleTableRecord
  2
YAZ1
 70
     0
  3

  4

  5
YAZ1
  6
YAZ1
  7
YAZ1
 40
10.0
 41
2.0
 42
0.1
 43
7.0
 44
1.8
 45
0.0
 46
0.0
 47
0.0
 48
0.0
140
3.0
141
0.1
142
0.0
143
25.4
144
1.0
145
1.0
146
1.0
147
0.0
 71
     0
 72
     0
 73
     0
 74
     0
 75
     0
 76
     0
 77
     0
 78
     9
170
     0
171
     2
172
     1
173
     1
174
     0
175
     0
176
   256
177
   256
178
   256
270
     2
271
     3
272
     3
273
     2
274
     2
340
1D1
275
     0
280
     0
281
     0
282
     0
283
     1
284
     9
285
     9
286
     9
287
     3
288
     0
  0
ENDTAB
  0
TABLE
  2
BLOCK_RECORD
  5
1C2
330
0
100
AcDbSymbolTable
 70
     1
  0
BLOCK_RECORD
  5
1D9
102
{ACAD_XDICTIONARY
360
4543
102
}
330
1C2
100
AcDbSymbolTableRecord
100
AcDbBlockTableRecord
  2
*MODEL_SPACE
  0
BLOCK_RECORD
  5
1D6
102
{ACAD_XDICTIONARY
360
4541
102
}
330
1C2
100
AcDbSymbolTableRecord
100
AcDbBlockTableRecord
  2
*PAPER_SPACE
  0
BLOCK_RECORD
  5
254
330
1C2
100
AcDbSymbolTableRecord
100
AcDbBlockTableRecord
  2
YAZ1
  0
ENDTAB
  0
ENDSEC
  0
SECTION
  2
BLOCKS
  0
BLOCK
  5
20A
330
1D9
100
AcDbEntity
  8
0
100
AcDbBlockBegin
  2
*MODEL_SPACE
 70
     0
 10
0.0
 20
0.0
 30
0.0
  3
*MODEL_SPACE
  1

  0
ENDBLK
  5
20B
330
1D9
100
AcDbEntity
  8
0
100
AcDbBlockEnd
  0
BLOCK
  5
208
330
1D6
100
AcDbEntity
 67
     1
  8
0
100
AcDbBlockBegin
  2
*PAPER_SPACE
 70
     0
 10
0.0
 20
0.0
 30
0.0
  3
*PAPER_SPACE
  1

  0
ENDBLK
  5
209
330
1D6
100
AcDbEntity
 67
     1
  8
0
100
AcDbBlockEnd
  0
BLOCK
  5
258
330
254
100
AcDbEntity
  8
0
100
AcDbBlockBegin
  2
YAZ1
 70
     0
 10
0.0
 20
0.0
 30
0.0
  3
YAZ1
  1

  0
LINE
  5
255
330
254
100
AcDbEntity
  8
0
100
AcDbLine
 10
0.0
 20
0.0
 30
0.0
 11
-1.0
 21
-0.2679491924311037
 31
0.0
  0
LINE
  5
256
330
254
100
AcDbEntity
  8
0
100
AcDbLine
 10
0.0
 20
0.0
 30
0.0
 11
-1.0
 21
0.2679491924311037
 31
0.0
  0
LINE
  5
257
330
254
100
AcDbEntity
  8
0
100
AcDbLine
 10
-1.0
 20
0.0
 30
0.0
 11
0.0
 21
0.0
 31
0.0
  0
ENDBLK
  5
259
330
254
100
AcDbEntity
  8
0
100
AcDbBlockEnd
  0
ENDSEC
  0
SECTION
  2
ENTITIES
  0
TEXT
  5
3589
330
1D9
100
AcDbEntity
  8
0
100
AcDbText
 10
882.0349464376231
 20
1012.512383790262
 30
0.0
 40
48.51116625310172
  1
呼び径：150
100
AcDbText
  0
TEXT
  5
358A
330
1D9
100
AcDbEntity
  8
0
100
AcDbText
 10
723.7486510764775
 20
939.839685983552
 30
0.0
 40
48.51116625310172
  1
品番：NF150-200VSS
100
AcDbText
  0
TEXT
  5
358B
330
1D9
100
AcDbEntity
  8
0
100
AcDbText
 10
553.880486313672
 20
2236.557048802669
 30
0.0
 40
48.51116625310172
  1
呼び径：75
100
AcDbText
  0
TEXT
  5
358C
330
1D9
100
AcDbEntity
  8
0
100
AcDbText
 10
395.5941909525263
 20
2163.884350995957
 30
0.0
 40
48.51116625310172
  1
品番：NF75-200VSS
100
AcDbText
  0
LINE
  5
3591
330
1D9
100
AcDbEntity
  8
0
100
AcDbLine
 10
80.0
 20
2450.0
 30
0.0
 11
3990.0
 21
2450.0
 31
0.0
  0
LINE
  5
3592
330
1D9
100
AcDbEntity
  8
0
100
AcDbLine
 10
3990.607053980438
 20
1225.955334987593
 30
0.0
 11
80.60705398043863
 21
1225.955334987593
 31
0.0
  0
LINE
  5
359E
330
1D9
100
AcDbEntity
  8
0
100
AcDbLine
 10
3990.0
 20
0.0
 30
0.0
 11
80.0
 21
0.0
 31
0.0
  0
LINE
  5
359F
330
1D9
100
AcDbEntity
  8
0
100
AcDbLine
 10
80.0
 20
2840.0
 30
0.0
 11
3990.0
 21
2840.0
 31
0.0
  0
TEXT
  5
35A0
330
1D9
100
AcDbEntity
  8
0
100
AcDbText
 10
195.1116189770246
 20
2608.88260459352
 30
0.0
 40
67.91563275434242
  1
フレキベンダーＶＰ 〔偏芯量：200mm　挿口×挿口〕
100
AcDbText
  0
LINE
  5
35A1
330
1D9
100
AcDbEntity
  8
0
100
AcDbLine
 10
80.0
 20
0.0
 30
0.0
 11
80.0
 21
2840.0
 31
0.0
  0
TEXT
  5
35A6
330
1D9
100
AcDbEntity
  8
0
100
AcDbText
 10
3180.821209423855
 20
2236.557048802669
 30
0.0
 40
48.51116625310172
  1
呼び径：125
100
AcDbText
  0
TEXT
  5
35A7
330
1D9
100
AcDbEntity
  8
0
100
AcDbText
 10
3022.534914062708
 20
2163.884350995957
 30
0.0
 40
48.51116625310172
  1
品番：NF125-200VSS
100
AcDbText
  0
LINE
  5
35F1
330
1D9
100
AcDbEntity
  8
0
100
AcDbLine
 10
1384.0
 20
2450.0
 30
0.0
 11
1384.0
 21
1225.955334987593
 31
0.0
  0
LINE
  5
372B
330
1D9
100
AcDbEntity
  8
0
100
AcDbLine
 10
3990.0
 20
2840.0
 30
0.0
 11
3990.0
 21
0.0
 31
0.0
  0
TEXT
  5
3730
330
1D9
100
AcDbEntity
  8
0
100
AcDbText
 10
2824.72649054422
 20
1012.512383790262
 30
0.0
 40
48.51116625310172
  1
呼び径：200
100
AcDbText
  0
TEXT
  5
3731
330
1D9
100
AcDbEntity
  8
0
100
AcDbText
 10
2666.440195183075
 20
939.839685983552
 30
0.0
 40
48.51116625310172
  1
品番：NF200-200VSS
100
AcDbText
  0
TEXT
  5
3732
330
1D9
100
AcDbEntity
  8
0
100
AcDbText
 10
1859.815885158945
 20
2236.557048802669
 30
0.0
 40
48.51116625310172
  1
呼び径：100
100
AcDbText
  0
TEXT
  5
3733
330
1D9
100
AcDbEntity
  8
0
100
AcDbText
 10
1701.529589797798
 20
2163.884350995957
 30
0.0
 40
48.51116625310172
  1
品番：NF100-200VSS
100
AcDbText
  0
LINE
  5
373B
330
1D9
100
AcDbEntity
  8
0
100
AcDbLine
 10
2687.0
 20
2450.0
 30
0.0
 11
2687.0
 21
1225.955334987593
 31
0.0
  0
TEXT
  5
37AC
330
1D9
100
AcDbEntity
  8
0
100
AcDbText
 10
2859.582929673814
 20
2512.619782322264
 30
0.0
 40
48.51116625310172
  1
接合方式：接着接合
100
AcDbText
  0
TEXT
  5
37ED
330
1D9
100
AcDbEntity
  8
0
100
AcDbText
 10
2859.582929673814
 20
2619.829270159938
 30
0.0
 40
48.51116625310172
  1
最高使用圧力：大気圧（自然流下）
100
AcDbText
  0
TEXT
  5
381D
330
1D9
100
AcDbEntity
  8
0
100
AcDbText
 10
2859.582929673814
 20
2727.993337267484
 30
0.0
 40
48.51116625310172
  1
材質：U-PVC
100
AcDbText
  0
LINE
  5
3ED1
330
1D9
100
AcDbEntity
  8
0
100
AcDbLine
 10
873.2470000000002
 20
582.5
 30
0.0
 11
673.2500000000001
 21
582.5
 31
0.0
  0
LINE
  5
3ED2
330
1D9
100
AcDbEntity
  8
0
100
AcDbLine
 10
873.2470000000002
 20
417.4999999999998
 30
0.0
 11
673.2500000000001
 21
417.4999999999998
 31
0.0
  0
LINE
  5
3ED3
330
1D9
100
AcDbEntity
  8
0
100
AcDbLine
 10
410.698
 20
500.0
 30
0.0
 11
1239.25
 21
500.0
 31
0.0
  0
LINE
  5
3ED7
330
1D9
100
AcDbEntity
  8
0
100
AcDbLine
 10
667.0329999999998
 20
601.0
 30
0.0
 11
667.0329999999998
 21
500.0
 31
0.0
  0
LINE
  5
3ED8
330
1D9
100
AcDbEntity
  8
0
100
AcDbLine
 10
673.2500000000001
 20
500.0
 30
0.0
 11
673.2500000000001
 21
601.0
 31
0.0
  0
ARC
  5
3ED9
330
1D9
100
AcDbEntity
  8
0
100
AcDbCircle
 10
633.2500000000001
 20
500.0
 30
0.0
 40
106.4999999999999
100
AcDbArc
 50
71.50600000000356
 51
129.2269999999935
  0
LINE
  5
3EDA
330
1D9
100
AcDbEntity
  8
0
100
AcDbLine
 10
565.8999999999999
 20
417.4999999999998
 30
0.0
 11
444.2499999999998
 21
417.4999999999998
 31
0.0
  0
LINE
  5
3EDB
330
1D9
100
AcDbEntity
  8
0
100
AcDbLine
 10
565.8999999999999
 20
582.5
 30
0.0
 11
444.2499999999998
 21
582.5
 31
0.0
  0
LINE
  5
3EDC
330
1D9
100
AcDbEntity
  8
0
100
AcDbLine
 10
444.2499999999998
 20
582.5
 30
0.0
 11
444.2499999999998
 21
500.0
 31
0.0
  0
LINE
  5
3EDD
330
1D9
100
AcDbEntity
  8
0
100
AcDbLine
 10
433.25
 20
579.5529999999997
 30
0.0
 11
433.25
 21
500.0
 31
0.0
  0
LINE
  5
3EDE
330
1D9
100
AcDbEntity
  8
0
100
AcDbLine
 10
444.2499999999998
 20
417.4999999999998
 30
0.0
 11
444.2499999999998
 21
500.0
 31
0.0
  0
LINE
  5
3EDF
330
1D9
100
AcDbEntity
  8
0
100
AcDbLine
 10
433.25
 20
420.4479999999998
 30
0.0
 11
433.25
 21
500.0
 31
0.0
  0
LINE
  5
3EE0
330
1D9
100
AcDbEntity
  8
0
100
AcDbLine
 10
433.25
 20
420.4479999999998
 30
0.0
 11
444.2499999999998
 21
417.4999999999998
 31
0.0
  0
LINE
  5
3EE1
330
1D9
100
AcDbEntity
  8
0
100
AcDbLine
 10
433.25
 20
579.5529999999997
 30
0.0
 11
444.2499999999998
 21
582.5
 31
0.0
  0
LINE
  5
3EE2
330
1D9
100
AcDbEntity
  8
0
100
AcDbLine
 10
667.0329999999998
 20
399.0
 30
0.0
 11
667.0329999999998
 21
500.0
 31
0.0
  0
LINE
  5
3EE3
330
1D9
100
AcDbEntity
  8
0
100
AcDbLine
 10
673.2500000000001
 20
500.0
 30
0.0
 11
673.2500000000001
 21
399.0
 31
0.0
  0
ARC
  5
3EE4
330
1D9
100
AcDbEntity
  8
0
100
AcDbCircle
 10
633.2500000000001
 20
500.0
 30
0.0
 40
106.4999999999999
100
AcDbArc
 50
230.7730000000062
 51
288.4939999999963
  0
LINE
  5
3EE5
330
1D9
100
AcDbEntity
  8
0
100
AcDbLine
 10
667.0329999999998
 20
399.0
 30
0.0
 11
673.2500000000001
 21
399.0
 31
0.0
  0
LINE
  5
3EE6
330
1D9
100
AcDbEntity
  8
0
100
AcDbLine
 10
565.8999999999999
 20
582.5
 30
0.0
 11
565.8999999999999
 21
500.0
 31
0.0
  0
LINE
  5
3EE7
330
1D9
100
AcDbEntity
  8
0
100
AcDbLine
 10
565.8999999999999
 20
417.4999999999998
 30
0.0
 11
565.8999999999999
 21
500.0
 31
0.0
  0
LINE
  5
3EE8
330
1D9
100
AcDbEntity
  8
0
100
AcDbLine
 10
633.2500000000001
 20
525.0
 30
0.0
 11
633.2500000000001
 21
475.0
 31
0.0
  0
LINE
  5
3EF0
330
1D9
100
AcDbEntity
  8
0
100
AcDbLine
 10
667.0329999999998
 20
601.0
 30
0.0
 11
673.2500000000001
 21
601.0
 31
0.0
  0
LINE
  5
3EFD
330
1D9
100
AcDbEntity
  8
0
100
AcDbLine
 10
873.2470000000002
 20
608.0
 30
0.0
 11
873.2470000000002
 21
500.0
 31
0.0
  0
LINE
  5
3EFE
330
1D9
100
AcDbEntity
  8
0
100
AcDbLine
 10
1239.25
 20
614.5
 30
0.0
 11
1239.25
 21
500.0
 31
0.0
  0
LINE
  5
3EFF
330
1D9
100
AcDbEntity
  8
0
100
AcDbLine
 10
1117.25
 20
614.5
 30
0.0
 11
1117.25
 21
500.0
 31
0.0
  0
LINE
  5
3F00
330
1D9
100
AcDbEntity
  8
0
100
AcDbLine
 10
1239.25
 20
603.2139999999998
 30
0.0
 11
1261.49
 21
560.5
 31
0.0
  0
LINE
  5
3F01
330
1D9
100
AcDbEntity
  8
0
100
AcDbLine
 10
1239.25
 20
500.0
 30
0.0
 11
1275.249999999998
 21
476.0
 31
0.0
  0
LINE
  5
3F02
330
1D9
100
AcDbEntity
  8
0
100
AcDbLine
 10
1239.25
 20
391.5
 30
0.0
 11
1275.249999999998
 21
391.5
 31
0.0
  0
LINE
  5
3F03
330
1D9
100
AcDbEntity
  8
0
100
AcDbLine
 10
873.2470000000002
 20
392.0
 30
0.0
 11
1117.25
 21
392.0
 31
0.0
  0
LINE
  5
3F04
330
1D9
100
AcDbEntity
  8
0
100
AcDbLine
 10
873.2470000000002
 20
392.0
 30
0.0
 11
873.2470000000002
 21
500.0
 31
0.0
  0
LINE
  5
3F05
330
1D9
100
AcDbEntity
  8
0
100
AcDbLine
 10
1239.25
 20
385.5
 30
0.0
 11
1239.25
 21
500.0
 31
0.0
  0
LINE
  5
3F06
330
1D9
100
AcDbEntity
  8
0
100
AcDbLine
 10
1117.25
 20
385.5
 30
0.0
 11
1117.25
 21
500.0
 31
0.0
  0
LINE
  5
3F07
330
1D9
100
AcDbEntity
  8
0
100
AcDbLine
 10
1117.25
 20
385.5
 30
0.0
 11
1239.25
 21
385.5
 31
0.0
  0
LINE
  5
3F08
330
1D9
100
AcDbEntity
  8
0
100
AcDbLine
 10
1275.249999999998
 20
476.0
 30
0.0
 11
1706.439999999999
 21
476.0
 31
0.0
  0
ARC
  5
3F09
330
1D9
100
AcDbEntity
  8
0
100
AcDbCircle
 10
1482.25
 20
476.0
 30
0.0
 40
106.4999999999999
100
AcDbArc
 50
71.50600000000356
 51
129.2269999999935
  0
ARC
  5
3F0A
330
1D9
100
AcDbEntity
  8
0
100
AcDbCircle
 10
1482.25
 20
476.0
 30
0.0
 40
106.4999999999999
100
AcDbArc
 50
230.7730000000062
 51
288.4939999999963
  0
LINE
  5
3F0B
330
1D9
100
AcDbEntity
  8
0
100
AcDbLine
 10
1414.9
 20
558.4999999999999
 30
0.0
 11
1414.9
 21
393.5
 31
0.0
  0
LINE
  5
3F0C
330
1D9
100
AcDbEntity
  8
0
100
AcDbLine
 10
1275.249999999998
 20
387.0
 30
0.0
 11
1275.249999999998
 21
476.0
 31
0.0
  0
LINE
  5
3F0D
330
1D9
100
AcDbEntity
  8
0
100
AcDbLine
 10
1362.25
 20
387.0
 30
0.0
 11
1362.25
 21
476.0
 31
0.0
  0
LINE
  5
3F0E
330
1D9
100
AcDbEntity
  8
0
100
AcDbLine
 10
1414.9
 20
393.5
 30
0.0
 11
1362.25
 21
393.5
 31
0.0
  0
LINE
  5
3F0F
330
1D9
100
AcDbEntity
  8
0
100
AcDbLine
 10
1275.249999999998
 20
387.0
 30
0.0
 11
1362.25
 21
387.0
 31
0.0
  0
LINE
  5
3F10
330
1D9
100
AcDbEntity
  8
0
100
AcDbLine
 10
1414.9
 20
558.4999999999999
 30
0.0
 11
1362.25
 21
558.4999999999999
 31
0.0
  0
LINE
  5
3F11
330
1D9
100
AcDbEntity
  8
0
100
AcDbLine
 10
1261.49
 20
560.5
 30
0.0
 11
1261.49
 21
415.5169999999998
 31
0.0
  0
LINE
  5
3F12
330
1D9
100
AcDbEntity
  8
0
100
AcDbLine
 10
1275.249999999998
 20
565.0
 30
0.0
 11
1275.249999999998
 21
476.0
 31
0.0
  0
LINE
  5
3F13
330
1D9
100
AcDbEntity
  8
0
100
AcDbLine
 10
1362.25
 20
565.0
 30
0.0
 11
1362.25
 21
476.0
 31
0.0
  0
LINE
  5
3F14
330
1D9
100
AcDbEntity
  8
0
100
AcDbLine
 10
1275.249999999998
 20
565.0
 30
0.0
 11
1362.25
 21
565.0
 31
0.0
  0
LINE
  5
3F15
330
1D9
100
AcDbEntity
  8
0
100
AcDbLine
 10
1261.49
 20
560.5
 30
0.0
 11
1275.249999999998
 21
560.5
 31
0.0
  0
LINE
  5
3F16
330
1D9
100
AcDbEntity
  8
0
100
AcDbLine
 10
1482.25
 20
501.0
 30
0.0
 11
1482.25
 21
451.0
 31
0.0
  0
LINE
  5
3F17
330
1D9
100
AcDbEntity
  8
0
100
AcDbLine
 10
1672.25
 20
393.5
 30
0.0
 11
1672.25
 21
476.0
 31
0.0
  0
LINE
  5
3F18
330
1D9
100
AcDbEntity
  8
0
100
AcDbLine
 10
1683.25
 20
396.4479999999998
 30
0.0
 11
1683.25
 21
476.0
 31
0.0
  0
LINE
  5
3F19
330
1D9
100
AcDbEntity
  8
0
100
AcDbLine
 10
1516.029999999999
 20
577.0
 30
0.0
 11
1516.029999999999
 21
375.0
 31
0.0
  0
LINE
  5
3F1A
330
1D9
100
AcDbEntity
  8
0
100
AcDbLine
 10
1522.25
 20
476.0
 30
0.0
 11
1522.25
 21
375.0
 31
0.0
  0
LINE
  5
3F1B
330
1D9
100
AcDbEntity
  8
0
100
AcDbLine
 10
1522.25
 20
393.5
 30
0.0
 11
1672.25
 21
393.5
 31
0.0
  0
LINE
  5
3F1C
330
1D9
100
AcDbEntity
  8
0
100
AcDbLine
 10
1516.029999999999
 20
375.0
 30
0.0
 11
1522.25
 21
375.0
 31
0.0
  0
LINE
  5
3F1D
330
1D9
100
AcDbEntity
  8
0
100
AcDbLine
 10
1683.25
 20
396.4479999999998
 30
0.0
 11
1672.25
 21
393.5
 31
0.0
  0
LINE
  5
3F1E
330
1D9
100
AcDbEntity
  8
0
100
AcDbLine
 10
1522.25
 20
558.4999999999999
 30
0.0
 11
1672.25
 21
558.4999999999999
 31
0.0
  0
LINE
  5
3F1F
330
1D9
100
AcDbEntity
  8
0
100
AcDbLine
 10
1522.25
 20
476.0
 30
0.0
 11
1522.25
 21
577.0
 31
0.0
  0
LINE
  5
3F20
330
1D9
100
AcDbEntity
  8
0
100
AcDbLine
 10
1516.029999999999
 20
577.0
 30
0.0
 11
1522.25
 21
577.0
 31
0.0
  0
LINE
  5
3F21
330
1D9
100
AcDbEntity
  8
0
100
AcDbLine
 10
1672.25
 20
558.4999999999999
 30
0.0
 11
1672.25
 21
476.0
 31
0.0
  0
LINE
  5
3F22
330
1D9
100
AcDbEntity
  8
0
100
AcDbLine
 10
1683.25
 20
555.5529999999999
 30
0.0
 11
1683.25
 21
476.0
 31
0.0
  0
LINE
  5
3F23
330
1D9
100
AcDbEntity
  8
0
100
AcDbLine
 10
1683.25
 20
555.5529999999999
 30
0.0
 11
1672.25
 21
558.4999999999999
 31
0.0
  0
LINE
  5
3F2F
330
1D9
100
AcDbEntity
  8
0
100
AcDbLine
 10
873.2470000000002
 20
608.0
 30
0.0
 11
1117.25
 21
608.0
 31
0.0
  0
LINE
  5
3F32
330
1D9
100
AcDbEntity
  8
0
100
AcDbLine
 10
1117.25
 20
614.5
 30
0.0
 11
1239.25
 21
614.5
 31
0.0
  0
LINE
  5
3F52
330
1D9
100
AcDbEntity
  8
0
100
AcDbLine
 10
2336.949
 20
500.0
 30
0.0
 11
3088.75
 21
500.0
 31
0.0
  0
ARC
  5
3F53
330
1D9
100
AcDbEntity
  8
0
100
AcDbCircle
 10
2607.75
 20
500.0
 30
0.0
 40
137.7499999999999
100
AcDbArc
 50
231.6309999999961
 51
288.6719999999998
  0
ARC
  5
3F54
330
1D9
100
AcDbEntity
  8
0
100
AcDbCircle
 10
2607.75
 20
500.0
 30
0.0
 40
137.7499999999999
100
AcDbArc
 50
71.32829999999954
 51
128.3690000000038
  0
LINE
  5
3F5C
330
1D9
100
AcDbEntity
  8
0
100
AcDbLine
 10
2374.75
 20
392.0
 30
0.0
 11
2522.244999999999
 21
392.0
 31
0.0
  0
LINE
  5
3F5D
330
1D9
100
AcDbEntity
  8
0
100
AcDbLine
 10
2374.75
 20
608.0
 30
0.0
 11
2522.244999999999
 21
608.0
 31
0.0
  0
LINE
  5
3F5E
330
1D9
100
AcDbEntity
  8
0
100
AcDbLine
 10
2374.75
 20
392.0
 30
0.0
 11
2374.75
 21
500.0
 31
0.0
  0
LINE
  5
3F5F
330
1D9
100
AcDbEntity
  8
0
100
AcDbLine
 10
2362.75
 20
500.0
 30
0.0
 11
2362.75
 21
395.0
 31
0.0
  0
LINE
  5
3F60
330
1D9
100
AcDbEntity
  8
0
100
AcDbLine
 10
2362.75
 20
395.0
 30
0.0
 11
2374.75
 21
392.0
 31
0.0
  0
LINE
  5
3F61
330
1D9
100
AcDbEntity
  8
0
100
AcDbLine
 10
2374.75
 20
608.0
 30
0.0
 11
2374.75
 21
500.0
 31
0.0
  0
LINE
  5
3F62
330
1D9
100
AcDbEntity
  8
0
100
AcDbLine
 10
2362.75
 20
500.0
 30
0.0
 11
2362.75
 21
605.0
 31
0.0
  0
LINE
  5
3F63
330
1D9
100
AcDbEntity
  8
0
100
AcDbLine
 10
2362.75
 20
605.0
 30
0.0
 11
2374.75
 21
608.0
 31
0.0
  0
LINE
  5
3F64
330
1D9
100
AcDbEntity
  8
0
100
AcDbLine
 10
2522.244999999999
 20
392.0
 30
0.0
 11
2522.244999999999
 21
500.0
 31
0.0
  0
LINE
  5
3F65
330
1D9
100
AcDbEntity
  8
0
100
AcDbLine
 10
2522.244999999999
 20
608.0
 30
0.0
 11
2522.244999999999
 21
500.0
 31
0.0
  0
LINE
  5
3F66
330
1D9
100
AcDbEntity
  8
0
100
AcDbLine
 10
2607.75
 20
525.0
 30
0.0
 11
2607.75
 21
475.0
 31
0.0
  0
LINE
  5
3F7D
330
1D9
100
AcDbEntity
  8
0
100
AcDbLine
 10
3153.029999999999
 20
475.4999999999998
 30
0.0
 11
3687.73
 21
475.4999999999998
 31
0.0
  0
LINE
  5
3F7F
330
1D9
100
AcDbEntity
  8
0
100
AcDbLine
 10
3153.029999999999
 20
366.5
 30
0.0
 11
3177.929999999999
 21
360.1499999999996
 31
0.0
  0
LINE
  5
3F80
330
1D9
100
AcDbEntity
  8
0
100
AcDbLine
 10
3153.029999999999
 20
584.4999999999998
 30
0.0
 11
3177.929999999999
 21
590.8499999999993
 31
0.0
  0
LINE
  5
3F82
330
1D9
100
AcDbEntity
  8
0
100
AcDbLine
 10
2908.746999999999
 20
369.5
 30
0.0
 11
2920.747
 21
366.5
 31
0.0
  0
LINE
  5
3F83
330
1D9
100
AcDbEntity
  8
0
100
AcDbLine
 10
2908.746999999999
 20
630.4999999999998
 30
0.0
 11
2920.747
 21
633.4999999999999
 31
0.0
  0
LINE
  5
3F84
330
1D9
100
AcDbEntity
  8
0
100
AcDbLine
 10
2908.746999999999
 20
374.2999999999991
 30
0.0
 11
2908.746999999999
 21
500.0
 31
0.0
  0
LINE
  5
3F85
330
1D9
100
AcDbEntity
  8
0
100
AcDbLine
 10
2651.85
 20
369.5
 30
0.0
 11
2651.85
 21
500.0
 31
0.0
  0
LINE
  5
3F86
330
1D9
100
AcDbEntity
  8
0
100
AcDbLine
 10
2662.75
 20
369.5
 30
0.0
 11
2662.75
 21
500.0
 31
0.0
  0
LINE
  5
3F87
330
1D9
100
AcDbEntity
  8
0
100
AcDbLine
 10
2662.75
 20
392.0
 30
0.0
 11
2908.746999999999
 21
392.0
 31
0.0
  0
LINE
  5
3F88
330
1D9
100
AcDbEntity
  8
0
100
AcDbLine
 10
2651.85
 20
369.5
 30
0.0
 11
2662.75
 21
369.5
 31
0.0
  0
LINE
  5
3F89
330
1D9
100
AcDbEntity
  8
0
100
AcDbLine
 10
2908.746999999999
 20
369.5
 30
0.0
 11
2908.746999999999
 21
374.2999999999991
 31
0.0
  0
LINE
  5
3F8A
330
1D9
100
AcDbEntity
  8
0
100
AcDbLine
 10
2662.75
 20
608.0
 30
0.0
 11
2908.746999999999
 21
608.0
 31
0.0
  0
LINE
  5
3F8B
330
1D9
100
AcDbEntity
  8
0
100
AcDbLine
 10
2651.85
 20
630.4999999999998
 30
0.0
 11
2651.85
 21
500.0
 31
0.0
  0
LINE
  5
3F8C
330
1D9
100
AcDbEntity
  8
0
100
AcDbLine
 10
2662.75
 20
630.4999999999998
 30
0.0
 11
2662.75
 21
500.0
 31
0.0
  0
LINE
  5
3F8D
330
1D9
100
AcDbEntity
  8
0
100
AcDbLine
 10
2651.85
 20
630.4999999999998
 30
0.0
 11
2662.75
 21
630.4999999999998
 31
0.0
  0
LINE
  5
3F8E
330
1D9
100
AcDbEntity
  8
0
100
AcDbLine
 10
2908.746999999999
 20
625.6999999999997
 30
0.0
 11
2908.746999999999
 21
500.0
 31
0.0
  0
LINE
  5
3F8F
330
1D9
100
AcDbEntity
  8
0
100
AcDbLine
 10
2908.746999999999
 20
630.4999999999998
 30
0.0
 11
2908.746999999999
 21
625.6999999999997
 31
0.0
  0
LINE
  5
3F90
330
1D9
100
AcDbEntity
  8
0
100
AcDbLine
 10
3137.17
 20
584.4999999999998
 30
0.0
 11
3137.17
 21
384.2999999999991
 31
0.0
  0
LINE
  5
3F91
330
1D9
100
AcDbEntity
  8
0
100
AcDbLine
 10
3153.029999999999
 20
366.5
 30
0.0
 11
3153.029999999999
 21
584.4999999999998
 31
0.0
  0
LINE
  5
3F92
330
1D9
100
AcDbEntity
  8
0
100
AcDbLine
 10
3088.75
 20
625.6999999999997
 30
0.0
 11
3088.75
 21
384.2999999999991
 31
0.0
  0
LINE
  5
3F93
330
1D9
100
AcDbEntity
  8
0
100
AcDbLine
 10
2920.747
 20
366.5
 30
0.0
 11
3153.029999999999
 21
366.5
 31
0.0
  0
LINE
  5
3F94
330
1D9
100
AcDbEntity
  8
0
100
AcDbLine
 10
2920.747
 20
633.4999999999999
 30
0.0
 11
3092.17
 21
633.4999999999999
 31
0.0
  0
LINE
  5
3F95
330
1D9
100
AcDbEntity
  8
0
100
AcDbLine
 10
3088.75
 20
500.0
 30
0.0
 11
3153.029999999999
 21
475.4999999999998
 31
0.0
  0
LINE
  5
3F96
330
1D9
100
AcDbEntity
  8
0
100
AcDbLine
 10
3092.17
 20
633.4999999999999
 30
0.0
 11
3137.17
 21
584.4999999999998
 31
0.0
  0
LINE
  5
3F97
330
1D9
100
AcDbEntity
  8
0
100
AcDbLine
 10
3137.17
 20
584.4999999999998
 30
0.0
 11
3153.029999999999
 21
584.4999999999998
 31
0.0
  0
ARC
  5
3FA0
330
1D9
100
AcDbEntity
  8
0
100
AcDbCircle
 10
3423.75
 20
475.4999999999998
 30
0.0
 40
137.7499999999999
100
AcDbArc
 50
231.6309999999961
 51
288.6719999999998
  0
ARC
  5
3FA1
330
1D9
100
AcDbEntity
  8
0
100
AcDbCircle
 10
3423.75
 20
475.4999999999998
 30
0.0
 40
137.7499999999999
100
AcDbArc
 50
71.32829999999954
 51
128.3690000000038
  0
LINE
  5
3FA2
330
1D9
100
AcDbEntity
  8
0
100
AcDbLine
 10
3423.75
 20
500.4999999999998
 30
0.0
 11
3423.75
 21
450.4999999999998
 31
0.0
  0
LINE
  5
3FA3
330
1D9
100
AcDbEntity
  8
0
100
AcDbLine
 10
3177.929999999999
 20
590.8499999999993
 30
0.0
 11
3177.929999999999
 21
360.1499999999996
 31
0.0
  0
LINE
  5
3FA4
330
1D9
100
AcDbEntity
  8
0
100
AcDbLine
 10
3338.239999999998
 20
583.4999999999999
 30
0.0
 11
3338.239999999998
 21
367.5
 31
0.0
  0
LINE
  5
3FA5
330
1D9
100
AcDbEntity
  8
0
100
AcDbLine
 10
3258.75
 20
590.8499999999993
 30
0.0
 11
3258.75
 21
360.1499999999996
 31
0.0
  0
LINE
  5
3FA6
330
1D9
100
AcDbEntity
  8
0
100
AcDbLine
 10
3258.75
 20
367.5
 30
0.0
 11
3338.239999999998
 21
367.5
 31
0.0
  0
LINE
  5
3FA7
330
1D9
100
AcDbEntity
  8
0
100
AcDbLine
 10
3177.929999999999
 20
360.1499999999996
 30
0.0
 11
3258.75
 21
360.1499999999996
 31
0.0
  0
LINE
  5
3FA8
330
1D9
100
AcDbEntity
  8
0
100
AcDbLine
 10
3258.75
 20
583.4999999999999
 30
0.0
 11
3338.239999999998
 21
583.4999999999999
 31
0.0
  0
LINE
  5
3FA9
330
1D9
100
AcDbEntity
  8
0
100
AcDbLine
 10
3177.929999999999
 20
590.8499999999993
 30
0.0
 11
3258.75
 21
590.8499999999993
 31
0.0
  0
LINE
  5
3FAA
330
1D9
100
AcDbEntity
  8
0
100
AcDbLine
 10
3650.75
 20
367.5
 30
0.0
 11
3650.75
 21
475.4999999999998
 31
0.0
  0
LINE
  5
3FAB
330
1D9
100
AcDbEntity
  8
0
100
AcDbLine
 10
3662.749999999999
 20
475.4999999999998
 30
0.0
 11
3662.749999999999
 21
370.5
 31
0.0
  0
LINE
  5
3FAC
330
1D9
100
AcDbEntity
  8
0
100
AcDbLine
 10
3467.85
 20
345.0
 30
0.0
 11
3467.85
 21
606.0
 31
0.0
  0
LINE
  5
3FAD
330
1D9
100
AcDbEntity
  8
0
100
AcDbLine
 10
3478.75
 20
345.0
 30
0.0
 11
3478.75
 21
475.4999999999998
 31
0.0
  0
LINE
  5
3FAE
330
1D9
100
AcDbEntity
  8
0
100
AcDbLine
 10
3650.75
 20
367.5
 30
0.0
 11
3478.75
 21
367.5
 31
0.0
  0
LINE
  5
3FAF
330
1D9
100
AcDbEntity
  8
0
100
AcDbLine
 10
3467.85
 20
345.0
 30
0.0
 11
3478.75
 21
345.0
 31
0.0
  0
LINE
  5
3FB0
330
1D9
100
AcDbEntity
  8
0
100
AcDbLine
 10
3662.749999999999
 20
370.5
 30
0.0
 11
3650.75
 21
367.5
 31
0.0
  0
LINE
  5
3FB1
330
1D9
100
AcDbEntity
  8
0
100
AcDbLine
 10
3650.75
 20
583.4999999999999
 30
0.0
 11
3478.75
 21
583.4999999999999
 31
0.0
  0
LINE
  5
3FB2
330
1D9
100
AcDbEntity
  8
0
100
AcDbLine
 10
3478.75
 20
606.0
 30
0.0
 11
3478.75
 21
475.4999999999998
 31
0.0
  0
LINE
  5
3FB3
330
1D9
100
AcDbEntity
  8
0
100
AcDbLine
 10
3467.85
 20
606.0
 30
0.0
 11
3478.75
 21
606.0
 31
0.0
  0
LINE
  5
3FB4
330
1D9
100
AcDbEntity
  8
0
100
AcDbLine
 10
3650.75
 20
583.4999999999999
 30
0.0
 11
3650.75
 21
475.4999999999998
 31
0.0
  0
LINE
  5
3FB5
330
1D9
100
AcDbEntity
  8
0
100
AcDbLine
 10
3662.749999999999
 20
475.4999999999998
 30
0.0
 11
3662.749999999999
 21
580.4999999999998
 31
0.0
  0
LINE
  5
3FB6
330
1D9
100
AcDbEntity
  8
0
100
AcDbLine
 10
3662.749999999999
 20
580.4999999999998
 30
0.0
 11
3650.75
 21
583.4999999999999
 31
0.0
  0
ARC
  5
3FD0
330
1D9
100
AcDbEntity
  8
0
100
AcDbCircle
 10
2445.5
 20
1713.955334987593
 30
0.0
 40
76.5
100
AcDbArc
 50
228.1679999999993
 51
290.2970000000028
  0
LINE
  5
3FD5
330
1D9
100
AcDbEntity
  8
0
100
AcDbLine
 10
248.6399999999999
 20
1722.455334987593
 30
0.0
 11
1055.5
 21
1722.455334987593
 31
0.0
  0
LINE
  5
3FD6
330
1D9
100
AcDbEntity
  8
0
100
AcDbLine
 10
1005.5
 20
1660.955334987593
 30
0.0
 11
1055.5
 21
1660.955334987593
 31
0.0
  0
LINE
  5
3FD7
330
1D9
100
AcDbEntity
  8
0
100
AcDbLine
 10
1005.5
 20
1783.955334987593
 30
0.0
 11
1055.5
 21
1783.955334987593
 31
0.0
  0
LINE
  5
3FDA
330
1D9
100
AcDbEntity
  8
0
100
AcDbLine
 10
299.4999999999998
 20
1677.955334987593
 30
0.0
 11
649.5
 21
1677.955334987593
 31
0.0
  0
LINE
  5
3FDB
330
1D9
100
AcDbEntity
  8
0
100
AcDbLine
 10
299.4999999999998
 20
1766.955334987593
 30
0.0
 11
649.5
 21
1766.955334987593
 31
0.0
  0
LINE
  5
3FDF
330
1D9
100
AcDbEntity
  8
0
100
AcDbLine
 10
182.3999999999999
 20
1725.955334987593
 30
0.0
 11
239.09
 21
1725.955334987593
 31
0.0
  0
LINE
  5
3FE0
330
1D9
100
AcDbEntity
  8
0
100
AcDbLine
 10
239.09
 20
1681.455334987592
 30
0.0
 11
198.4999999999999
 21
1681.455334987592
 31
0.0
  0
LINE
  5
3FE1
330
1D9
100
AcDbEntity
  8
0
100
AcDbLine
 10
248.6399999999999
 20
1770.455334987593
 30
0.0
 11
198.4999999999999
 21
1770.455334987593
 31
0.0
  0
LINE
  5
3FE2
330
1D9
100
AcDbEntity
  8
0
100
AcDbLine
 10
197.4999999999998
 20
1682.455334987593
 30
0.0
 11
197.4999999999998
 21
1769.455334987593
 31
0.0
  0
LINE
  5
3FE3
330
1D9
100
AcDbEntity
  8
0
100
AcDbLine
 10
198.4999999999999
 20
1681.455334987592
 30
0.0
 11
197.4999999999998
 21
1682.455334987593
 31
0.0
  0
LINE
  5
3FE4
330
1D9
100
AcDbEntity
  8
0
100
AcDbLine
 10
198.4999999999999
 20
1770.455334987593
 30
0.0
 11
197.4999999999998
 21
1769.455334987593
 31
0.0
  0
LINE
  5
3FE5
330
1D9
100
AcDbEntity
  8
0
100
AcDbLine
 10
292.9699999999998
 20
1775.455334987593
 30
0.0
 11
292.9699999999998
 21
1669.455334987593
 31
0.0
  0
LINE
  5
3FE6
330
1D9
100
AcDbEntity
  8
0
100
AcDbLine
 10
248.6399999999999
 20
1770.455334987593
 30
0.0
 11
239.09
 21
1681.455334987592
 31
0.0
  0
LINE
  5
3FE7
330
1D9
100
AcDbEntity
  8
0
100
AcDbLine
 10
299.4999999999998
 20
1722.455334987593
 30
0.0
 11
299.4999999999998
 21
1669.455334987593
 31
0.0
  0
ARC
  5
3FE8
330
1D9
100
AcDbEntity
  8
0
100
AcDbCircle
 10
276.4999999999998
 20
1722.455334987593
 30
0.0
 40
55.5
100
AcDbArc
 50
227.6239999999936
 51
287.262999999999
  0
LINE
  5
3FE9
330
1D9
100
AcDbEntity
  8
0
100
AcDbLine
 10
299.4999999999998
 20
1669.455334987593
 30
0.0
 11
292.9699999999998
 21
1669.455334987593
 31
0.0
  0
ARC
  5
3FEA
330
1D9
100
AcDbEntity
  8
0
100
AcDbCircle
 10
276.4999999999998
 20
1722.455334987593
 30
0.0
 40
55.5
100
AcDbArc
 50
72.73740000000192
 51
120.1329999999998
  0
LINE
  5
3FEB
330
1D9
100
AcDbEntity
  8
0
100
AcDbLine
 10
239.09
 20
1725.955334987593
 30
0.0
 11
248.6399999999999
 21
1722.455334987593
 31
0.0
  0
LINE
  5
3FEC
330
1D9
100
AcDbEntity
  8
0
100
AcDbLine
 10
276.4999999999998
 20
1735.068334987593
 30
0.0
 11
276.4999999999998
 21
1710.603334987593
 31
0.0
  0
LINE
  5
3FED
330
1D9
100
AcDbEntity
  8
0
100
AcDbLine
 10
299.4999999999998
 20
1722.455334987593
 30
0.0
 11
299.4999999999998
 21
1775.455334987593
 31
0.0
  0
LINE
  5
3FEE
330
1D9
100
AcDbEntity
  8
0
100
AcDbLine
 10
299.4999999999998
 20
1775.455334987593
 30
0.0
 11
292.9699999999998
 21
1775.455334987593
 31
0.0
  0
LINE
  5
4003
330
1D9
100
AcDbEntity
  8
0
100
AcDbLine
 10
649.5
 20
1665.455334987592
 30
0.0
 11
1005.5
 21
1665.455334987592
 31
0.0
  0
LINE
  5
4004
330
1D9
100
AcDbEntity
  8
0
100
AcDbLine
 10
649.5
 20
1779.455334987592
 30
0.0
 11
1005.5
 21
1779.455334987592
 31
0.0
  0
LINE
  5
4005
330
1D9
100
AcDbEntity
  8
0
100
AcDbLine
 10
649.5
 20
1722.455334987593
 30
0.0
 11
649.5
 21
1665.455334987592
 31
0.0
  0
LINE
  5
4006
330
1D9
100
AcDbEntity
  8
0
100
AcDbLine
 10
649.5
 20
1722.455334987593
 30
0.0
 11
649.5
 21
1779.455334987592
 31
0.0
  0
LINE
  5
4007
330
1D9
100
AcDbEntity
  8
0
100
AcDbLine
 10
1005.5
 20
1722.455334987593
 30
0.0
 11
1005.5
 21
1660.955334987593
 31
0.0
  0
LINE
  5
4008
330
1D9
100
AcDbEntity
  8
0
100
AcDbLine
 10
1005.5
 20
1722.455334987593
 30
0.0
 11
1005.5
 21
1783.955334987593
 31
0.0
  0
LINE
  5
4107
330
1D9
100
AcDbEntity
  8
0
100
AcDbLine
 10
1147.499999999998
 20
1706.955334987593
 30
0.0
 11
1282.81
 21
1706.955334987593
 31
0.0
  0
LINE
  5
4108
330
1D9
100
AcDbEntity
  8
0
100
AcDbLine
 10
1129.719999999998
 20
1710.455334987593
 30
0.0
 11
1147.499999999998
 21
1706.955334987593
 31
0.0
  0
ARC
  5
4109
330
1D9
100
AcDbEntity
  8
0
100
AcDbCircle
 10
1169.499999999999
 20
1706.955334987593
 30
0.0
 40
55.5
100
AcDbArc
 50
227.6239999999936
 51
287.262999999999
  0
ARC
  5
410A
330
1D9
100
AcDbEntity
  8
0
100
AcDbCircle
 10
1169.499999999999
 20
1706.955334987593
 30
0.0
 40
55.5
100
AcDbArc
 50
72.73740000000192
 51
120.1329999999998
  0
LINE
  5
410B
330
1D9
100
AcDbEntity
  8
0
100
AcDbLine
 10
1132.089999999999
 20
1665.955334987593
 30
0.0
 11
1141.639999999999
 21
1754.955334987593
 31
0.0
  0
LINE
  5
410C
330
1D9
100
AcDbEntity
  8
0
100
AcDbLine
 10
1130.5
 20
1710.455334987593
 30
0.0
 11
1130.5
 21
1661.955334987593
 31
0.0
  0
LINE
  5
410D
330
1D9
100
AcDbEntity
  8
0
100
AcDbLine
 10
1070.569999999999
 20
1756.955334987593
 30
0.0
 11
1070.569999999999
 21
1676.313334987593
 31
0.0
  0
LINE
  5
410E
330
1D9
100
AcDbEntity
  8
0
100
AcDbLine
 10
1080.5
 20
1710.455334987593
 30
0.0
 11
1080.5
 21
1661.955334987593
 31
0.0
  0
LINE
  5
410F
330
1D9
100
AcDbEntity
  8
0
100
AcDbLine
 10
1055.5
 20
1722.455334987593
 30
0.0
 11
1055.5
 21
1660.955334987593
 31
0.0
  0
LINE
  5
4110
330
1D9
100
AcDbEntity
  8
0
100
AcDbLine
 10
1080.5
 20
1663.955334987593
 30
0.0
 11
1055.5
 21
1663.955334987593
 31
0.0
  0
LINE
  5
4111
330
1D9
100
AcDbEntity
  8
0
100
AcDbLine
 10
1080.5
 20
1661.955334987593
 30
0.0
 11
1130.5
 21
1661.955334987593
 31
0.0
  0
LINE
  5
4112
330
1D9
100
AcDbEntity
  8
0
100
AcDbLine
 10
1132.089999999999
 20
1665.955334987593
 30
0.0
 11
1130.5
 21
1665.955334987593
 31
0.0
  0
LINE
  5
4113
330
1D9
100
AcDbEntity
  8
0
100
AcDbLine
 10
1055.5
 20
1722.455334987593
 30
0.0
 11
1080.5
 21
1710.455334987593
 31
0.0
  0
LINE
  5
4114
330
1D9
100
AcDbEntity
  8
0
100
AcDbLine
 10
1080.5
 20
1756.955334987593
 30
0.0
 11
1070.569999999999
 21
1756.955334987593
 31
0.0
  0
LINE
  5
4115
330
1D9
100
AcDbEntity
  8
0
100
AcDbLine
 10
1055.5
 20
1722.455334987593
 30
0.0
 11
1055.5
 21
1783.955334987593
 31
0.0
  0
LINE
  5
4116
330
1D9
100
AcDbEntity
  8
0
100
AcDbLine
 10
1055.5
 20
1777.962334987592
 30
0.0
 11
1070.569999999999
 21
1756.955334987593
 31
0.0
  0
LINE
  5
4117
330
1D9
100
AcDbEntity
  8
0
100
AcDbLine
 10
1130.5
 20
1710.455334987593
 30
0.0
 11
1130.5
 21
1758.955334987593
 31
0.0
  0
LINE
  5
4118
330
1D9
100
AcDbEntity
  8
0
100
AcDbLine
 10
1080.5
 20
1710.455334987593
 30
0.0
 11
1080.5
 21
1758.955334987593
 31
0.0
  0
LINE
  5
4119
330
1D9
100
AcDbEntity
  8
0
100
AcDbLine
 10
1080.5
 20
1710.455334987593
 30
0.0
 11
1130.5
 21
1710.455334987593
 31
0.0
  0
LINE
  5
411A
330
1D9
100
AcDbEntity
  8
0
100
AcDbLine
 10
1080.5
 20
1758.955334987593
 30
0.0
 11
1130.5
 21
1758.955334987593
 31
0.0
  0
LINE
  5
411B
330
1D9
100
AcDbEntity
  8
0
100
AcDbLine
 10
1141.639999999999
 20
1754.955334987593
 30
0.0
 11
1130.5
 21
1754.955334987593
 31
0.0
  0
LINE
  5
411C
330
1D9
100
AcDbEntity
  8
0
100
AcDbLine
 10
1267.5
 20
1663.455334987593
 30
0.0
 11
1267.5
 21
1750.455334987593
 31
0.0
  0
LINE
  5
411D
330
1D9
100
AcDbEntity
  8
0
100
AcDbLine
 10
1185.969999999999
 20
1759.955334987592
 30
0.0
 11
1185.969999999999
 21
1653.955334987593
 31
0.0
  0
LINE
  5
411E
330
1D9
100
AcDbEntity
  8
0
100
AcDbLine
 10
1192.5
 20
1706.955334987593
 30
0.0
 11
1192.5
 21
1653.955334987593
 31
0.0
  0
LINE
  5
411F
330
1D9
100
AcDbEntity
  8
0
100
AcDbLine
 10
1169.499999999999
 20
1719.568334987593
 30
0.0
 11
1169.499999999999
 21
1695.103334987593
 31
0.0
  0
LINE
  5
4120
330
1D9
100
AcDbEntity
  8
0
100
AcDbLine
 10
1192.5
 20
1662.455334987593
 30
0.0
 11
1266.5
 21
1662.455334987593
 31
0.0
  0
LINE
  5
4121
330
1D9
100
AcDbEntity
  8
0
100
AcDbLine
 10
1192.5
 20
1653.955334987593
 30
0.0
 11
1185.969999999999
 21
1653.955334987593
 31
0.0
  0
LINE
  5
4122
330
1D9
100
AcDbEntity
  8
0
100
AcDbLine
 10
1266.5
 20
1662.455334987593
 30
0.0
 11
1267.5
 21
1663.455334987593
 31
0.0
  0
LINE
  5
4123
330
1D9
100
AcDbEntity
  8
0
100
AcDbLine
 10
1192.5
 20
1751.455334987593
 30
0.0
 11
1266.5
 21
1751.455334987593
 31
0.0
  0
LINE
  5
4124
330
1D9
100
AcDbEntity
  8
0
100
AcDbLine
 10
1192.5
 20
1706.955334987593
 30
0.0
 11
1192.5
 21
1759.955334987592
 31
0.0
  0
LINE
  5
4125
330
1D9
100
AcDbEntity
  8
0
100
AcDbLine
 10
1192.5
 20
1759.955334987592
 30
0.0
 11
1185.969999999999
 21
1759.955334987592
 31
0.0
  0
LINE
  5
4126
330
1D9
100
AcDbEntity
  8
0
100
AcDbLine
 10
1266.5
 20
1751.455334987593
 30
0.0
 11
1267.5
 21
1750.455334987593
 31
0.0
  0
LINE
  5
4130
330
1D9
100
AcDbEntity
  8
0
100
AcDbLine
 10
3557.5
 20
1725.965599524342
 30
0.0
 11
3573.5
 21
1714.465599524342
 31
0.0
  0
LINE
  5
4131
330
1D9
100
AcDbEntity
  8
0
100
AcDbLine
 10
3573.5
 20
1642.965599524341
 30
0.0
 11
3557.5
 21
1642.965599524341
 31
0.0
  0
LINE
  5
4132
330
1D9
100
AcDbEntity
  8
0
100
AcDbLine
 10
3573.5
 20
1785.965599524342
 30
0.0
 11
3569.409999999999
 21
1785.965599524342
 31
0.0
  0
LINE
  5
4133
330
1D9
100
AcDbEntity
  8
0
100
AcDbLine
 10
2279.5
 20
1725.955334987593
 30
0.0
 11
2297.5
 21
1713.955334987593
 31
0.0
  0
LINE
  5
4134
330
1D9
100
AcDbEntity
  8
0
100
AcDbLine
 10
2297.5
 20
1654.455334987592
 30
0.0
 11
2279.5
 21
1654.455334987592
 31
0.0
  0
LINE
  5
4135
330
1D9
100
AcDbEntity
  8
0
100
AcDbLine
 10
2297.5
 20
1773.455334987593
 30
0.0
 11
2291.859999999999
 21
1773.455334987593
 31
0.0
  0
LINE
  5
4139
330
1D9
100
AcDbEntity
  8
0
100
AcDbLine
 10
2733.74
 20
1725.965599524342
 30
0.0
 11
3557.5
 21
1725.965599524342
 31
0.0
  0
LINE
  5
413A
330
1D9
100
AcDbEntity
  8
0
100
AcDbLine
 10
2951.5
 20
1795.965599524341
 30
0.0
 11
3201.5
 21
1795.965599524341
 31
0.0
  0
LINE
  5
413B
330
1D9
100
AcDbEntity
  8
0
100
AcDbLine
 10
2951.5
 20
1655.965599524342
 30
0.0
 11
3201.5
 21
1655.965599524342
 31
0.0
  0
LINE
  5
413C
330
1D9
100
AcDbEntity
  8
0
100
AcDbLine
 10
1458.369999999999
 20
1725.955334987593
 30
0.0
 11
2279.5
 21
1725.955334987593
 31
0.0
  0
LINE
  5
413D
330
1D9
100
AcDbEntity
  8
0
100
AcDbLine
 10
1652.499999999999
 20
1668.955334987592
 30
0.0
 11
1952.5
 21
1668.955334987592
 31
0.0
  0
LINE
  5
413E
330
1D9
100
AcDbEntity
  8
0
100
AcDbLine
 10
1652.499999999999
 20
1782.955334987593
 30
0.0
 11
1952.5
 21
1782.955334987593
 31
0.0
  0
LINE
  5
4149
330
1D9
100
AcDbEntity
  8
0
100
AcDbLine
 10
1566.479999999999
 20
1668.955334987592
 30
0.0
 11
1482.499999999999
 21
1668.955334987592
 31
0.0
  0
LINE
  5
414A
330
1D9
100
AcDbEntity
  8
0
100
AcDbLine
 10
1566.479999999999
 20
1782.955334987593
 30
0.0
 11
1482.499999999999
 21
1782.955334987593
 31
0.0
  0
LINE
  5
414C
330
1D9
100
AcDbEntity
  8
0
100
AcDbLine
 10
1482.499999999999
 20
1668.955334987592
 30
0.0
 11
1482.499999999999
 21
1725.955334987593
 31
0.0
  0
LINE
  5
414D
330
1D9
100
AcDbEntity
  8
0
100
AcDbLine
 10
1475.499999999999
 20
1670.825334987593
 30
0.0
 11
1475.499999999999
 21
1725.955334987593
 31
0.0
  0
LINE
  5
414E
330
1D9
100
AcDbEntity
  8
0
100
AcDbLine
 10
1475.499999999999
 20
1670.825334987593
 30
0.0
 11
1482.499999999999
 21
1668.955334987592
 31
0.0
  0
LINE
  5
414F
330
1D9
100
AcDbEntity
  8
0
100
AcDbLine
 10
1482.499999999999
 20
1782.955334987593
 30
0.0
 11
1482.499999999999
 21
1725.955334987593
 31
0.0
  0
LINE
  5
4150
330
1D9
100
AcDbEntity
  8
0
100
AcDbLine
 10
1475.499999999999
 20
1781.075334987593
 30
0.0
 11
1475.499999999999
 21
1725.955334987593
 31
0.0
  0
LINE
  5
4151
330
1D9
100
AcDbEntity
  8
0
100
AcDbLine
 10
1475.499999999999
 20
1781.075334987593
 30
0.0
 11
1482.499999999999
 21
1782.955334987593
 31
0.0
  0
ARC
  5
4155
330
1D9
100
AcDbEntity
  8
0
100
AcDbCircle
 10
1617.5
 20
1725.955334987593
 30
0.0
 40
76.5
100
AcDbArc
 50
228.1679999999993
 51
290.2970000000028
  0
ARC
  5
4156
330
1D9
100
AcDbEntity
  8
0
100
AcDbCircle
 10
1617.5
 20
1725.955334987593
 30
0.0
 40
76.5
100
AcDbArc
 50
69.70319999999532
 51
131.8320000000007
  0
LINE
  5
4157
330
1D9
100
AcDbEntity
  8
0
100
AcDbLine
 10
1617.5
 20
1750.955334987593
 30
0.0
 11
1617.5
 21
1700.955334987592
 31
0.0
  0
LINE
  5
4158
330
1D9
100
AcDbEntity
  8
0
100
AcDbLine
 10
1566.479999999999
 20
1668.955334987592
 30
0.0
 11
1566.479999999999
 21
1725.955334987593
 31
0.0
  0
LINE
  5
4159
330
1D9
100
AcDbEntity
  8
0
100
AcDbLine
 10
1566.479999999999
 20
1782.955334987593
 30
0.0
 11
1566.479999999999
 21
1725.955334987593
 31
0.0
  0
LINE
  5
415A
330
1D9
100
AcDbEntity
  8
0
100
AcDbLine
 10
1652.499999999999
 20
1725.955334987593
 30
0.0
 11
1652.499999999999
 21
1654.205334987593
 31
0.0
  0
LINE
  5
415B
330
1D9
100
AcDbEntity
  8
0
100
AcDbLine
 10
1644.04
 20
1654.205334987593
 30
0.0
 11
1644.04
 21
1725.955334987593
 31
0.0
  0
LINE
  5
415C
330
1D9
100
AcDbEntity
  8
0
100
AcDbLine
 10
1652.499999999999
 20
1654.205334987593
 30
0.0
 11
1644.04
 21
1654.205334987593
 31
0.0
  0
LINE
  5
415D
330
1D9
100
AcDbEntity
  8
0
100
AcDbLine
 10
1652.499999999999
 20
1725.955334987593
 30
0.0
 11
1652.499999999999
 21
1797.705334987593
 31
0.0
  0
LINE
  5
415E
330
1D9
100
AcDbEntity
  8
0
100
AcDbLine
 10
1644.04
 20
1797.705334987593
 30
0.0
 11
1644.04
 21
1725.955334987593
 31
0.0
  0
LINE
  5
415F
330
1D9
100
AcDbEntity
  8
0
100
AcDbLine
 10
1652.499999999999
 20
1797.705334987593
 30
0.0
 11
1644.04
 21
1797.705334987593
 31
0.0
  0
LINE
  5
4167
330
1D9
100
AcDbEntity
  8
0
100
AcDbLine
 10
2851.42
 20
1655.965599524342
 30
0.0
 11
2762.5
 21
1655.965599524342
 31
0.0
  0
LINE
  5
4168
330
1D9
100
AcDbEntity
  8
0
100
AcDbLine
 10
2851.42
 20
1795.965599524341
 30
0.0
 11
2762.5
 21
1795.965599524341
 31
0.0
  0
LINE
  5
416A
330
1D9
100
AcDbEntity
  8
0
100
AcDbLine
 10
2762.5
 20
1655.965599524342
 30
0.0
 11
2762.5
 21
1725.965599524342
 31
0.0
  0
LINE
  5
416B
330
1D9
100
AcDbEntity
  8
0
100
AcDbLine
 10
2753.5
 20
1658.375599524341
 30
0.0
 11
2753.5
 21
1725.965599524342
 31
0.0
  0
LINE
  5
416D
330
1D9
100
AcDbEntity
  8
0
100
AcDbLine
 10
2753.5
 20
1658.375599524341
 30
0.0
 11
2762.5
 21
1655.965599524342
 31
0.0
  0
LINE
  5
416E
330
1D9
100
AcDbEntity
  8
0
100
AcDbLine
 10
2762.5
 20
1795.965599524341
 30
0.0
 11
2762.5
 21
1725.965599524342
 31
0.0
  0
LINE
  5
416F
330
1D9
100
AcDbEntity
  8
0
100
AcDbLine
 10
2753.5
 20
1793.545599524342
 30
0.0
 11
2753.5
 21
1725.965599524342
 31
0.0
  0
LINE
  5
4170
330
1D9
100
AcDbEntity
  8
0
100
AcDbLine
 10
2753.5
 20
1793.545599524342
 30
0.0
 11
2762.5
 21
1795.965599524341
 31
0.0
  0
LINE
  5
4171
330
1D9
100
AcDbEntity
  8
0
100
AcDbLine
 10
2942.18
 20
1812.965599524342
 30
0.0
 11
2942.18
 21
1638.965599524341
 31
0.0
  0
LINE
  5
4172
330
1D9
100
AcDbEntity
  8
0
100
AcDbLine
 10
2851.42
 20
1655.965599524342
 30
0.0
 11
2851.42
 21
1725.965599524342
 31
0.0
  0
LINE
  5
4173
330
1D9
100
AcDbEntity
  8
0
100
AcDbLine
 10
2951.5
 20
1725.965599524342
 30
0.0
 11
2951.5
 21
1638.965599524341
 31
0.0
  0
ARC
  5
4174
330
1D9
100
AcDbEntity
  8
0
100
AcDbCircle
 10
2911.5
 20
1725.965599524342
 30
0.0
 40
92.24999999999999
100
AcDbArc
 50
229.3590000000046
 51
289.4229999999971
  0
LINE
  5
4178
330
1D9
100
AcDbEntity
  8
0
100
AcDbLine
 10
2951.5
 20
1638.965599524341
 30
0.0
 11
2942.18
 21
1638.965599524341
 31
0.0
  0
ARC
  5
4179
330
1D9
100
AcDbEntity
  8
0
100
AcDbCircle
 10
2911.5
 20
1725.965599524342
 30
0.0
 40
92.24999999999999
100
AcDbArc
 50
70.57700000000274
 51
130.6409999999952
  0
LINE
  5
417A
330
1D9
100
AcDbEntity
  8
0
100
AcDbLine
 10
2851.42
 20
1795.965599524341
 30
0.0
 11
2851.42
 21
1725.965599524342
 31
0.0
  0
LINE
  5
417B
330
1D9
100
AcDbEntity
  8
0
100
AcDbLine
 10
2911.5
 20
1750.965599524342
 30
0.0
 11
2911.5
 21
1700.965599524342
 31
0.0
  0
LINE
  5
417C
330
1D9
100
AcDbEntity
  8
0
100
AcDbLine
 10
2951.5
 20
1725.965599524342
 30
0.0
 11
2951.5
 21
1812.965599524342
 31
0.0
  0
LINE
  5
417D
330
1D9
100
AcDbEntity
  8
0
100
AcDbLine
 10
2951.5
 20
1812.965599524342
 30
0.0
 11
2942.18
 21
1812.965599524342
 31
0.0
  0
LINE
  5
4188
330
1D9
100
AcDbEntity
  8
0
100
AcDbLine
 10
1952.5
 20
1795.955334987592
 30
0.0
 11
2216.0
 21
1795.955334987592
 31
0.0
  0
LINE
  5
4189
330
1D9
100
AcDbEntity
  8
0
100
AcDbLine
 10
1952.5
 20
1655.955334987593
 30
0.0
 11
2216.0
 21
1655.955334987593
 31
0.0
  0
LINE
  5
418B
330
1D9
100
AcDbEntity
  8
0
100
AcDbLine
 10
1952.5
 20
1725.955334987593
 30
0.0
 11
1952.5
 21
1655.955334987593
 31
0.0
  0
LINE
  5
418C
330
1D9
100
AcDbEntity
  8
0
100
AcDbLine
 10
1952.5
 20
1725.955334987593
 30
0.0
 11
1952.5
 21
1795.955334987592
 31
0.0
  0
LINE
  5
4193
330
1D9
100
AcDbEntity
  8
0
100
AcDbLine
 10
2291.859999999999
 20
1773.455334987593
 30
0.0
 11
2291.859999999999
 21
1665.995334987593
 31
0.0
  0
LINE
  5
4194
330
1D9
100
AcDbEntity
  8
0
100
AcDbLine
 10
2279.5
 20
1650.455334987593
 30
0.0
 11
2279.5
 21
1725.955334987593
 31
0.0
  0
LINE
  5
4195
330
1D9
100
AcDbEntity
  8
0
100
AcDbLine
 10
2216.0
 20
1650.455334987593
 30
0.0
 11
2216.0
 21
1725.955334987593
 31
0.0
  0
LINE
  5
4196
330
1D9
100
AcDbEntity
  8
0
100
AcDbLine
 10
2216.0
 20
1650.455334987593
 30
0.0
 11
2279.5
 21
1650.455334987593
 31
0.0
  0
LINE
  5
4197
330
1D9
100
AcDbEntity
  8
0
100
AcDbLine
 10
2216.0
 20
1801.455334987593
 30
0.0
 11
2279.5
 21
1801.455334987593
 31
0.0
  0
LINE
  5
4198
330
1D9
100
AcDbEntity
  8
0
100
AcDbLine
 10
2216.0
 20
1801.455334987593
 30
0.0
 11
2216.0
 21
1725.955334987593
 31
0.0
  0
LINE
  5
4199
330
1D9
100
AcDbEntity
  8
0
100
AcDbLine
 10
2279.5
 20
1801.455334987593
 30
0.0
 11
2279.5
 21
1725.955334987593
 31
0.0
  0
LINE
  5
419A
330
1D9
100
AcDbEntity
  8
0
100
AcDbLine
 10
2279.5
 20
1793.545334987593
 30
0.0
 11
2291.859999999999
 21
1773.455334987593
 31
0.0
  0
LINE
  5
41A2
330
1D9
100
AcDbEntity
  8
0
100
AcDbLine
 10
3201.5
 20
1643.465599524342
 30
0.0
 11
3478.0
 21
1643.465599524342
 31
0.0
  0
LINE
  5
41A3
330
1D9
100
AcDbEntity
  8
0
100
AcDbLine
 10
3201.5
 20
1808.465599524342
 30
0.0
 11
3478.0
 21
1808.465599524342
 31
0.0
  0
LINE
  5
41A5
330
1D9
100
AcDbEntity
  8
0
100
AcDbLine
 10
3201.5
 20
1643.465599524342
 30
0.0
 11
3201.5
 21
1725.965599524342
 31
0.0
  0
LINE
  5
41A9
330
1D9
100
AcDbEntity
  8
0
100
AcDbLine
 10
3201.5
 20
1808.465599524342
 30
0.0
 11
3201.5
 21
1725.965599524342
 31
0.0
  0
LINE
  5
41AA
330
1D9
100
AcDbEntity
  8
0
100
AcDbLine
 10
3478.0
 20
1636.965599524342
 30
0.0
 11
3478.0
 21
1725.965599524342
 31
0.0
  0
LINE
  5
41AB
330
1D9
100
AcDbEntity
  8
0
100
AcDbLine
 10
3569.409999999999
 20
1785.965599524342
 30
0.0
 11
3569.409999999999
 21
1659.015599524342
 31
0.0
  0
LINE
  5
41AC
330
1D9
100
AcDbEntity
  8
0
100
AcDbLine
 10
3557.5
 20
1725.965599524342
 30
0.0
 11
3557.5
 21
1636.965599524342
 31
0.0
  0
LINE
  5
41B1
330
1D9
100
AcDbEntity
  8
0
100
AcDbLine
 10
3478.0
 20
1636.965599524342
 30
0.0
 11
3557.5
 21
1636.965599524342
 31
0.0
  0
LINE
  5
41B2
330
1D9
100
AcDbEntity
  8
0
100
AcDbLine
 10
3557.5
 20
1814.965599524342
 30
0.0
 11
3557.5
 21
1725.965599524342
 31
0.0
  0
LINE
  5
41B3
330
1D9
100
AcDbEntity
  8
0
100
AcDbLine
 10
3478.0
 20
1814.965599524342
 30
0.0
 11
3478.0
 21
1725.965599524342
 31
0.0
  0
LINE
  5
41B4
330
1D9
100
AcDbEntity
  8
0
100
AcDbLine
 10
3478.0
 20
1814.965599524342
 30
0.0
 11
3557.5
 21
1814.965599524342
 31
0.0
  0
LINE
  5
41B5
330
1D9
100
AcDbEntity
  8
0
100
AcDbLine
 10
3557.5
 20
1805.345599524342
 30
0.0
 11
3569.409999999999
 21
1785.965599524342
 31
0.0
  0
LINE
  5
41F2
330
1D9
100
AcDbEntity
  8
0
100
AcDbLine
 10
2297.5
 20
1713.955334987593
 30
0.0
 11
2613.0
 21
1713.955334987593
 31
0.0
  0
LINE
  5
41F3
330
1D9
100
AcDbEntity
  8
0
100
AcDbLine
 10
2480.5
 20
1656.955334987593
 30
0.0
 11
2588.5
 21
1656.955334987593
 31
0.0
  0
LINE
  5
41F4
330
1D9
100
AcDbEntity
  8
0
100
AcDbLine
 10
2480.5
 20
1770.955334987593
 30
0.0
 11
2588.5
 21
1770.955334987593
 31
0.0
  0
ARC
  5
41F6
330
1D9
100
AcDbEntity
  8
0
100
AcDbCircle
 10
2445.5
 20
1713.955334987593
 30
0.0
 40
76.5
100
AcDbArc
 50
69.70319999999532
 51
131.8320000000007
  0
LINE
  5
41F7
330
1D9
100
AcDbEntity
  8
0
100
AcDbLine
 10
2297.5
 20
1775.955334987592
 30
0.0
 11
2297.5
 21
1713.955334987593
 31
0.0
  0
LINE
  5
41F8
330
1D9
100
AcDbEntity
  8
0
100
AcDbLine
 10
2394.48
 20
1770.955334987593
 30
0.0
 11
2394.48
 21
1656.955334987593
 31
0.0
  0
LINE
  5
41F9
330
1D9
100
AcDbEntity
  8
0
100
AcDbLine
 10
2361.0
 20
1775.955334987592
 30
0.0
 11
2361.0
 21
1713.955334987593
 31
0.0
  0
LINE
  5
41FA
330
1D9
100
AcDbEntity
  8
0
100
AcDbLine
 10
2297.5
 20
1651.955334987593
 30
0.0
 11
2361.0
 21
1651.955334987593
 31
0.0
  0
LINE
  5
41FB
330
1D9
100
AcDbEntity
  8
0
100
AcDbLine
 10
2297.5
 20
1651.955334987593
 30
0.0
 11
2297.5
 21
1713.955334987593
 31
0.0
  0
LINE
  5
41FC
330
1D9
100
AcDbEntity
  8
0
100
AcDbLine
 10
2361.0
 20
1651.955334987593
 30
0.0
 11
2361.0
 21
1713.955334987593
 31
0.0
  0
LINE
  5
41FD
330
1D9
100
AcDbEntity
  8
0
100
AcDbLine
 10
2394.48
 20
1656.955334987593
 30
0.0
 11
2361.0
 21
1656.955334987593
 31
0.0
  0
LINE
  5
41FE
330
1D9
100
AcDbEntity
  8
0
100
AcDbLine
 10
2297.5
 20
1775.955334987592
 30
0.0
 11
2361.0
 21
1775.955334987592
 31
0.0
  0
LINE
  5
41FF
330
1D9
100
AcDbEntity
  8
0
100
AcDbLine
 10
2394.48
 20
1770.955334987593
 30
0.0
 11
2361.0
 21
1770.955334987593
 31
0.0
  0
LINE
  5
4200
330
1D9
100
AcDbEntity
  8
0
100
AcDbLine
 10
2445.5
 20
1738.955334987593
 30
0.0
 11
2445.5
 21
1688.955334987593
 31
0.0
  0
LINE
  5
4201
330
1D9
100
AcDbEntity
  8
0
100
AcDbLine
 10
2472.04
 20
1642.205334987593
 30
0.0
 11
2472.04
 21
1785.705334987593
 31
0.0
  0
LINE
  5
4202
330
1D9
100
AcDbEntity
  8
0
100
AcDbLine
 10
2480.5
 20
1713.955334987593
 30
0.0
 11
2480.5
 21
1785.705334987593
 31
0.0
  0
LINE
  5
4203
330
1D9
100
AcDbEntity
  8
0
100
AcDbLine
 10
2480.5
 20
1713.955334987593
 30
0.0
 11
2480.5
 21
1642.205334987593
 31
0.0
  0
LINE
  5
4204
330
1D9
100
AcDbEntity
  8
0
100
AcDbLine
 10
2480.5
 20
1642.205334987593
 30
0.0
 11
2472.04
 21
1642.205334987593
 31
0.0
  0
LINE
  5
4205
330
1D9
100
AcDbEntity
  8
0
100
AcDbLine
 10
2480.5
 20
1785.705334987593
 30
0.0
 11
2472.04
 21
1785.705334987593
 31
0.0
  0
LINE
  5
4207
330
1D9
100
AcDbEntity
  8
0
100
AcDbLine
 10
2588.5
 20
1770.955334987593
 30
0.0
 11
2588.5
 21
1713.955334987593
 31
0.0
  0
LINE
  5
4208
330
1D9
100
AcDbEntity
  8
0
100
AcDbLine
 10
2595.5
 20
1769.075334987593
 30
0.0
 11
2595.5
 21
1713.955334987593
 31
0.0
  0
LINE
  5
4209
330
1D9
100
AcDbEntity
  8
0
100
AcDbLine
 10
2588.5
 20
1656.955334987593
 30
0.0
 11
2588.5
 21
1713.955334987593
 31
0.0
  0
LINE
  5
420A
330
1D9
100
AcDbEntity
  8
0
100
AcDbLine
 10
2595.5
 20
1658.825334987593
 30
0.0
 11
2595.5
 21
1713.955334987593
 31
0.0
  0
LINE
  5
420B
330
1D9
100
AcDbEntity
  8
0
100
AcDbLine
 10
2595.5
 20
1658.825334987593
 30
0.0
 11
2588.5
 21
1656.955334987593
 31
0.0
  0
LINE
  5
420C
330
1D9
100
AcDbEntity
  8
0
100
AcDbLine
 10
2595.5
 20
1769.075334987593
 30
0.0
 11
2588.5
 21
1770.955334987593
 31
0.0
  0
LINE
  5
420D
330
1D9
100
AcDbEntity
  8
0
100
AcDbLine
 10
3573.5
 20
1714.465599524342
 30
0.0
 11
3948.0
 21
1714.465599524342
 31
0.0
  0
LINE
  5
420E
330
1D9
100
AcDbEntity
  8
0
100
AcDbLine
 10
3778.5
 20
1644.465599524342
 30
0.0
 11
3914.5
 21
1644.465599524342
 31
0.0
  0
LINE
  5
420F
330
1D9
100
AcDbEntity
  8
0
100
AcDbLine
 10
3778.5
 20
1784.465599524342
 30
0.0
 11
3914.5
 21
1784.465599524342
 31
0.0
  0
LINE
  5
4211
330
1D9
100
AcDbEntity
  8
0
100
AcDbLine
 10
3769.18
 20
1627.465599524342
 30
0.0
 11
3769.18
 21
1714.465599524342
 31
0.0
  0
LINE
  5
4212
330
1D9
100
AcDbEntity
  8
0
100
AcDbLine
 10
3678.42
 20
1644.465599524342
 30
0.0
 11
3678.42
 21
1714.465599524342
 31
0.0
  0
LINE
  5
4213
330
1D9
100
AcDbEntity
  8
0
100
AcDbLine
 10
3573.5
 20
1714.465599524342
 30
0.0
 11
3573.5
 21
1638.965599524341
 31
0.0
  0
LINE
  5
4214
330
1D9
100
AcDbEntity
  8
0
100
AcDbLine
 10
3653.0
 20
1638.965599524341
 30
0.0
 11
3653.0
 21
1714.465599524342
 31
0.0
  0
LINE
  5
4215
330
1D9
100
AcDbEntity
  8
0
100
AcDbLine
 10
3778.5
 20
1714.465599524342
 30
0.0
 11
3778.5
 21
1627.465599524342
 31
0.0
  0
ARC
  5
4216
330
1D9
100
AcDbEntity
  8
0
100
AcDbCircle
 10
3738.5
 20
1714.465599524342
 30
0.0
 40
92.24999999999999
100
AcDbArc
 50
229.3590000000046
 51
289.4229999999971
  0
LINE
  5
4217
330
1D9
100
AcDbEntity
  8
0
100
AcDbLine
 10
3573.5
 20
1638.965599524341
 30
0.0
 11
3653.0
 21
1638.965599524341
 31
0.0
  0
LINE
  5
4218
330
1D9
100
AcDbEntity
  8
0
100
AcDbLine
 10
3678.42
 20
1644.465599524342
 30
0.0
 11
3653.0
 21
1644.465599524342
 31
0.0
  0
LINE
  5
4219
330
1D9
100
AcDbEntity
  8
0
100
AcDbLine
 10
3778.5
 20
1627.465599524342
 30
0.0
 11
3769.18
 21
1627.465599524342
 31
0.0
  0
ARC
  5
421A
330
1D9
100
AcDbEntity
  8
0
100
AcDbCircle
 10
3738.5
 20
1714.465599524342
 30
0.0
 40
92.24999999999999
100
AcDbArc
 50
70.57700000000274
 51
130.6409999999952
  0
LINE
  5
421B
330
1D9
100
AcDbEntity
  8
0
100
AcDbLine
 10
3678.42
 20
1784.465599524342
 30
0.0
 11
3678.42
 21
1714.465599524342
 31
0.0
  0
LINE
  5
421C
330
1D9
100
AcDbEntity
  8
0
100
AcDbLine
 10
3573.5
 20
1789.965599524342
 30
0.0
 11
3573.5
 21
1714.465599524342
 31
0.0
  0
LINE
  5
421D
330
1D9
100
AcDbEntity
  8
0
100
AcDbLine
 10
3653.0
 20
1789.965599524342
 30
0.0
 11
3653.0
 21
1714.465599524342
 31
0.0
  0
LINE
  5
421E
330
1D9
100
AcDbEntity
  8
0
100
AcDbLine
 10
3573.5
 20
1789.965599524342
 30
0.0
 11
3653.0
 21
1789.965599524342
 31
0.0
  0
LINE
  5
421F
330
1D9
100
AcDbEntity
  8
0
100
AcDbLine
 10
3678.42
 20
1784.465599524342
 30
0.0
 11
3653.0
 21
1784.465599524342
 31
0.0
  0
LINE
  5
4220
330
1D9
100
AcDbEntity
  8
0
100
AcDbLine
 10
3769.18
 20
1801.465599524341
 30
0.0
 11
3769.18
 21
1714.465599524342
 31
0.0
  0
LINE
  5
4221
330
1D9
100
AcDbEntity
  8
0
100
AcDbLine
 10
3778.5
 20
1714.465599524342
 30
0.0
 11
3778.5
 21
1801.465599524341
 31
0.0
  0
LINE
  5
4222
330
1D9
100
AcDbEntity
  8
0
100
AcDbLine
 10
3738.5
 20
1739.465599524342
 30
0.0
 11
3738.5
 21
1689.465599524341
 31
0.0
  0
LINE
  5
4223
330
1D9
100
AcDbEntity
  8
0
100
AcDbLine
 10
3778.5
 20
1801.465599524341
 30
0.0
 11
3769.18
 21
1801.465599524341
 31
0.0
  0
LINE
  5
4224
330
1D9
100
AcDbEntity
  8
0
100
AcDbLine
 10
3914.5
 20
1644.465599524342
 30
0.0
 11
3914.5
 21
1714.465599524342
 31
0.0
  0
LINE
  5
4225
330
1D9
100
AcDbEntity
  8
0
100
AcDbLine
 10
3923.5
 20
1646.875599524341
 30
0.0
 11
3923.5
 21
1714.465599524342
 31
0.0
  0
LINE
  5
4226
330
1D9
100
AcDbEntity
  8
0
100
AcDbLine
 10
3923.5
 20
1646.875599524341
 30
0.0
 11
3914.5
 21
1644.465599524342
 31
0.0
  0
LINE
  5
4227
330
1D9
100
AcDbEntity
  8
0
100
AcDbLine
 10
3914.5
 20
1784.465599524342
 30
0.0
 11
3914.5
 21
1714.465599524342
 31
0.0
  0
LINE
  5
4228
330
1D9
100
AcDbEntity
  8
0
100
AcDbLine
 10
3923.5
 20
1782.045599524342
 30
0.0
 11
3923.5
 21
1714.465599524342
 31
0.0
  0
LINE
  5
4229
330
1D9
100
AcDbEntity
  8
0
100
AcDbLine
 10
3923.5
 20
1782.045599524342
 30
0.0
 11
3914.5
 21
1784.465599524342
 31
0.0
  0
LINE
  5
4230
330
1D9
100
AcDbEntity
  8
0
100
AcDbLine
 10
2035.5
 20
1225.955334987593
 30
0.0
 11
2035.5
 21
0.0
 31
0.0
  0
LINE
  5
4496
330
1D9
100
AcDbEntity
  8
0
100
AcDbLine
 10
601.7734678464274
 20
1449.860247982084
 30
0.0
 11
842.8093405516628
 21
1449.860247982084
 31
0.0
  0
SOLID
  5
4498
330
1D9
100
AcDbEntity
  8
0
100
AcDbTrace
 10
842.8093405516628
 20
1466.526914648752
 30
0.0
 11
842.8093405516628
 21
1433.193581315419
 31
0.0
 12
942.8093405516628
 22
1449.860247982084
 32
0.0
 13
942.8093405516628
 23
1449.860247982084
 33
0.0
  0
TEXT
  5
449A
330
1D9
100
AcDbEntity
  8
0
100
AcDbText
 10
620.314109449142
 20
1357.892436417976
 30
0.0
 40
48.51116625310172
  1
流れ方向
100
AcDbText
  0
LINE
  5
449C
330
1D9
100
AcDbEntity
  8
0
100
AcDbLine
 10
1904.773467846426
 20
1449.860247982084
 30
0.0
 11
2145.809340551662
 21
1449.860247982084
 31
0.0
  0
TEXT
  5
449D
330
1D9
100
AcDbEntity
  8
0
100
AcDbText
 10
1923.314109449142
 20
1357.892436417976
 30
0.0
 40
48.51116625310172
  1
流れ方向
100
AcDbText
  0
SOLID
  5
449E
330
1D9
100
AcDbEntity
  8
0
100
AcDbTrace
 10
2145.809340551662
 20
1466.526914648752
 30
0.0
 11
2145.809340551662
 21
1433.193581315419
 31
0.0
 12
2245.809340551662
 22
1449.860247982084
 32
0.0
 13
2245.809340551662
 23
1449.860247982084
 33
0.0
  0
TEXT
  5
449F
330
1D9
100
AcDbEntity
  8
0
100
AcDbText
 10
3226.314109449142
 20
1357.892436417976
 30
0.0
 40
48.51116625310172
  1
流れ方向
100
AcDbText
  0
LINE
  5
44A0
330
1D9
100
AcDbEntity
  8
0
100
AcDbLine
 10
3207.773467846427
 20
1449.860247982084
 30
0.0
 11
3448.809340551663
 21
1449.860247982084
 31
0.0
  0
SOLID
  5
44A1
330
1D9
100
AcDbEntity
  8
0
100
AcDbTrace
 10
3448.809340551663
 20
1466.526914648752
 30
0.0
 11
3448.809340551663
 21
1433.193581315419
 31
0.0
 12
3548.809340551663
 22
1449.860247982084
 32
0.0
 13
3548.809340551663
 23
1449.860247982084
 33
0.0
  0
LINE
  5
44A2
330
1D9
100
AcDbEntity
  8
0
100
AcDbLine
 10
927.5234678464276
 20
223.9049129944924
 30
0.0
 11
1168.559340551662
 21
223.9049129944924
 31
0.0
  0
TEXT
  5
44A3
330
1D9
100
AcDbEntity
  8
0
100
AcDbText
 10
946.0641094491419
 20
131.9371014303833
 30
0.0
 40
48.51116625310172
  1
流れ方向
100
AcDbText
  0
SOLID
  5
44A4
330
1D9
100
AcDbEntity
  8
0
100
AcDbTrace
 10
1168.559340551662
 20
240.5715796611588
 30
0.0
 11
1168.559340551662
 21
207.2382463278259
 31
0.0
 12
1268.559340551663
 22
223.9049129944924
 32
0.0
 13
1268.559340551663
 23
223.9049129944924
 33
0.0
  0
TEXT
  5
44A5
330
1D9
100
AcDbEntity
  8
0
100
AcDbText
 10
2900.564109449142
 20
131.9371014303833
 30
0.0
 40
48.51116625310172
  1
流れ方向
100
AcDbText
  0
LINE
  5
44A6
330
1D9
100
AcDbEntity
  8
0
100
AcDbLine
 10
2882.023467846428
 20
223.9049129944924
 30
0.0
 11
3123.059340551662
 21
223.9049129944924
 31
0.0
  0
SOLID
  5
44A7
330
1D9
100
AcDbEntity
  8
0
100
AcDbTrace
 10
3123.059340551662
 20
240.5715796611588
 30
0.0
 11
3123.059340551662
 21
207.2382463278259
 31
0.0
 12
3223.059340551662
 22
223.9049129944924
 32
0.0
 13
3223.059340551662
 23
223.9049129944924
 33
0.0
  0
LINE
  5
44BB
330
1D9
100
AcDbEntity
  8
0
100
AcDbLine
 10
1475.499999999999
 20
1782.075334987593
 30
0.0
 11
1475.499999999999
 21
1963.955334987593
 31
0.0
  0
LINE
  5
44BC
330
1D9
100
AcDbEntity
  8
0
100
AcDbLine
 10
2480.5
 20
1786.705334987593
 30
0.0
 11
2480.5
 21
1963.955334987593
 31
0.0
  0
LINE
  5
44BD
330
1D9
100
AcDbEntity
  8
0
100
AcDbLine
 10
1495.499999999999
 20
1945.955334987592
 30
0.0
 11
2460.5
 21
1945.955334987592
 31
0.0
  0
LINE
  5
44C1
330
1D9
100
AcDbEntity
  8
0
100
AcDbLine
 10
1475.499999999999
 20
1782.075334987593
 30
0.0
 11
1475.499999999999
 21
2043.955334987593
 31
0.0
  0
LINE
  5
44C2
330
1D9
100
AcDbEntity
  8
0
100
AcDbLine
 10
2595.5
 20
1770.075334987593
 30
0.0
 11
2595.5
 21
2043.955334987593
 31
0.0
  0
LINE
  5
44C3
330
1D9
100
AcDbEntity
  8
0
100
AcDbLine
 10
1495.499999999999
 20
2025.955334987592
 30
0.0
 11
2575.499999999999
 21
2025.955334987592
 31
0.0
  0
LINE
  5
44C7
330
1D9
100
AcDbEntity
  8
0
100
AcDbLine
 10
433.25
 20
580.5529999999999
 30
0.0
 11
433.25
 21
738.0
 31
0.0
  0
LINE
  5
44C8
330
1D9
100
AcDbEntity
  8
0
100
AcDbLine
 10
1522.25
 20
580.5529999999999
 30
0.0
 11
1522.25
 21
738.0
 31
0.0
  0
LINE
  5
44C9
330
1D9
100
AcDbEntity
  8
0
100
AcDbLine
 10
453.2499999999999
 20
720.0
 30
0.0
 11
1502.25
 21
720.0
 31
0.0
  0
LINE
  5
44CD
330
1D9
100
AcDbEntity
  8
0
100
AcDbLine
 10
433.25
 20
580.5529999999999
 30
0.0
 11
433.25
 21
818.0
 31
0.0
  0
LINE
  5
44CE
330
1D9
100
AcDbEntity
  8
0
100
AcDbLine
 10
1683.25
 20
556.5529999999998
 30
0.0
 11
1683.25
 21
818.0
 31
0.0
  0
LINE
  5
44CF
330
1D9
100
AcDbEntity
  8
0
100
AcDbLine
 10
453.2499999999999
 20
800.0
 30
0.0
 11
1663.25
 21
800.0
 31
0.0
  0
LINE
  5
44D3
330
1D9
100
AcDbEntity
  8
0
100
AcDbLine
 10
197.4999999999998
 20
1770.455334987593
 30
0.0
 11
197.4999999999998
 21
1963.955334987593
 31
0.0
  0
LINE
  5
44D4
330
1D9
100
AcDbEntity
  8
0
100
AcDbLine
 10
1192.5
 20
1760.955334987593
 30
0.0
 11
1192.5
 21
1963.955334987593
 31
0.0
  0
LINE
  5
44D5
330
1D9
100
AcDbEntity
  8
0
100
AcDbLine
 10
217.4999999999998
 20
1945.955334987592
 30
0.0
 11
1172.5
 21
1945.955334987592
 31
0.0
  0
LINE
  5
44D9
330
1D9
100
AcDbEntity
  8
0
100
AcDbLine
 10
197.4999999999998
 20
1770.455334987593
 30
0.0
 11
197.4999999999999
 21
2043.955334987593
 31
0.0
  0
LINE
  5
44DA
330
1D9
100
AcDbEntity
  8
0
100
AcDbLine
 10
1267.5
 20
1751.455334987593
 30
0.0
 11
1267.5
 21
2043.955334987593
 31
0.0
  0
LINE
  5
44DB
330
1D9
100
AcDbEntity
  8
0
100
AcDbLine
 10
217.4999999999999
 20
2025.955334987592
 30
0.0
 11
1247.5
 21
2025.955334987592
 31
0.0
  0
LINE
  5
44DF
330
1D9
100
AcDbEntity
  8
0
100
AcDbLine
 10
2362.75
 20
606.0
 30
0.0
 11
2362.75
 21
738.0
 31
0.0
  0
LINE
  5
44E0
330
1D9
100
AcDbEntity
  8
0
100
AcDbLine
 10
3478.75
 20
606.0
 30
0.0
 11
3478.75
 21
738.0
 31
0.0
  0
LINE
  5
44E1
330
1D9
100
AcDbEntity
  8
0
100
AcDbLine
 10
2382.75
 20
720.0
 30
0.0
 11
3458.75
 21
720.0
 31
0.0
  0
LINE
  5
44E5
330
1D9
100
AcDbEntity
  8
0
100
AcDbLine
 10
2362.75
 20
606.0
 30
0.0
 11
2362.75
 21
818.0
 31
0.0
  0
LINE
  5
44E6
330
1D9
100
AcDbEntity
  8
0
100
AcDbLine
 10
3662.749999999999
 20
581.5
 30
0.0
 11
3662.749999999999
 21
818.0
 31
0.0
  0
LINE
  5
44E7
330
1D9
100
AcDbEntity
  8
0
100
AcDbLine
 10
2382.75
 20
800.0
 30
0.0
 11
3642.75
 21
800.0
 31
0.0
  0
LINE
  5
44EB
330
1D9
100
AcDbEntity
  8
0
100
AcDbLine
 10
2753.5
 20
1794.545599524342
 30
0.0
 11
2753.5
 21
1963.955334987593
 31
0.0
  0
LINE
  5
44EC
330
1D9
100
AcDbEntity
  8
0
100
AcDbLine
 10
3778.5
 20
1802.465599524342
 30
0.0
 11
3778.5
 21
1963.955334987593
 31
0.0
  0
LINE
  5
44ED
330
1D9
100
AcDbEntity
  8
0
100
AcDbLine
 10
2773.5
 20
1945.955334987592
 30
0.0
 11
3758.5
 21
1945.955334987592
 31
0.0
  0
LINE
  5
44F1
330
1D9
100
AcDbEntity
  8
0
100
AcDbLine
 10
2753.5
 20
1794.545599524342
 30
0.0
 11
2753.5
 21
2043.955334987593
 31
0.0
  0
LINE
  5
44F2
330
1D9
100
AcDbEntity
  8
0
100
AcDbLine
 10
3923.5
 20
1783.045599524341
 30
0.0
 11
3923.5
 21
2043.955334987593
 31
0.0
  0
LINE
  5
44F3
330
1D9
100
AcDbEntity
  8
0
100
AcDbLine
 10
2773.5
 20
2025.955334987592
 30
0.0
 11
3903.5
 21
2025.955334987592
 31
0.0
  0
LINE
  5
44F7
330
1D9
100
AcDbEntity
  8
0
100
AcDbLine
 10
433.25
 20
800.0
 30
0.0
 11
453.2499999999999
 21
805.3589838486221
 31
0.0
  0
LINE
  5
44F8
330
1D9
100
AcDbEntity
  8
0
100
AcDbLine
 10
433.25
 20
800.0
 30
0.0
 11
453.2499999999999
 21
794.6410161513778
 31
0.0
  0
LINE
  5
44F9
330
1D9
100
AcDbEntity
  8
0
100
AcDbLine
 10
453.2499999999999
 20
800.0
 30
0.0
 11
433.25
 21
800.0
 31
0.0
  0
LINE
  5
44FA
330
1D9
100
AcDbEntity
  8
0
100
AcDbLine
 10
433.25
 20
720.0
 30
0.0
 11
453.2499999999999
 21
725.3589838486219
 31
0.0
  0
LINE
  5
44FB
330
1D9
100
AcDbEntity
  8
0
100
AcDbLine
 10
433.25
 20
720.0
 30
0.0
 11
453.2499999999999
 21
714.6410161513777
 31
0.0
  0
LINE
  5
44FC
330
1D9
100
AcDbEntity
  8
0
100
AcDbLine
 10
453.2499999999999
 20
720.0
 30
0.0
 11
433.25
 21
720.0
 31
0.0
  0
LINE
  5
44FD
330
1D9
100
AcDbEntity
  8
0
100
AcDbLine
 10
197.4999999999999
 20
2025.955334987592
 30
0.0
 11
217.4999999999999
 21
2031.314318836214
 31
0.0
  0
LINE
  5
44FE
330
1D9
100
AcDbEntity
  8
0
100
AcDbLine
 10
197.4999999999999
 20
2025.955334987592
 30
0.0
 11
217.4999999999999
 21
2020.596351138971
 31
0.0
  0
LINE
  5
44FF
330
1D9
100
AcDbEntity
  8
0
100
AcDbLine
 10
217.4999999999999
 20
2025.955334987592
 30
0.0
 11
197.4999999999999
 21
2025.955334987592
 31
0.0
  0
LINE
  5
4500
330
1D9
100
AcDbEntity
  8
0
100
AcDbLine
 10
197.4999999999998
 20
1945.955334987592
 30
0.0
 11
217.4999999999998
 21
1951.314318836215
 31
0.0
  0
LINE
  5
4501
330
1D9
100
AcDbEntity
  8
0
100
AcDbLine
 10
197.4999999999998
 20
1945.955334987592
 30
0.0
 11
217.4999999999998
 21
1940.596351138971
 31
0.0
  0
LINE
  5
4502
330
1D9
100
AcDbEntity
  8
0
100
AcDbLine
 10
217.4999999999998
 20
1945.955334987592
 30
0.0
 11
197.4999999999998
 21
1945.955334987592
 31
0.0
  0
TEXT
  5
4503
330
1D9
100
AcDbEntity
  8
0
100
AcDbText
 10
687.5
 20
2040.955334987593
 30
0.0
 40
30.0
  1
1070
100
AcDbText
  0
TEXT
  5
4504
330
1D9
100
AcDbEntity
  8
0
100
AcDbText
 10
655.0
 20
1960.955334987593
 30
0.0
 40
30.0
  1
995
100
AcDbText
  0
TEXT
  5
4505
330
1D9
100
AcDbEntity
  8
0
100
AcDbText
 10
930.25
 20
735.0
 30
0.0
 40
30.0
  1
1089
100
AcDbText
  0
TEXT
  5
4506
330
1D9
100
AcDbEntity
  8
0
100
AcDbText
 10
1010.75
 20
815.0
 30
0.0
 40
30.0
  1
1250
100
AcDbText
  0
LINE
  5
4507
330
1D9
100
AcDbEntity
  8
0
100
AcDbLine
 10
1522.25
 20
720.0
 30
0.0
 11
1502.25
 21
714.6410161513777
 31
0.0
  0
LINE
  5
4508
330
1D9
100
AcDbEntity
  8
0
100
AcDbLine
 10
1522.25
 20
720.0
 30
0.0
 11
1502.25
 21
725.3589838486219
 31
0.0
  0
LINE
  5
4509
330
1D9
100
AcDbEntity
  8
0
100
AcDbLine
 10
1502.25
 20
720.0
 30
0.0
 11
1522.25
 21
720.0
 31
0.0
  0
LINE
  5
450A
330
1D9
100
AcDbEntity
  8
0
100
AcDbLine
 10
1683.25
 20
800.0
 30
0.0
 11
1663.25
 21
794.6410161513778
 31
0.0
  0
LINE
  5
450B
330
1D9
100
AcDbEntity
  8
0
100
AcDbLine
 10
1683.25
 20
800.0
 30
0.0
 11
1663.25
 21
805.3589838486221
 31
0.0
  0
LINE
  5
450C
330
1D9
100
AcDbEntity
  8
0
100
AcDbLine
 10
1663.25
 20
800.0
 30
0.0
 11
1683.25
 21
800.0
 31
0.0
  0
LINE
  5
450D
330
1D9
100
AcDbEntity
  8
0
100
AcDbLine
 10
1192.5
 20
1945.955334987592
 30
0.0
 11
1172.5
 21
1940.596351138971
 31
0.0
  0
LINE
  5
450E
330
1D9
100
AcDbEntity
  8
0
100
AcDbLine
 10
1192.5
 20
1945.955334987592
 30
0.0
 11
1172.5
 21
1951.314318836215
 31
0.0
  0
LINE
  5
450F
330
1D9
100
AcDbEntity
  8
0
100
AcDbLine
 10
1172.5
 20
1945.955334987592
 30
0.0
 11
1192.5
 21
1945.955334987592
 31
0.0
  0
LINE
  5
4510
330
1D9
100
AcDbEntity
  8
0
100
AcDbLine
 10
1267.5
 20
2025.955334987592
 30
0.0
 11
1247.5
 21
2020.596351138971
 31
0.0
  0
LINE
  5
4511
330
1D9
100
AcDbEntity
  8
0
100
AcDbLine
 10
1267.5
 20
2025.955334987592
 30
0.0
 11
1247.5
 21
2031.314318836214
 31
0.0
  0
LINE
  5
4512
330
1D9
100
AcDbEntity
  8
0
100
AcDbLine
 10
1247.5
 20
2025.955334987592
 30
0.0
 11
1267.5
 21
2025.955334987592
 31
0.0
  0
LINE
  5
4513
330
1D9
100
AcDbEntity
  8
0
100
AcDbLine
 10
1475.499999999999
 20
1945.955334987592
 30
0.0
 11
1495.499999999999
 21
1951.314318836215
 31
0.0
  0
LINE
  5
4514
330
1D9
100
AcDbEntity
  8
0
100
AcDbLine
 10
1475.499999999999
 20
1945.955334987592
 30
0.0
 11
1495.499999999999
 21
1940.596351138971
 31
0.0
  0
LINE
  5
4515
330
1D9
100
AcDbEntity
  8
0
100
AcDbLine
 10
1495.499999999999
 20
1945.955334987592
 30
0.0
 11
1475.499999999999
 21
1945.955334987592
 31
0.0
  0
LINE
  5
4516
330
1D9
100
AcDbEntity
  8
0
100
AcDbLine
 10
1475.499999999999
 20
2025.955334987592
 30
0.0
 11
1495.499999999999
 21
2031.314318836214
 31
0.0
  0
LINE
  5
4517
330
1D9
100
AcDbEntity
  8
0
100
AcDbLine
 10
1475.499999999999
 20
2025.955334987592
 30
0.0
 11
1495.499999999999
 21
2020.596351138971
 31
0.0
  0
LINE
  5
4518
330
1D9
100
AcDbEntity
  8
0
100
AcDbLine
 10
1495.499999999999
 20
2025.955334987592
 30
0.0
 11
1475.499999999999
 21
2025.955334987592
 31
0.0
  0
TEXT
  5
4519
330
1D9
100
AcDbEntity
  8
0
100
AcDbText
 10
1933.0
 20
1960.955334987593
 30
0.0
 40
30.0
  1
1005
100
AcDbText
  0
TEXT
  5
451A
330
1D9
100
AcDbEntity
  8
0
100
AcDbText
 10
1993.0
 20
2040.955334987593
 30
0.0
 40
30.0
  1
1120
100
AcDbText
  0
LINE
  5
451B
330
1D9
100
AcDbEntity
  8
0
100
AcDbLine
 10
2362.75
 20
800.0
 30
0.0
 11
2382.75
 21
805.3589838486221
 31
0.0
  0
LINE
  5
451C
330
1D9
100
AcDbEntity
  8
0
100
AcDbLine
 10
2362.75
 20
800.0
 30
0.0
 11
2382.75
 21
794.6410161513778
 31
0.0
  0
LINE
  5
451D
330
1D9
100
AcDbEntity
  8
0
100
AcDbLine
 10
2382.75
 20
800.0
 30
0.0
 11
2362.75
 21
800.0
 31
0.0
  0
LINE
  5
451E
330
1D9
100
AcDbEntity
  8
0
100
AcDbLine
 10
2362.75
 20
720.0
 30
0.0
 11
2382.75
 21
725.3589838486219
 31
0.0
  0
LINE
  5
451F
330
1D9
100
AcDbEntity
  8
0
100
AcDbLine
 10
2362.75
 20
720.0
 30
0.0
 11
2382.75
 21
714.6410161513777
 31
0.0
  0
LINE
  5
4520
330
1D9
100
AcDbEntity
  8
0
100
AcDbLine
 10
2382.75
 20
720.0
 30
0.0
 11
2362.75
 21
720.0
 31
0.0
  0
TEXT
  5
4521
330
1D9
100
AcDbEntity
  8
0
100
AcDbText
 10
2880.75
 20
735.0
 30
0.0
 40
30.0
  1
1116
100
AcDbText
  0
TEXT
  5
4522
330
1D9
100
AcDbEntity
  8
0
100
AcDbText
 10
2967.75
 20
815.0
 30
0.0
 40
30.0
  1
1300
100
AcDbText
  0
LINE
  5
4523
330
1D9
100
AcDbEntity
  8
0
100
AcDbLine
 10
2753.5
 20
2025.955334987592
 30
0.0
 11
2773.5
 21
2031.314318836214
 31
0.0
  0
LINE
  5
4524
330
1D9
100
AcDbEntity
  8
0
100
AcDbLine
 10
2753.5
 20
2025.955334987592
 30
0.0
 11
2773.5
 21
2020.596351138971
 31
0.0
  0
LINE
  5
4525
330
1D9
100
AcDbEntity
  8
0
100
AcDbLine
 10
2773.5
 20
2025.955334987592
 30
0.0
 11
2753.5
 21
2025.955334987592
 31
0.0
  0
LINE
  5
4526
330
1D9
100
AcDbEntity
  8
0
100
AcDbLine
 10
2753.5
 20
1945.955334987592
 30
0.0
 11
2773.5
 21
1951.314318836215
 31
0.0
  0
LINE
  5
4527
330
1D9
100
AcDbEntity
  8
0
100
AcDbLine
 10
2753.5
 20
1945.955334987592
 30
0.0
 11
2773.5
 21
1940.596351138971
 31
0.0
  0
LINE
  5
4528
330
1D9
100
AcDbEntity
  8
0
100
AcDbLine
 10
2773.5
 20
1945.955334987592
 30
0.0
 11
2753.5
 21
1945.955334987592
 31
0.0
  0
LINE
  5
4529
330
1D9
100
AcDbEntity
  8
0
100
AcDbLine
 10
2595.5
 20
2025.955334987592
 30
0.0
 11
2575.499999999999
 21
2020.596351138971
 31
0.0
  0
LINE
  5
452A
330
1D9
100
AcDbEntity
  8
0
100
AcDbLine
 10
2595.5
 20
2025.955334987592
 30
0.0
 11
2575.499999999999
 21
2031.314318836214
 31
0.0
  0
LINE
  5
452B
330
1D9
100
AcDbEntity
  8
0
100
AcDbLine
 10
2575.499999999999
 20
2025.955334987592
 30
0.0
 11
2595.5
 21
2025.955334987592
 31
0.0
  0
LINE
  5
452C
330
1D9
100
AcDbEntity
  8
0
100
AcDbLine
 10
2480.5
 20
1945.955334987592
 30
0.0
 11
2460.5
 21
1940.596351138971
 31
0.0
  0
LINE
  5
452D
330
1D9
100
AcDbEntity
  8
0
100
AcDbLine
 10
2480.5
 20
1945.955334987592
 30
0.0
 11
2460.5
 21
1951.314318836215
 31
0.0
  0
LINE
  5
452E
330
1D9
100
AcDbEntity
  8
0
100
AcDbLine
 10
2460.5
 20
1945.955334987592
 30
0.0
 11
2480.5
 21
1945.955334987592
 31
0.0
  0
TEXT
  5
452F
330
1D9
100
AcDbEntity
  8
0
100
AcDbText
 10
3218.5
 20
1960.955334987593
 30
0.0
 40
30.0
  1
1025
100
AcDbText
  0
TEXT
  5
4530
330
1D9
100
AcDbEntity
  8
0
100
AcDbText
 10
3296.0
 20
2040.955334987593
 30
0.0
 40
30.0
  1
1170
100
AcDbText
  0
LINE
  5
4531
330
1D9
100
AcDbEntity
  8
0
100
AcDbLine
 10
3478.75
 20
720.0
 30
0.0
 11
3458.75
 21
714.6410161513777
 31
0.0
  0
LINE
  5
4532
330
1D9
100
AcDbEntity
  8
0
100
AcDbLine
 10
3478.75
 20
720.0
 30
0.0
 11
3458.75
 21
725.3589838486219
 31
0.0
  0
LINE
  5
4533
330
1D9
100
AcDbEntity
  8
0
100
AcDbLine
 10
3458.75
 20
720.0
 30
0.0
 11
3478.75
 21
720.0
 31
0.0
  0
LINE
  5
4534
330
1D9
100
AcDbEntity
  8
0
100
AcDbLine
 10
3662.749999999999
 20
800.0
 30
0.0
 11
3642.75
 21
794.6410161513778
 31
0.0
  0
LINE
  5
4535
330
1D9
100
AcDbEntity
  8
0
100
AcDbLine
 10
3662.749999999999
 20
800.0
 30
0.0
 11
3642.75
 21
805.3589838486221
 31
0.0
  0
LINE
  5
4536
330
1D9
100
AcDbEntity
  8
0
100
AcDbLine
 10
3642.75
 20
800.0
 30
0.0
 11
3662.749999999999
 21
800.0
 31
0.0
  0
LINE
  5
4537
330
1D9
100
AcDbEntity
  8
0
100
AcDbLine
 10
3923.5
 20
2025.955334987592
 30
0.0
 11
3903.5
 21
2020.596351138971
 31
0.0
  0
LINE
  5
4538
330
1D9
100
AcDbEntity
  8
0
100
AcDbLine
 10
3923.5
 20
2025.955334987592
 30
0.0
 11
3903.5
 21
2031.314318836214
 31
0.0
  0
LINE
  5
4539
330
1D9
100
AcDbEntity
  8
0
100
AcDbLine
 10
3903.5
 20
2025.955334987592
 30
0.0
 11
3923.5
 21
2025.955334987592
 31
0.0
  0
LINE
  5
453A
330
1D9
100
AcDbEntity
  8
0
100
AcDbLine
 10
3778.5
 20
1945.955334987592
 30
0.0
 11
3758.5
 21
1940.596351138971
 31
0.0
  0
LINE
  5
453B
330
1D9
100
AcDbEntity
  8
0
100
AcDbLine
 10
3778.5
 20
1945.955334987592
 30
0.0
 11
3758.5
 21
1951.314318836215
 31
0.0
  0
LINE
  5
453C
330
1D9
100
AcDbEntity
  8
0
100
AcDbLine
 10
3758.5
 20
1945.955334987592
 30
0.0
 11
3778.5
 21
1945.955334987592
 31
0.0
  0
ENDSEC
  0
SECTION
  2
OBJECTS
  0
DICTIONARY
  5
1CD
330
0
100
AcDbDictionary
  3
ACAD_GROUP
350
1CE
  3
ACAD_LAYOUT
350
2DE
  3
ACAD_MLINESTYLE
350
1CF
  3
ACAD_PLOTSETTINGS
350
2DF
1001
ACAD
1000
TREAT_AS_HARD
1070
     0
1000
TREAT_AS_HARD
1070
     0
  0
DICTIONARY
  5
2738
330
1C3
100
AcDbDictionary
  3
ACAD_LAYERSTATES
350
2739
1001
ACAD
1000
TREAT_AS_HARD
1070
     1
1000
TREAT_AS_HARD
1070
     0
  0
DICTIONARY
  5
4543
330
1D9
100
AcDbDictionary
  3
ACAD_LAYOUTSELFREF
350
4579
1001
ACAD
1000
TREAT_AS_HARD
1070
     0
  0
DICTIONARY
  5
4541
330
1D6
100
AcDbDictionary
  3
ACAD_LAYOUTSELFREF
350
4578
1001
ACAD
1000
TREAT_AS_HARD
1070
     0
  0
DICTIONARY
  5
1CE
102
{ACAD_REACTORS
330
1CD
102
}
330
1CD
100
AcDbDictionary
1001
ACAD
1000
TREAT_AS_HARD
1070
     0
1000
TREAT_AS_HARD
1070
     0
  0
DICTIONARY
  5
2DE
102
{ACAD_REACTORS
330
1CD
102
}
330
1CD
100
AcDbDictionary
1001
ACAD
1000
TREAT_AS_HARD
1070
     0
1000
TREAT_AS_HARD
1070
     0
  0
DICTIONARY
  5
1CF
102
{ACAD_REACTORS
330
1CD
102
}
330
1CD
100
AcDbDictionary
  3
STANDARD
350
1DC
1001
ACAD
1000
TREAT_AS_HARD
1070
     0
1000
TREAT_AS_HARD
1070
     0
  0
DICTIONARY
  5
2DF
102
{ACAD_REACTORS
330
1CD
102
}
330
1CD
100
AcDbDictionary
1001
ACAD
1000
TREAT_AS_HARD
1070
     0
1000
TREAT_AS_HARD
1070
     0
  0
DICTIONARY
  5
2739
102
{ACAD_REACTORS
330
2738
102
}
330
2738
100
AcDbDictionary
1001
ACAD
1000
TREAT_AS_HARD
1070
     0
1000
TREAT_AS_HARD
1070
     0
  0
XRECORD
  5
4579
102
{ACAD_REACTORS
330
4543
102
}
330
4543
100
AcDbXrecord
340
1D9
  0
XRECORD
  5
4578
102
{ACAD_REACTORS
330
4541
102
}
330
4541
100
AcDbXrecord
340
1D6
  0
MLINESTYLE
  5
1DC
102
{ACAD_REACTORS
330
1CF
102
}
330
1CF
100
AcDbMlineStyle
  2
STANDARD
 70
     0
  3

 62
     0
 51
90.0
 52
90.0
 71
     2
 49
0.5
 62
   256
  6
BYLAYER
 49
-0.5
 62
   256
  6
BYLAYER
  0
ENDSEC
  0
EOF
