  0
SECTION
  2
HEADER
  9
$ACADVER
  1
AC1012
  9
$DWGCODEPAGE
  3
dos932
  9
$INSBASE
 10
0.0
 20
0.0
 30
0.0
  9
$EXTMIN
 10
30.0
 20
0.0
 30
0.0
  9
$EXTMAX
 10
3990.607053980438
 20
2840.0
 30
0.0
  9
$LIMMIN
 10
0.0
 20
0.0
  9
$LIMMAX
 10
4200.0
 20
2970.0
  9
$ORTHOMODE
 70
     0
  9
$REGENMODE
 70
     1
  9
$FILLMODE
 70
     1
  9
$QTEXTMODE
 70
     0
  9
$MIRRTEXT
 70
     0
  9
$DRAGMODE
 70
     2
  9
$LTSCALE
 40
80.0
  9
$OSMODE
 70
    37
  9
$ATTMODE
 70
     1
  9
$TEXTSIZE
 40
30.0
  9
$TRACEWID
 40
0.05
  9
$TEXTSTYLE
  7
STANDARD
  9
$CLAYER
  8
0
  9
$CELTYPE
  6
BYLAYER
  9
$CECOLOR
 62
   256
  9
$CELTSCALE
 40
1.0
  9
$DELOBJ
 70
     1
  9
$DISPSILH
 70
     0
  9
$DIMSCALE
 40
10.0
  9
$DIMASZ
 40
2.0
  9
$DIMEXO
 40
0.1
  9
$DIMDLI
 40
7.0
  9
$DIMRND
 40
0.0
  9
$DIMDLE
 40
0.0
  9
$DIMEXE
 40
1.8
  9
$DIMTP
 40
0.0
  9
$DIMTM
 40
0.0
  9
$DIMTXT
 40
3.0
  9
$DIMCEN
 40
0.1
  9
$DIMTSZ
 40
0.0
  9
$DIMTOL
 70
     0
  9
$DIMLIM
 70
     0
  9
$DIMTIH
 70
     0
  9
$DIMTOH
 70
     0
  9
$DIMSE1
 70
     0
  9
$DIMSE2
 70
     0
  9
$DIMTAD
 70
     0
  9
$DIMZIN
 70
     9
  9
$DIMBLK
  1
YAZ1
  9
$DIMASO
 70
     1
  9
$DIMSHO
 70
     1
  9
$DIMPOST
  1

  9
$DIMAPOST
  1

  9
$DIMALT
 70
     0
  9
$DIMALTD
 70
     2
  9
$DIMALTF
 40
25.4
  9
$DIMLFAC
 40
1.0
  9
$DIMTOFL
 70
     1
  9
$DIMTVP
 40
1.0
  9
$DIMTIX
 70
     0
  9
$DIMSOXD
 70
     0
  9
$DIMSAH
 70
     1
  9
$DIMBLK1
  1
YAZ1
  9
$DIMBLK2
  1
YAZ1
  9
$DIMSTYLE
  2
YAZ1
  9
$DIMCLRD
 70
   256
  9
$DIMCLRE
 70
   256
  9
$DIMCLRT
 70
   256
  9
$DIMTFAC
 40
1.0
  9
$DIMGAP
 40
0.0
  9
$DIMJUST
 70
     0
  9
$DIMSD1
 70
     0
  9
$DIMSD2
 70
     0
  9
$DIMTOLJ
 70
     1
  9
$DIMTZIN
 70
     9
  9
$DIMALTZ
 70
     9
  9
$DIMALTTZ
 70
     9
  9
$DIMFIT
 70
     3
  9
$DIMUPT
 70
     0
  9
$DIMUNIT
 70
     2
  9
$DIMDEC
 70
     3
  9
$DIMTDEC
 70
     3
  9
$DIMALTU
 70
     2
  9
$DIMALTTD
 70
     2
  9
$DIMTXSTY
  7
STANDARD
  9
$DIMAUNIT
 70
     0
  9
$LUNITS
 70
     2
  9
$LUPREC
 70
     3
  9
$SKETCHINC
 40
0.1
  9
$FILLETRAD
 40
0.0
  9
$AUNITS
 70
     0
  9
$AUPREC
 70
     2
  9
$MENU
  1
amecex
  9
$ELEVATION
 40
0.0
  9
$PELEVATION
 40
0.0
  9
$THICKNESS
 40
0.0
  9
$LIMCHECK
 70
     0
  9
$BLIPMODE
 70
     0
  9
$CHAMFERA
 40
0.0
  9
$CHAMFERB
 40
0.0
  9
$CHAMFERC
 40
0.0
  9
$CHAMFERD
 40
0.0
  9
$SKPOLY
 70
     0
  9
$TDCREATE
 40
2452593.633064710
  9
$TDUPDATE
 40
2456059.491506469
  9
$TDINDWG
 40
0.5604168171
  9
$TDUSRTIMER
 40
0.5604167014
  9
$USRTIMER
 70
     1
  9
$ANGBASE
 50
0.0
  9
$ANGDIR
 70
     0
  9
$PDMODE
 70
     0
  9
$PDSIZE
 40
0.0
  9
$PLINEWID
 40
0.0
  9
$COORDS
 70
     0
  9
$SPLFRAME
 70
     0
  9
$SPLINETYPE
 70
     6
  9
$SPLINESEGS
 70
     8
  9
$ATTDIA
 70
     0
  9
$ATTREQ
 70
     1
  9
$HANDLING
 70
-16383
  9
$HANDSEED
  5
3F02
  9
$SURFTAB1
 70
     6
  9
$SURFTAB2
 70
     6
  9
$SURFTYPE
 70
     6
  9
$SURFU
 70
     6
  9
$SURFV
 70
     6
  9
$UCSNAME
  2

  9
$UCSORG
 10
0.0
 20
0.0
 30
0.0
  9
$UCSXDIR
 10
1.0
 20
0.0
 30
0.0
  9
$UCSYDIR
 10
0.0
 20
1.0
 30
0.0
  9
$PUCSNAME
  2

  9
$PUCSORG
 10
0.0
 20
0.0
 30
0.0
  9
$PUCSXDIR
 10
1.0
 20
0.0
 30
0.0
  9
$PUCSYDIR
 10
0.0
 20
1.0
 30
0.0
  9
$USERI1
 70
     0
  9
$USERI2
 70
     0
  9
$USERI3
 70
     0
  9
$USERI4
 70
     0
  9
$USERI5
 70
     0
  9
$USERR1
 40
30.0
  9
$USERR2
 40
0.0
  9
$USERR3
 40
0.0
  9
$USERR4
 40
0.0
  9
$USERR5
 40
0.0
  9
$WORLDVIEW
 70
     1
  9
$SHADEDGE
 70
     3
  9
$SHADEDIF
 70
    70
  9
$TILEMODE
 70
     1
  9
$MAXACTVP
 70
    16
  9
$PINSBASE
 10
0.0
 20
0.0
 30
0.0
  9
$PLIMCHECK
 70
     0
  9
$PEXTMIN
 10
1.000000000000000E+20
 20
1.000000000000000E+20
 30
1.000000000000000E+20
  9
$PEXTMAX
 10
-1.000000000000000E+20
 20
-1.000000000000000E+20
 30
-1.000000000000000E+20
  9
$PLIMMIN
 10
0.0
 20
0.0
  9
$PLIMMAX
 10
12.0
 20
9.0
  9
$UNITMODE
 70
     0
  9
$VISRETAIN
 70
     0
  9
$PLINEGEN
 70
     0
  9
$PSLTSCALE
 70
     0
  9
$TREEDEPTH
 70
  3020
  9
$PICKSTYLE
 70
     1
  9
$CMLSTYLE
  2
STANDARD
  9
$CMLJUST
 70
     0
  9
$CMLSCALE
 40
1.0
  9
$SAVEIMAGES
 70
     1
  0
ENDSEC
  0
SECTION
  2
CLASSES
  0
CLASS
  1
ACDBDICTIONARYWDFLT
  2
AcDbDictionaryWithDefault
  3
AutoCAD 2000
 90
    32768
280
     0
281
     0
  0
CLASS
  1
ACDBPLACEHOLDER
  2
AcDbPlaceHolder
  3
AutoCAD 2000
 90
    32768
280
     0
281
     0
  0
CLASS
  1
LAYOUT
  2
AcDbLayout
  3
AutoCAD 2000
 90
    32768
280
     0
281
     0
  0
CLASS
  1
DICTIONARYVAR
  2
AcDbDictionaryVar
  3
AutoCAD 2000
 90
    32768
280
     0
281
     0
  0
CLASS
  1
LONG_TRANSACTION
  2
AcDbLongTransaction
  3
AutoCAD 2000
 90
    32768
280
     0
281
     0
  0
CLASS
  1
LWPOLYLINE
  2
AcDbPolyline
  3
AutoCAD 2000
 90
    32768
280
     0
281
     1
  0
CLASS
  1
HATCH
  2
AcDbHatch
  3
AutoCAD 2000
 90
    32768
280
     0
281
     1
  0
CLASS
  1
XRECORD
  2
AcDbXrecord
  3
AutoCAD 2000
 90
    32768
280
     0
281
     0
  0
CLASS
  1
LONG_TRANSACTION
  2
AcDbLongTransaction
  3
AutoCAD 2000
 90
    32768
280
     0
281
     0
  0
CLASS
  1
LWPOLYLINE
  2
AcDbPolyline
  3
AutoCAD 2000
 90
    32768
280
     0
281
     1
  0
CLASS
  1
HATCH
  2
AcDbHatch
  3
AutoCAD 2000
 90
    32768
280
     0
281
     1
  0
CLASS
  1
XRECORD
  2
AcDbXrecord
  3
AutoCAD 2000
 90
    32768
280
     0
281
     0
  0
ENDSEC
  0
SECTION
  2
TABLES
  0
TABLE
  2
VPORT
  5
1C9
330
0
100
AcDbSymbolTable
 70
     2
  0
VPORT
  5
3EFF
330
1C9
100
AcDbSymbolTableRecord
100
AcDbViewportTableRecord
  2
*ACTIVE
 70
     0
 10
0.0
 20
0.0
 11
1.0
 21
1.0
 12
2949.402514335661
 22
684.5861284890843
 13
0.0
 23
0.0
 14
1.0
 24
1.0
 15
0.0
 25
0.0
 16
0.0
 26
0.0
 36
1.0
 17
0.0
 27
0.0
 37
0.0
 40
5184.109532506396
 41
1.81042654028436
 42
50.0
 43
0.0
 44
0.0
 50
0.0
 51
0.0
 71
     0
 72
   100
 73
     1
 74
     1
 75
     0
 76
     0
 77
     0
 78
     0
  0
ENDTAB
  0
TABLE
  2
LTYPE
  5
1C6
330
0
100
AcDbSymbolTable
 70
     3
  0
LTYPE
  5
1D3
330
1C6
100
AcDbSymbolTableRecord
100
AcDbLinetypeTableRecord
  2
BYBLOCK
 70
     0
  3

 72
    65
 73
     0
 40
0.0
  0
LTYPE
  5
1D4
330
1C6
100
AcDbSymbolTableRecord
100
AcDbLinetypeTableRecord
  2
BYLAYER
 70
     0
  3

 72
    65
 73
     0
 40
0.0
  0
LTYPE
  5
1D5
330
1C6
100
AcDbSymbolTableRecord
100
AcDbLinetypeTableRecord
  2
CONTINUOUS
 70
     0
  3
実線
 72
    65
 73
     0
 40
0.0
  0
ENDTAB
  0
TABLE
  2
LAYER
  5
1C3
102
{ACAD_XDICTIONARY
360
2738
102
}
330
0
100
AcDbSymbolTable
 70
     5
  0
LAYER
  5
1D0
330
1C3
100
AcDbSymbolTableRecord
100
AcDbLayerTableRecord
  2
0
 70
     0
 62
     7
  6
CONTINUOUS
  0
ENDTAB
  0
TABLE
  2
STYLE
  5
1C4
330
0
100
AcDbSymbolTable
 70
     1
  0
STYLE
  5
1D1
330
1C4
100
AcDbSymbolTableRecord
100
AcDbTextStyleTableRecord
  2
STANDARD
 70
     0
 40
0.0
 41
1.0
 50
0.0
 71
     0
 42
30.0
  3
TXT
  4
BIGFONT
  0
ENDTAB
  0
TABLE
  2
VIEW
  5
1C7
330
0
100
AcDbSymbolTable
 70
     0
  0
ENDTAB
  0
TABLE
  2
UCS
  5
1C8
330
0
100
AcDbSymbolTable
 70
     0
  0
ENDTAB
  0
TABLE
  2
APPID
  5
1CA
330
0
100
AcDbSymbolTable
 70
     2
  0
APPID
  5
1D2
330
1CA
100
AcDbSymbolTableRecord
100
AcDbRegAppTableRecord
  2
ACAD
 70
     0
  0
APPID
  5
286
330
1CA
100
AcDbSymbolTableRecord
100
AcDbRegAppTableRecord
  2
ACE-LT__COPYRIGHT_TRIALSOFT-JPN
 70
     0
  0
ENDTAB
  0
TABLE
  2
DIMSTYLE
  5
1CB
330
0
100
AcDbSymbolTable
 70
     1
  0
DIMSTYLE
105
1F1
330
1CB
100
AcDbSymbolTableRecord
100
AcDbDimStyleTableRecord
  2
YAZ1
 70
     0
  3

  4

  5
YAZ1
  6
YAZ1
  7
YAZ1
 40
10.0
 41
2.0
 42
0.1
 43
7.0
 44
1.8
 45
0.0
 46
0.0
 47
0.0
 48
0.0
140
3.0
141
0.1
142
0.0
143
25.4
144
1.0
145
1.0
146
1.0
147
0.0
 71
     0
 72
     0
 73
     0
 74
     0
 75
     0
 76
     0
 77
     0
 78
     9
170
     0
171
     2
172
     1
173
     1
174
     0
175
     0
176
   256
177
   256
178
   256
270
     2
271
     3
272
     3
273
     2
274
     2
340
1D1
275
     0
280
     0
281
     0
282
     0
283
     1
284
     9
285
     9
286
     9
287
     3
288
     0
  0
ENDTAB
  0
TABLE
  2
BLOCK_RECORD
  5
1C2
330
0
100
AcDbSymbolTable
 70
     1
  0
BLOCK_RECORD
  5
1D9
102
{ACAD_XDICTIONARY
360
3ECB
102
}
330
1C2
100
AcDbSymbolTableRecord
100
AcDbBlockTableRecord
  2
*MODEL_SPACE
  0
BLOCK_RECORD
  5
1D6
102
{ACAD_XDICTIONARY
360
3EC9
102
}
330
1C2
100
AcDbSymbolTableRecord
100
AcDbBlockTableRecord
  2
*PAPER_SPACE
  0
BLOCK_RECORD
  5
254
330
1C2
100
AcDbSymbolTableRecord
100
AcDbBlockTableRecord
  2
YAZ1
  0
ENDTAB
  0
ENDSEC
  0
SECTION
  2
BLOCKS
  0
BLOCK
  5
20A
330
1D9
100
AcDbEntity
  8
0
100
AcDbBlockBegin
  2
*MODEL_SPACE
 70
     0
 10
0.0
 20
0.0
 30
0.0
  3
*MODEL_SPACE
  1

  0
ENDBLK
  5
20B
330
1D9
100
AcDbEntity
  8
0
100
AcDbBlockEnd
  0
BLOCK
  5
208
330
1D6
100
AcDbEntity
 67
     1
  8
0
100
AcDbBlockBegin
  2
*PAPER_SPACE
 70
     0
 10
0.0
 20
0.0
 30
0.0
  3
*PAPER_SPACE
  1

  0
ENDBLK
  5
209
330
1D6
100
AcDbEntity
 67
     1
  8
0
100
AcDbBlockEnd
  0
BLOCK
  5
258
330
254
100
AcDbEntity
  8
0
100
AcDbBlockBegin
  2
YAZ1
 70
     0
 10
0.0
 20
0.0
 30
0.0
  3
YAZ1
  1

  0
LINE
  5
255
330
254
100
AcDbEntity
  8
0
100
AcDbLine
 10
0.0
 20
0.0
 30
0.0
 11
-1.0
 21
-0.2679491924311037
 31
0.0
  0
LINE
  5
256
330
254
100
AcDbEntity
  8
0
100
AcDbLine
 10
0.0
 20
0.0
 30
0.0
 11
-1.0
 21
0.2679491924311037
 31
0.0
  0
LINE
  5
257
330
254
100
AcDbEntity
  8
0
100
AcDbLine
 10
-1.0
 20
0.0
 30
0.0
 11
0.0
 21
0.0
 31
0.0
  0
ENDBLK
  5
259
330
254
100
AcDbEntity
  8
0
100
AcDbBlockEnd
  0
ENDSEC
  0
SECTION
  2
ENTITIES
  0
TEXT
  5
3589
330
1D9
100
AcDbEntity
  8
0
100
AcDbText
 10
1877.428263404294
 20
1012.512383790262
 30
0.0
 40
48.51116625310172
  1
呼び径：150
100
AcDbText
  0
TEXT
  5
358A
330
1D9
100
AcDbEntity
  8
0
100
AcDbText
 10
1719.141968043148
 20
939.839685983552
 30
0.0
 40
48.51116625310172
  1
品番：NF150-200VSU
100
AcDbText
  0
TEXT
  5
358B
330
1D9
100
AcDbEntity
  8
0
100
AcDbText
 10
1877.428263404294
 20
2236.557048802669
 30
0.0
 40
48.51116625310172
  1
呼び径：75
100
AcDbText
  0
TEXT
  5
358C
330
1D9
100
AcDbEntity
  8
0
100
AcDbText
 10
1719.141968043148
 20
2163.884350995957
 30
0.0
 40
48.51116625310172
  1
品番：NF75-200VSU
100
AcDbText
  0
LINE
  5
3591
330
1D9
100
AcDbEntity
  8
0
100
AcDbLine
 10
80.0
 20
2450.0
 30
0.0
 11
3990.0
 21
2450.0
 31
0.0
  0
LINE
  5
3592
330
1D9
100
AcDbEntity
  8
0
100
AcDbLine
 10
3990.607053980438
 20
1225.955334987593
 30
0.0
 11
80.60705398043863
 21
1225.955334987593
 31
0.0
  0
LINE
  5
359E
330
1D9
100
AcDbEntity
  8
0
100
AcDbLine
 10
3990.0
 20
0.0
 30
0.0
 11
80.0
 21
0.0
 31
0.0
  0
LINE
  5
359F
330
1D9
100
AcDbEntity
  8
0
100
AcDbLine
 10
80.0
 20
2840.0
 30
0.0
 11
3990.0
 21
2840.0
 31
0.0
  0
TEXT
  5
35A0
330
1D9
100
AcDbEntity
  8
0
100
AcDbText
 10
195.1116189770246
 20
2608.88260459352
 30
0.0
 40
67.91563275434242
  1
フレキベンダーＶＰ 〔偏芯量：200mm　挿口×受口〕
100
AcDbText
  0
LINE
  5
35A1
330
1D9
100
AcDbEntity
  8
0
100
AcDbLine
 10
80.0
 20
0.0
 30
0.0
 11
80.0
 21
2840.0
 31
0.0
  0
TEXT
  5
35A6
330
1D9
100
AcDbEntity
  8
0
100
AcDbText
 10
574.4282634042937
 20
1012.512383790262
 30
0.0
 40
48.51116625310172
  1
呼び径：125
100
AcDbText
  0
TEXT
  5
35A7
330
1D9
100
AcDbEntity
  8
0
100
AcDbText
 10
416.1419680431481
 20
939.839685983552
 30
0.0
 40
48.51116625310172
  1
品番：NF125-200VSU
100
AcDbText
  0
TEXT
  5
35A8
330
1D9
100
AcDbEntity
  8
0
100
AcDbText
 10
574.4282634042937
 20
2236.557048802669
 30
0.0
 40
48.51116625310172
  1
呼び径：50
100
AcDbText
  0
TEXT
  5
35A9
330
1D9
100
AcDbEntity
  8
0
100
AcDbText
 10
416.1419680431481
 20
2163.884350995957
 30
0.0
 40
48.51116625310172
  1
品番：NF50-200VSU
100
AcDbText
  0
LINE
  5
35F1
330
1D9
100
AcDbEntity
  8
0
100
AcDbLine
 10
1384.0
 20
2450.0
 30
0.0
 11
1384.0
 21
0.0
 31
0.0
  0
ARC
  5
3679
330
1D9
100
AcDbEntity
  8
0
100
AcDbCircle
 10
3025.5
 20
500.0
 30
0.0
 40
137.7499999999999
100
AcDbArc
 50
71.32830000000318
 51
128.369000000009
  0
ARC
  5
367A
330
1D9
100
AcDbEntity
  8
0
100
AcDbCircle
 10
3025.5
 20
500.0
 30
0.0
 40
137.7499999999999
100
AcDbArc
 50
231.6309999999909
 51
288.6720000000149
  0
LINE
  5
367B
330
1D9
100
AcDbEntity
  8
0
100
AcDbLine
 10
2754.699
 20
500.0
 30
0.0
 11
3506.499999999999
 21
500.0
 31
0.0
  0
ARC
  5
367C
330
1D9
100
AcDbEntity
  8
0
100
AcDbCircle
 10
1691.0
 20
500.0
 30
0.0
 40
106.4999999999999
100
AcDbArc
 50
230.77299999999
 51
288.4939999999774
  0
ARC
  5
367D
330
1D9
100
AcDbEntity
  8
0
100
AcDbCircle
 10
1691.0
 20
500.0
 30
0.0
 40
106.4999999999999
100
AcDbArc
 50
71.50600000002256
 51
129.2270000000098
  0
LINE
  5
367E
330
1D9
100
AcDbEntity
  8
0
100
AcDbLine
 10
1443.677590879742
 20
500.0
 30
0.0
 11
2272.229590879742
 21
500.0
 31
0.0
  0
LINE
  5
3680
330
1D9
100
AcDbEntity
  8
0
100
AcDbLine
 10
1623.65
 20
582.5
 30
0.0
 11
1623.65
 21
500.0
 31
0.0
  0
LINE
  5
3681
330
1D9
100
AcDbEntity
  8
0
100
AcDbLine
 10
1491.0
 20
579.5529999999997
 30
0.0
 11
1491.0
 21
500.0
 31
0.0
  0
LINE
  5
3682
330
1D9
100
AcDbEntity
  8
0
100
AcDbLine
 10
1502.0
 20
582.5
 30
0.0
 11
1502.0
 21
500.0
 31
0.0
  0
LINE
  5
3683
330
1D9
100
AcDbEntity
  8
0
100
AcDbLine
 10
1623.65
 20
417.4999999999998
 30
0.0
 11
1502.0
 21
417.4999999999998
 31
0.0
  0
LINE
  5
3684
330
1D9
100
AcDbEntity
  8
0
100
AcDbLine
 10
1491.0
 20
420.4479999999998
 30
0.0
 11
1491.0
 21
500.0
 31
0.0
  0
LINE
  5
3685
330
1D9
100
AcDbEntity
  8
0
100
AcDbLine
 10
1502.0
 20
417.4999999999998
 30
0.0
 11
1502.0
 21
500.0
 31
0.0
  0
LINE
  5
3686
330
1D9
100
AcDbEntity
  8
0
100
AcDbLine
 10
1491.0
 20
420.4479999999998
 30
0.0
 11
1502.0
 21
417.4999999999998
 31
0.0
  0
LINE
  5
3687
330
1D9
100
AcDbEntity
  8
0
100
AcDbLine
 10
1623.65
 20
417.4999999999998
 30
0.0
 11
1623.65
 21
500.0
 31
0.0
  0
LINE
  5
3688
330
1D9
100
AcDbEntity
  8
0
100
AcDbLine
 10
1623.65
 20
582.5
 30
0.0
 11
1502.0
 21
582.5
 31
0.0
  0
LINE
  5
3689
330
1D9
100
AcDbEntity
  8
0
100
AcDbLine
 10
1491.0
 20
579.5529999999997
 30
0.0
 11
1502.0
 21
582.5
 31
0.0
  0
LINE
  5
368D
330
1D9
100
AcDbEntity
  8
0
100
AcDbLine
 10
2792.5
 20
608.0
 30
0.0
 11
2939.995
 21
608.0
 31
0.0
  0
LINE
  5
368E
330
1D9
100
AcDbEntity
  8
0
100
AcDbLine
 10
2792.5
 20
392.0
 30
0.0
 11
2939.995
 21
392.0
 31
0.0
  0
LINE
  5
368F
330
1D9
100
AcDbEntity
  8
0
100
AcDbLine
 10
2780.499999999999
 20
500.0
 30
0.0
 11
2780.499999999999
 21
605.0
 31
0.0
  0
LINE
  5
3690
330
1D9
100
AcDbEntity
  8
0
100
AcDbLine
 10
2792.5
 20
608.0
 30
0.0
 11
2792.5
 21
500.0
 31
0.0
  0
LINE
  5
3691
330
1D9
100
AcDbEntity
  8
0
100
AcDbLine
 10
2780.499999999999
 20
500.0
 30
0.0
 11
2780.499999999999
 21
395.0
 31
0.0
  0
LINE
  5
3692
330
1D9
100
AcDbEntity
  8
0
100
AcDbLine
 10
2792.5
 20
392.0
 30
0.0
 11
2792.5
 21
500.0
 31
0.0
  0
LINE
  5
3693
330
1D9
100
AcDbEntity
  8
0
100
AcDbLine
 10
2780.499999999999
 20
395.0
 30
0.0
 11
2792.5
 21
392.0
 31
0.0
  0
LINE
  5
3694
330
1D9
100
AcDbEntity
  8
0
100
AcDbLine
 10
2780.499999999999
 20
605.0
 30
0.0
 11
2792.5
 21
608.0
 31
0.0
  0
LINE
  5
3695
330
1D9
100
AcDbEntity
  8
0
100
AcDbLine
 10
2939.995
 20
608.0
 30
0.0
 11
2939.995
 21
500.0
 31
0.0
  0
LINE
  5
3696
330
1D9
100
AcDbEntity
  8
0
100
AcDbLine
 10
2939.995
 20
392.0
 30
0.0
 11
2939.995
 21
500.0
 31
0.0
  0
LINE
  5
369F
330
1D9
100
AcDbEntity
  8
0
100
AcDbLine
 10
2333.0
 20
565.0
 30
0.0
 11
2420.0
 21
565.0
 31
0.0
  0
LINE
  5
36A0
330
1D9
100
AcDbEntity
  8
0
100
AcDbLine
 10
2333.0
 20
387.0
 30
0.0
 11
2420.0
 21
387.0
 31
0.0
  0
LINE
  5
36A1
330
1D9
100
AcDbEntity
  8
0
100
AcDbLine
 10
2333.0
 20
476.0
 30
0.0
 11
2596.71
 21
476.0
 31
0.0
  0
LINE
  5
36A2
330
1D9
100
AcDbEntity
  8
0
100
AcDbLine
 10
2333.0
 20
565.0
 30
0.0
 11
2333.0
 21
476.0
 31
0.0
  0
LINE
  5
36A3
330
1D9
100
AcDbEntity
  8
0
100
AcDbLine
 10
2297.0
 20
603.2139999999998
 30
0.0
 11
2319.24
 21
560.5
 31
0.0
  0
LINE
  5
36A4
330
1D9
100
AcDbEntity
  8
0
100
AcDbLine
 10
2175.0
 20
614.5
 30
0.0
 11
2175.0
 21
500.0
 31
0.0
  0
LINE
  5
36A5
330
1D9
100
AcDbEntity
  8
0
100
AcDbLine
 10
2297.0
 20
614.5
 30
0.0
 11
2297.0
 21
500.0
 31
0.0
  0
LINE
  5
36A6
330
1D9
100
AcDbEntity
  8
0
100
AcDbLine
 10
1930.996999999999
 20
608.0
 30
0.0
 11
1930.996999999999
 21
500.0
 31
0.0
  0
LINE
  5
36A7
330
1D9
100
AcDbEntity
  8
0
100
AcDbLine
 10
1731.0
 20
500.0
 30
0.0
 11
1731.0
 21
601.0
 31
0.0
  0
LINE
  5
36A8
330
1D9
100
AcDbEntity
  8
0
100
AcDbLine
 10
1724.782999999999
 20
601.0
 30
0.0
 11
1724.782999999999
 21
500.0
 31
0.0
  0
LINE
  5
36A9
330
1D9
100
AcDbEntity
  8
0
100
AcDbLine
 10
1930.996999999999
 20
392.0
 30
0.0
 11
2175.0
 21
392.0
 31
0.0
  0
LINE
  5
36AA
330
1D9
100
AcDbEntity
  8
0
100
AcDbLine
 10
1930.996999999999
 20
417.4999999999998
 30
0.0
 11
1731.0
 21
417.4999999999998
 31
0.0
  0
LINE
  5
36AB
330
1D9
100
AcDbEntity
  8
0
100
AcDbLine
 10
1731.0
 20
500.0
 30
0.0
 11
1731.0
 21
399.0
 31
0.0
  0
LINE
  5
36AC
330
1D9
100
AcDbEntity
  8
0
100
AcDbLine
 10
1724.782999999999
 20
399.0
 30
0.0
 11
1724.782999999999
 21
500.0
 31
0.0
  0
LINE
  5
36AD
330
1D9
100
AcDbEntity
  8
0
100
AcDbLine
 10
1724.782999999999
 20
399.0
 30
0.0
 11
1731.0
 21
399.0
 31
0.0
  0
LINE
  5
36AE
330
1D9
100
AcDbEntity
  8
0
100
AcDbLine
 10
1691.0
 20
525.0
 30
0.0
 11
1691.0
 21
475.0
 31
0.0
  0
LINE
  5
36AF
330
1D9
100
AcDbEntity
  8
0
100
AcDbLine
 10
1930.996999999999
 20
392.0
 30
0.0
 11
1930.996999999999
 21
500.0
 31
0.0
  0
LINE
  5
36B0
330
1D9
100
AcDbEntity
  8
0
100
AcDbLine
 10
2175.0
 20
385.5
 30
0.0
 11
2297.0
 21
385.5
 31
0.0
  0
LINE
  5
36B1
330
1D9
100
AcDbEntity
  8
0
100
AcDbLine
 10
2175.0
 20
385.5
 30
0.0
 11
2175.0
 21
500.0
 31
0.0
  0
LINE
  5
36B2
330
1D9
100
AcDbEntity
  8
0
100
AcDbLine
 10
2319.24
 20
560.5
 30
0.0
 11
2319.24
 21
415.5169999999998
 31
0.0
  0
LINE
  5
36B3
330
1D9
100
AcDbEntity
  8
0
100
AcDbLine
 10
2333.0
 20
387.0
 30
0.0
 11
2333.0
 21
476.0
 31
0.0
  0
LINE
  5
36B4
330
1D9
100
AcDbEntity
  8
0
100
AcDbLine
 10
2297.0
 20
385.5
 30
0.0
 11
2297.0
 21
500.0
 31
0.0
  0
LINE
  5
36B5
330
1D9
100
AcDbEntity
  8
0
100
AcDbLine
 10
2297.0
 20
391.5
 30
0.0
 11
2333.0
 21
391.5
 31
0.0
  0
LINE
  5
36B6
330
1D9
100
AcDbEntity
  8
0
100
AcDbLine
 10
2297.0
 20
500.0
 30
0.0
 11
2333.0
 21
476.0
 31
0.0
  0
LINE
  5
36B7
330
1D9
100
AcDbEntity
  8
0
100
AcDbLine
 10
2319.24
 20
560.5
 30
0.0
 11
2333.0
 21
560.5
 31
0.0
  0
LINE
  5
36B8
330
1D9
100
AcDbEntity
  8
0
100
AcDbLine
 10
1930.996999999999
 20
608.0
 30
0.0
 11
2175.0
 21
608.0
 31
0.0
  0
LINE
  5
36BA
330
1D9
100
AcDbEntity
  8
0
100
AcDbLine
 10
1930.996999999999
 20
582.5
 30
0.0
 11
1731.0
 21
582.5
 31
0.0
  0
LINE
  5
36BB
330
1D9
100
AcDbEntity
  8
0
100
AcDbLine
 10
1724.782999999999
 20
601.0
 30
0.0
 11
1731.0
 21
601.0
 31
0.0
  0
LINE
  5
36BC
330
1D9
100
AcDbEntity
  8
0
100
AcDbLine
 10
2175.0
 20
614.5
 30
0.0
 11
2297.0
 21
614.5
 31
0.0
  0
LINE
  5
36BD
330
1D9
100
AcDbEntity
  8
0
100
AcDbLine
 10
2580.0
 20
476.0
 30
0.0
 11
2580.0
 21
577.0
 31
0.0
  0
LINE
  5
36BE
330
1D9
100
AcDbEntity
  8
0
100
AcDbLine
 10
2573.779999999999
 20
577.0
 30
0.0
 11
2573.779999999999
 21
375.0
 31
0.0
  0
LINE
  5
36BF
330
1D9
100
AcDbEntity
  8
0
100
AcDbLine
 10
2420.0
 20
565.0
 30
0.0
 11
2420.0
 21
476.0
 31
0.0
  0
ARC
  5
36C0
330
1D9
100
AcDbEntity
  8
0
100
AcDbCircle
 10
2540.0
 20
476.0
 30
0.0
 40
106.4999999999999
100
AcDbArc
 50
71.50600000002256
 51
129.2270000000098
  0
ARC
  5
36C1
330
1D9
100
AcDbEntity
  8
0
100
AcDbCircle
 10
2540.0
 20
476.0
 30
0.0
 40
106.4999999999999
100
AcDbArc
 50
230.77299999999
 51
288.4939999999774
  0
LINE
  5
36C2
330
1D9
100
AcDbEntity
  8
0
100
AcDbLine
 10
2491.0
 20
558.4999999999999
 30
0.0
 11
2580.0
 21
558.4999999999999
 31
0.0
  0
LINE
  5
36C3
330
1D9
100
AcDbEntity
  8
0
100
AcDbLine
 10
2491.0
 20
393.5
 30
0.0
 11
2580.0
 21
393.5
 31
0.0
  0
LINE
  5
36C4
330
1D9
100
AcDbEntity
  8
0
100
AcDbLine
 10
2472.649999999999
 20
558.4999999999999
 30
0.0
 11
2420.0
 21
558.4999999999999
 31
0.0
  0
LINE
  5
36C5
330
1D9
100
AcDbEntity
  8
0
100
AcDbLine
 10
2472.649999999999
 20
393.5
 30
0.0
 11
2420.0
 21
393.5
 31
0.0
  0
LINE
  5
36C6
330
1D9
100
AcDbEntity
  8
0
100
AcDbLine
 10
2420.0
 20
387.0
 30
0.0
 11
2420.0
 21
476.0
 31
0.0
  0
LINE
  5
36C7
330
1D9
100
AcDbEntity
  8
0
100
AcDbLine
 10
2472.649999999999
 20
558.4999999999999
 30
0.0
 11
2472.649999999999
 21
393.5
 31
0.0
  0
LINE
  5
36C8
330
1D9
100
AcDbEntity
  8
0
100
AcDbLine
 10
2491.0
 20
558.4999999999999
 30
0.0
 11
2491.0
 21
393.5
 31
0.0
  0
LINE
  5
36C9
330
1D9
100
AcDbEntity
  8
0
100
AcDbLine
 10
2580.0
 20
476.0
 30
0.0
 11
2580.0
 21
375.0
 31
0.0
  0
LINE
  5
36CA
330
1D9
100
AcDbEntity
  8
0
100
AcDbLine
 10
2540.0
 20
501.0
 30
0.0
 11
2540.0
 21
451.0
 31
0.0
  0
LINE
  5
36CB
330
1D9
100
AcDbEntity
  8
0
100
AcDbLine
 10
2573.779999999999
 20
375.0
 30
0.0
 11
2580.0
 21
375.0
 31
0.0
  0
LINE
  5
36CD
330
1D9
100
AcDbEntity
  8
0
100
AcDbLine
 10
2573.779999999999
 20
577.0
 30
0.0
 11
2580.0
 21
577.0
 31
0.0
  0
LINE
  5
36D1
330
1D9
100
AcDbEntity
  8
0
100
AcDbLine
 10
3595.679999999998
 20
590.8499999999993
 30
0.0
 11
3676.5
 21
590.8499999999993
 31
0.0
  0
LINE
  5
36D2
330
1D9
100
AcDbEntity
  8
0
100
AcDbLine
 10
3595.679999999998
 20
360.1499999999996
 30
0.0
 11
3676.5
 21
360.1499999999996
 31
0.0
  0
LINE
  5
36D4
330
1D9
100
AcDbEntity
  8
0
100
AcDbLine
 10
3570.78
 20
475.4999999999998
 30
0.0
 11
3930.849999999999
 21
475.4999999999998
 31
0.0
  0
LINE
  5
36DB
330
1D9
100
AcDbEntity
  8
0
100
AcDbLine
 10
3080.5
 20
608.0
 30
0.0
 11
3326.497
 21
608.0
 31
0.0
  0
LINE
  5
36DC
330
1D9
100
AcDbEntity
  8
0
100
AcDbLine
 10
3080.5
 20
392.0
 30
0.0
 11
3326.497
 21
392.0
 31
0.0
  0
LINE
  5
36DE
330
1D9
100
AcDbEntity
  8
0
100
AcDbLine
 10
3080.5
 20
630.4999999999998
 30
0.0
 11
3080.5
 21
500.0
 31
0.0
  0
LINE
  5
36DF
330
1D9
100
AcDbEntity
  8
0
100
AcDbLine
 10
3069.599999999999
 20
630.4999999999998
 30
0.0
 11
3069.599999999999
 21
500.0
 31
0.0
  0
LINE
  5
36E0
330
1D9
100
AcDbEntity
  8
0
100
AcDbLine
 10
3025.5
 20
525.0
 30
0.0
 11
3025.5
 21
475.0
 31
0.0
  0
LINE
  5
36E1
330
1D9
100
AcDbEntity
  8
0
100
AcDbLine
 10
3080.5
 20
369.5
 30
0.0
 11
3080.5
 21
500.0
 31
0.0
  0
LINE
  5
36E2
330
1D9
100
AcDbEntity
  8
0
100
AcDbLine
 10
3069.599999999999
 20
369.5
 30
0.0
 11
3069.599999999999
 21
500.0
 31
0.0
  0
LINE
  5
36E3
330
1D9
100
AcDbEntity
  8
0
100
AcDbLine
 10
3069.599999999999
 20
369.5
 30
0.0
 11
3080.5
 21
369.5
 31
0.0
  0
LINE
  5
36E4
330
1D9
100
AcDbEntity
  8
0
100
AcDbLine
 10
3069.599999999999
 20
630.4999999999998
 30
0.0
 11
3080.5
 21
630.4999999999998
 31
0.0
  0
LINE
  5
36ED
330
1D9
100
AcDbEntity
  8
0
100
AcDbLine
 10
3338.497
 20
633.4999999999999
 30
0.0
 11
3509.92
 21
633.4999999999999
 31
0.0
  0
LINE
  5
36EE
330
1D9
100
AcDbEntity
  8
0
100
AcDbLine
 10
3338.497
 20
366.5
 30
0.0
 11
3570.78
 21
366.5
 31
0.0
  0
LINE
  5
36EF
330
1D9
100
AcDbEntity
  8
0
100
AcDbLine
 10
3326.497
 20
625.6999999999997
 30
0.0
 11
3326.497
 21
500.0
 31
0.0
  0
LINE
  5
36F0
330
1D9
100
AcDbEntity
  8
0
100
AcDbLine
 10
3326.497
 20
374.2999999999991
 30
0.0
 11
3326.497
 21
500.0
 31
0.0
  0
LINE
  5
36F1
330
1D9
100
AcDbEntity
  8
0
100
AcDbLine
 10
3326.497
 20
369.5
 30
0.0
 11
3326.497
 21
374.2999999999991
 31
0.0
  0
LINE
  5
36F2
330
1D9
100
AcDbEntity
  8
0
100
AcDbLine
 10
3326.497
 20
369.5
 30
0.0
 11
3338.497
 21
366.5
 31
0.0
  0
LINE
  5
36F3
330
1D9
100
AcDbEntity
  8
0
100
AcDbLine
 10
3326.497
 20
630.4999999999998
 30
0.0
 11
3326.497
 21
625.6999999999997
 31
0.0
  0
LINE
  5
36F4
330
1D9
100
AcDbEntity
  8
0
100
AcDbLine
 10
3326.497
 20
630.4999999999998
 30
0.0
 11
3338.497
 21
633.4999999999999
 31
0.0
  0
LINE
  5
36F5
330
1D9
100
AcDbEntity
  8
0
100
AcDbLine
 10
3595.679999999998
 20
590.8499999999993
 30
0.0
 11
3595.679999999998
 21
360.1499999999996
 31
0.0
  0
LINE
  5
36F6
330
1D9
100
AcDbEntity
  8
0
100
AcDbLine
 10
3506.499999999999
 20
625.6999999999997
 30
0.0
 11
3506.499999999999
 21
384.2999999999991
 31
0.0
  0
LINE
  5
36F7
330
1D9
100
AcDbEntity
  8
0
100
AcDbLine
 10
3570.78
 20
366.5
 30
0.0
 11
3570.78
 21
584.4999999999998
 31
0.0
  0
LINE
  5
36F8
330
1D9
100
AcDbEntity
  8
0
100
AcDbLine
 10
3554.92
 20
584.4999999999998
 30
0.0
 11
3554.92
 21
384.2999999999991
 31
0.0
  0
LINE
  5
36F9
330
1D9
100
AcDbEntity
  8
0
100
AcDbLine
 10
3506.499999999999
 20
500.0
 30
0.0
 11
3570.78
 21
475.4999999999998
 31
0.0
  0
LINE
  5
36FA
330
1D9
100
AcDbEntity
  8
0
100
AcDbLine
 10
3570.78
 20
366.5
 30
0.0
 11
3595.679999999998
 21
360.1499999999996
 31
0.0
  0
LINE
  5
36FB
330
1D9
100
AcDbEntity
  8
0
100
AcDbLine
 10
3509.92
 20
633.4999999999999
 30
0.0
 11
3554.92
 21
584.4999999999998
 31
0.0
  0
LINE
  5
36FC
330
1D9
100
AcDbEntity
  8
0
100
AcDbLine
 10
3570.78
 20
584.4999999999998
 30
0.0
 11
3595.679999999998
 21
590.8499999999993
 31
0.0
  0
LINE
  5
36FD
330
1D9
100
AcDbEntity
  8
0
100
AcDbLine
 10
3554.92
 20
584.4999999999998
 30
0.0
 11
3570.78
 21
584.4999999999998
 31
0.0
  0
ARC
  5
3713
330
1D9
100
AcDbEntity
  8
0
100
AcDbCircle
 10
3841.499999999998
 20
475.4999999999998
 30
0.0
 40
137.7499999999999
100
AcDbArc
 50
71.32830000000318
 51
128.369000000009
  0
ARC
  5
3714
330
1D9
100
AcDbEntity
  8
0
100
AcDbCircle
 10
3841.499999999998
 20
475.4999999999998
 30
0.0
 40
137.7499999999999
100
AcDbArc
 50
231.6309999999909
 51
288.6720000000149
  0
LINE
  5
3715
330
1D9
100
AcDbEntity
  8
0
100
AcDbLine
 10
3780.499999999998
 20
583.4999999999999
 30
0.0
 11
3896.5
 21
583.4999999999999
 31
0.0
  0
LINE
  5
3716
330
1D9
100
AcDbEntity
  8
0
100
AcDbLine
 10
3780.499999999998
 20
367.5
 30
0.0
 11
3896.5
 21
367.5
 31
0.0
  0
LINE
  5
3717
330
1D9
100
AcDbEntity
  8
0
100
AcDbLine
 10
3780.499999999998
 20
583.4999999999999
 30
0.0
 11
3780.499999999998
 21
475.4999999999998
 31
0.0
  0
LINE
  5
3718
330
1D9
100
AcDbEntity
  8
0
100
AcDbLine
 10
3676.5
 20
590.8499999999993
 30
0.0
 11
3676.5
 21
360.1499999999996
 31
0.0
  0
LINE
  5
3719
330
1D9
100
AcDbEntity
  8
0
100
AcDbLine
 10
3755.99
 20
583.4999999999999
 30
0.0
 11
3755.99
 21
367.5
 31
0.0
  0
LINE
  5
371A
330
1D9
100
AcDbEntity
  8
0
100
AcDbLine
 10
3676.5
 20
367.5
 30
0.0
 11
3755.99
 21
367.5
 31
0.0
  0
LINE
  5
371B
330
1D9
100
AcDbEntity
  8
0
100
AcDbLine
 10
3780.499999999998
 20
367.5
 30
0.0
 11
3780.499999999998
 21
475.4999999999998
 31
0.0
  0
LINE
  5
371C
330
1D9
100
AcDbEntity
  8
0
100
AcDbLine
 10
3676.5
 20
583.4999999999999
 30
0.0
 11
3755.99
 21
583.4999999999999
 31
0.0
  0
LINE
  5
371D
330
1D9
100
AcDbEntity
  8
0
100
AcDbLine
 10
3896.5
 20
606.0
 30
0.0
 11
3896.5
 21
475.4999999999998
 31
0.0
  0
LINE
  5
371E
330
1D9
100
AcDbEntity
  8
0
100
AcDbLine
 10
3885.599999999998
 20
345.0
 30
0.0
 11
3885.599999999998
 21
606.0
 31
0.0
  0
LINE
  5
371F
330
1D9
100
AcDbEntity
  8
0
100
AcDbLine
 10
3841.499999999998
 20
500.4999999999998
 30
0.0
 11
3841.499999999998
 21
450.4999999999998
 31
0.0
  0
LINE
  5
3720
330
1D9
100
AcDbEntity
  8
0
100
AcDbLine
 10
3896.5
 20
345.0
 30
0.0
 11
3896.5
 21
475.4999999999998
 31
0.0
  0
LINE
  5
3721
330
1D9
100
AcDbEntity
  8
0
100
AcDbLine
 10
3885.599999999998
 20
345.0
 30
0.0
 11
3896.5
 21
345.0
 31
0.0
  0
LINE
  5
3722
330
1D9
100
AcDbEntity
  8
0
100
AcDbLine
 10
3885.599999999998
 20
606.0
 30
0.0
 11
3896.5
 21
606.0
 31
0.0
  0
LINE
  5
372B
330
1D9
100
AcDbEntity
  8
0
100
AcDbLine
 10
3990.0
 20
2840.0
 30
0.0
 11
3990.0
 21
0.0
 31
0.0
  0
TEXT
  5
3730
330
1D9
100
AcDbEntity
  8
0
100
AcDbText
 10
3180.428263404293
 20
1012.512383790262
 30
0.0
 40
48.51116625310172
  1
呼び径：200
100
AcDbText
  0
TEXT
  5
3731
330
1D9
100
AcDbEntity
  8
0
100
AcDbText
 10
3022.141968043148
 20
939.839685983552
 30
0.0
 40
48.51116625310172
  1
品番：NF200-200VSU
100
AcDbText
  0
TEXT
  5
3732
330
1D9
100
AcDbEntity
  8
0
100
AcDbText
 10
3180.428263404293
 20
2236.557048802669
 30
0.0
 40
48.51116625310172
  1
呼び径：100
100
AcDbText
  0
TEXT
  5
3733
330
1D9
100
AcDbEntity
  8
0
100
AcDbText
 10
3022.141968043148
 20
2163.884350995957
 30
0.0
 40
48.51116625310172
  1
品番：NF100-200VSU
100
AcDbText
  0
LINE
  5
373B
330
1D9
100
AcDbEntity
  8
0
100
AcDbLine
 10
2687.0
 20
2450.0
 30
0.0
 11
2687.0
 21
0.0
 31
0.0
  0
TEXT
  5
37AC
330
1D9
100
AcDbEntity
  8
0
100
AcDbText
 10
2859.582929673814
 20
2512.619782322264
 30
0.0
 40
48.51116625310172
  1
接合方式：接着接合
100
AcDbText
  0
TEXT
  5
37ED
330
1D9
100
AcDbEntity
  8
0
100
AcDbText
 10
2859.582929673814
 20
2619.829270159938
 30
0.0
 40
48.51116625310172
  1
最高使用圧力：大気圧（自然流下）
100
AcDbText
  0
LINE
  5
37EE
330
1D9
100
AcDbEntity
  8
0
100
AcDbLine
 10
3841.0
 20
1713.955334987593
 30
0.0
 11
3841.0
 21
1642.205334987593
 31
0.0
  0
LINE
  5
37EF
330
1D9
100
AcDbEntity
  8
0
100
AcDbLine
 10
3786.0
 20
1713.955334987593
 30
0.0
 11
3786.0
 21
1656.955334987593
 31
0.0
  0
LINE
  5
37F0
330
1D9
100
AcDbEntity
  8
0
100
AcDbLine
 10
3832.540000000001
 20
1642.205334987593
 30
0.0
 11
3832.540000000001
 21
1785.705334987593
 31
0.0
  0
LINE
  5
37F1
330
1D9
100
AcDbEntity
  8
0
100
AcDbLine
 10
3721.5
 20
1651.955334987593
 30
0.0
 11
3721.5
 21
1713.955334987593
 31
0.0
  0
LINE
  5
37F2
330
1D9
100
AcDbEntity
  8
0
100
AcDbLine
 10
3658.0
 20
1651.955334987593
 30
0.0
 11
3658.0
 21
1713.955334987593
 31
0.0
  0
LINE
  5
37F3
330
1D9
100
AcDbEntity
  8
0
100
AcDbLine
 10
3754.979999999999
 20
1770.955334987593
 30
0.0
 11
3754.979999999999
 21
1656.955334987593
 31
0.0
  0
LINE
  5
37F4
330
1D9
100
AcDbEntity
  8
0
100
AcDbLine
 10
3576.5
 20
1650.455334987593
 30
0.0
 11
3576.5
 21
1725.955334987593
 31
0.0
  0
LINE
  5
37F5
330
1D9
100
AcDbEntity
  8
0
100
AcDbLine
 10
3640.0
 20
1650.455334987593
 30
0.0
 11
3640.0
 21
1725.955334987593
 31
0.0
  0
LINE
  5
37F6
330
1D9
100
AcDbEntity
  8
0
100
AcDbLine
 10
3652.360000000001
 20
1773.455334987593
 30
0.0
 11
3652.360000000001
 21
1665.995334987593
 31
0.0
  0
LINE
  5
37F7
330
1D9
100
AcDbEntity
  8
0
100
AcDbLine
 10
3313.0
 20
1725.955334987593
 30
0.0
 11
3313.0
 21
1655.955334987593
 31
0.0
  0
LINE
  5
37F8
330
1D9
100
AcDbEntity
  8
0
100
AcDbLine
 10
3004.54
 20
1654.205334987593
 30
0.0
 11
3004.54
 21
1725.955334987593
 31
0.0
  0
LINE
  5
37F9
330
1D9
100
AcDbEntity
  8
0
100
AcDbLine
 10
3013.0
 20
1725.955334987593
 30
0.0
 11
3013.0
 21
1654.205334987593
 31
0.0
  0
LINE
  5
37FA
330
1D9
100
AcDbEntity
  8
0
100
AcDbLine
 10
2926.98
 20
1668.955334987592
 30
0.0
 11
2926.98
 21
1725.955334987593
 31
0.0
  0
LINE
  5
37FB
330
1D9
100
AcDbEntity
  8
0
100
AcDbLine
 10
2836.0
 20
1670.825334987593
 30
0.0
 11
2836.0
 21
1725.955334987593
 31
0.0
  0
LINE
  5
37FC
330
1D9
100
AcDbEntity
  8
0
100
AcDbLine
 10
2843.0
 20
1668.955334987592
 30
0.0
 11
2843.0
 21
1725.955334987593
 31
0.0
  0
LINE
  5
37FD
330
1D9
100
AcDbEntity
  8
0
100
AcDbLine
 10
3313.0
 20
1655.955334987593
 30
0.0
 11
3576.5
 21
1655.955334987593
 31
0.0
  0
LINE
  5
37FE
330
1D9
100
AcDbEntity
  8
0
100
AcDbLine
 10
1990.0
 20
1779.455334987592
 30
0.0
 11
2346.0
 21
1779.455334987592
 31
0.0
  0
LINE
  5
37FF
330
1D9
100
AcDbEntity
  8
0
100
AcDbLine
 10
1990.0
 20
1665.455334987592
 30
0.0
 11
2346.0
 21
1665.455334987592
 31
0.0
  0
LINE
  5
3803
330
1D9
100
AcDbEntity
  8
0
100
AcDbLine
 10
1589.139999999999
 20
1722.455334987593
 30
0.0
 11
2396.0
 21
1722.455334987593
 31
0.0
  0
LINE
  5
3804
330
1D9
100
AcDbEntity
  8
0
100
AcDbLine
 10
3013.0
 20
1668.955334987592
 30
0.0
 11
3313.0
 21
1668.955334987592
 31
0.0
  0
LINE
  5
3805
330
1D9
100
AcDbEntity
  8
0
100
AcDbLine
 10
1639.999999999999
 20
1766.955334987593
 30
0.0
 11
1990.0
 21
1766.955334987593
 31
0.0
  0
LINE
  5
3806
330
1D9
100
AcDbEntity
  8
0
100
AcDbLine
 10
1639.999999999999
 20
1677.955334987593
 30
0.0
 11
1990.0
 21
1677.955334987593
 31
0.0
  0
LINE
  5
3807
330
1D9
100
AcDbEntity
  8
0
100
AcDbLine
 10
1639.999999999999
 20
1775.455334987593
 30
0.0
 11
1633.469999999999
 21
1775.455334987593
 31
0.0
  0
LINE
  5
3808
330
1D9
100
AcDbEntity
  8
0
100
AcDbLine
 10
1639.999999999999
 20
1669.455334987593
 30
0.0
 11
1633.469999999999
 21
1669.455334987593
 31
0.0
  0
LINE
  5
3809
330
1D9
100
AcDbEntity
  8
0
100
AcDbLine
 10
1589.139999999999
 20
1770.455334987593
 30
0.0
 11
1538.999999999999
 21
1770.455334987593
 31
0.0
  0
LINE
  5
380A
330
1D9
100
AcDbEntity
  8
0
100
AcDbLine
 10
1579.59
 20
1681.455334987592
 30
0.0
 11
1538.999999999999
 21
1681.455334987592
 31
0.0
  0
LINE
  5
380B
330
1D9
100
AcDbEntity
  8
0
100
AcDbLine
 10
1522.899999999999
 20
1725.955334987593
 30
0.0
 11
1579.59
 21
1725.955334987593
 31
0.0
  0
LINE
  5
380C
330
1D9
100
AcDbEntity
  8
0
100
AcDbLine
 10
1537.999999999999
 20
1682.455334987593
 30
0.0
 11
1537.999999999999
 21
1769.455334987593
 31
0.0
  0
LINE
  5
380D
330
1D9
100
AcDbEntity
  8
0
100
AcDbLine
 10
1538.999999999999
 20
1681.455334987592
 30
0.0
 11
1537.999999999999
 21
1682.455334987593
 31
0.0
  0
LINE
  5
380E
330
1D9
100
AcDbEntity
  8
0
100
AcDbLine
 10
1538.999999999999
 20
1770.455334987593
 30
0.0
 11
1537.999999999999
 21
1769.455334987593
 31
0.0
  0
LINE
  5
380F
330
1D9
100
AcDbEntity
  8
0
100
AcDbLine
 10
1589.139999999999
 20
1770.455334987593
 30
0.0
 11
1579.59
 21
1681.455334987592
 31
0.0
  0
LINE
  5
3810
330
1D9
100
AcDbEntity
  8
0
100
AcDbLine
 10
1633.469999999999
 20
1775.455334987593
 30
0.0
 11
1633.469999999999
 21
1669.455334987593
 31
0.0
  0
ARC
  5
3811
330
1D9
100
AcDbEntity
  8
0
100
AcDbCircle
 10
1616.999999999999
 20
1722.455334987593
 30
0.0
 40
55.5
100
AcDbArc
 50
227.6239999999759
 51
287.2629999999953
  0
ARC
  5
3812
330
1D9
100
AcDbEntity
  8
0
100
AcDbCircle
 10
1616.999999999999
 20
1722.455334987593
 30
0.0
 40
55.5
100
AcDbArc
 50
72.73740000001194
 51
120.1330000000135
  0
LINE
  5
3813
330
1D9
100
AcDbEntity
  8
0
100
AcDbLine
 10
1579.59
 20
1725.955334987593
 30
0.0
 11
1589.139999999999
 21
1722.455334987593
 31
0.0
  0
LINE
  5
3814
330
1D9
100
AcDbEntity
  8
0
100
AcDbLine
 10
1616.999999999999
 20
1735.068334987593
 30
0.0
 11
1616.999999999999
 21
1710.603334987593
 31
0.0
  0
LINE
  5
3815
330
1D9
100
AcDbEntity
  8
0
100
AcDbLine
 10
1639.999999999999
 20
1722.455334987593
 30
0.0
 11
1639.999999999999
 21
1669.455334987593
 31
0.0
  0
LINE
  5
3816
330
1D9
100
AcDbEntity
  8
0
100
AcDbLine
 10
1639.999999999999
 20
1722.455334987593
 30
0.0
 11
1639.999999999999
 21
1775.455334987593
 31
0.0
  0
ARC
  5
3817
330
1D9
100
AcDbEntity
  8
0
100
AcDbCircle
 10
2978.0
 20
1725.955334987593
 30
0.0
 40
76.5
100
AcDbArc
 50
228.1680000000064
 51
290.2969999999971
  0
LINE
  5
3818
330
1D9
100
AcDbEntity
  8
0
100
AcDbLine
 10
2926.98
 20
1668.955334987592
 30
0.0
 11
2843.0
 21
1668.955334987592
 31
0.0
  0
LINE
  5
3819
330
1D9
100
AcDbEntity
  8
0
100
AcDbLine
 10
2836.0
 20
1670.825334987593
 30
0.0
 11
2843.0
 21
1668.955334987592
 31
0.0
  0
LINE
  5
381A
330
1D9
100
AcDbEntity
  8
0
100
AcDbLine
 10
3013.0
 20
1654.205334987593
 30
0.0
 11
3004.54
 21
1654.205334987593
 31
0.0
  0
LINE
  5
381B
330
1D9
100
AcDbEntity
  8
0
100
AcDbLine
 10
1990.0
 20
1722.455334987593
 30
0.0
 11
1990.0
 21
1665.455334987592
 31
0.0
  0
LINE
  5
381C
330
1D9
100
AcDbEntity
  8
0
100
AcDbLine
 10
1990.0
 20
1722.455334987593
 30
0.0
 11
1990.0
 21
1779.455334987592
 31
0.0
  0
TEXT
  5
381D
330
1D9
100
AcDbEntity
  8
0
100
AcDbText
 10
2859.582929673814
 20
2727.993337267484
 30
0.0
 40
48.51116625310172
  1
材質：U-PVC
100
AcDbText
  0
LINE
  5
38A5
330
1D9
100
AcDbEntity
  8
0
100
AcDbLine
 10
2421.0
 20
1758.955334987593
 30
0.0
 11
2471.0
 21
1758.955334987593
 31
0.0
  0
LINE
  5
38A6
330
1D9
100
AcDbEntity
  8
0
100
AcDbLine
 10
2421.0
 20
1710.455334987593
 30
0.0
 11
2471.0
 21
1710.455334987593
 31
0.0
  0
LINE
  5
38A7
330
1D9
100
AcDbEntity
  8
0
100
AcDbLine
 10
2421.0
 20
1661.955334987593
 30
0.0
 11
2471.0
 21
1661.955334987593
 31
0.0
  0
ARC
  5
38A8
330
1D9
100
AcDbEntity
  8
0
100
AcDbCircle
 10
3806.0
 20
1713.955334987593
 30
0.0
 40
76.5
100
AcDbArc
 50
228.1680000000064
 51
290.2969999999971
  0
LINE
  5
38A9
330
1D9
100
AcDbEntity
  8
0
100
AcDbLine
 10
2346.0
 20
1783.955334987593
 30
0.0
 11
2396.0
 21
1783.955334987593
 31
0.0
  0
LINE
  5
38AA
330
1D9
100
AcDbEntity
  8
0
100
AcDbLine
 10
2346.0
 20
1660.955334987593
 30
0.0
 11
2396.0
 21
1660.955334987593
 31
0.0
  0
LINE
  5
38AB
330
1D9
100
AcDbEntity
  8
0
100
AcDbLine
 10
2346.0
 20
1722.455334987593
 30
0.0
 11
2346.0
 21
1660.955334987593
 31
0.0
  0
LINE
  5
38AC
330
1D9
100
AcDbEntity
  8
0
100
AcDbLine
 10
2346.0
 20
1722.455334987593
 30
0.0
 11
2346.0
 21
1783.955334987593
 31
0.0
  0
LINE
  5
38AD
330
1D9
100
AcDbEntity
  8
0
100
AcDbLine
 10
2396.0
 20
1722.455334987593
 30
0.0
 11
2396.0
 21
1660.955334987593
 31
0.0
  0
LINE
  5
38AE
330
1D9
100
AcDbEntity
  8
0
100
AcDbLine
 10
2421.0
 20
1710.455334987593
 30
0.0
 11
2421.0
 21
1661.955334987593
 31
0.0
  0
LINE
  5
38AF
330
1D9
100
AcDbEntity
  8
0
100
AcDbLine
 10
2411.07
 20
1756.955334987593
 30
0.0
 11
2411.07
 21
1676.313334987593
 31
0.0
  0
LINE
  5
38B0
330
1D9
100
AcDbEntity
  8
0
100
AcDbLine
 10
2421.0
 20
1663.955334987593
 30
0.0
 11
2396.0
 21
1663.955334987593
 31
0.0
  0
LINE
  5
38B1
330
1D9
100
AcDbEntity
  8
0
100
AcDbLine
 10
2421.0
 20
1756.955334987593
 30
0.0
 11
2411.07
 21
1756.955334987593
 31
0.0
  0
LINE
  5
38B2
330
1D9
100
AcDbEntity
  8
0
100
AcDbLine
 10
2396.0
 20
1722.455334987593
 30
0.0
 11
2421.0
 21
1710.455334987593
 31
0.0
  0
LINE
  5
38B3
330
1D9
100
AcDbEntity
  8
0
100
AcDbLine
 10
2396.0
 20
1777.962334987592
 30
0.0
 11
2411.07
 21
1756.955334987593
 31
0.0
  0
LINE
  5
38B4
330
1D9
100
AcDbEntity
  8
0
100
AcDbLine
 10
2396.0
 20
1722.455334987593
 30
0.0
 11
2396.0
 21
1783.955334987593
 31
0.0
  0
LINE
  5
38B5
330
1D9
100
AcDbEntity
  8
0
100
AcDbLine
 10
2421.0
 20
1710.455334987593
 30
0.0
 11
2421.0
 21
1758.955334987593
 31
0.0
  0
LINE
  5
38B6
330
1D9
100
AcDbEntity
  8
0
100
AcDbLine
 10
3576.5
 20
1650.455334987593
 30
0.0
 11
3640.0
 21
1650.455334987593
 31
0.0
  0
LINE
  5
38B7
330
1D9
100
AcDbEntity
  8
0
100
AcDbLine
 10
3658.0
 20
1651.955334987593
 30
0.0
 11
3721.5
 21
1651.955334987593
 31
0.0
  0
LINE
  5
38B8
330
1D9
100
AcDbEntity
  8
0
100
AcDbLine
 10
3658.0
 20
1654.455334987592
 30
0.0
 11
3640.0
 21
1654.455334987592
 31
0.0
  0
LINE
  5
38B9
330
1D9
100
AcDbEntity
  8
0
100
AcDbLine
 10
3754.979999999999
 20
1656.955334987593
 30
0.0
 11
3721.5
 21
1656.955334987593
 31
0.0
  0
LINE
  5
38BA
330
1D9
100
AcDbEntity
  8
0
100
AcDbLine
 10
2488.0
 20
1706.955334987593
 30
0.0
 11
2546.92
 21
1706.955334987593
 31
0.0
  0
LINE
  5
38BB
330
1D9
100
AcDbEntity
  8
0
100
AcDbLine
 10
2533.0
 20
1706.955334987593
 30
0.0
 11
2533.0
 21
1653.955334987593
 31
0.0
  0
LINE
  5
38BC
330
1D9
100
AcDbEntity
  8
0
100
AcDbLine
 10
2526.469999999999
 20
1759.955334987592
 30
0.0
 11
2526.469999999999
 21
1653.955334987593
 31
0.0
  0
LINE
  5
38BD
330
1D9
100
AcDbEntity
  8
0
100
AcDbLine
 10
2488.0
 20
1706.955334987593
 30
0.0
 11
2488.0
 21
1662.455334987593
 31
0.0
  0
LINE
  5
38BE
330
1D9
100
AcDbEntity
  8
0
100
AcDbLine
 10
2471.0
 20
1710.455334987593
 30
0.0
 11
2471.0
 21
1661.955334987593
 31
0.0
  0
LINE
  5
38BF
330
1D9
100
AcDbEntity
  8
0
100
AcDbLine
 10
2472.59
 20
1665.955334987593
 30
0.0
 11
2482.139999999999
 21
1754.955334987593
 31
0.0
  0
LINE
  5
38C0
330
1D9
100
AcDbEntity
  8
0
100
AcDbLine
 10
2533.0
 20
1662.455334987593
 30
0.0
 11
2488.0
 21
1662.455334987593
 31
0.0
  0
ARC
  5
38C1
330
1D9
100
AcDbEntity
  8
0
100
AcDbCircle
 10
2510.0
 20
1706.955334987593
 30
0.0
 40
55.5
100
AcDbArc
 50
227.6239999999759
 51
287.2629999999953
  0
LINE
  5
38C2
330
1D9
100
AcDbEntity
  8
0
100
AcDbLine
 10
2472.59
 20
1665.955334987593
 30
0.0
 11
2471.0
 21
1665.955334987593
 31
0.0
  0
LINE
  5
38C3
330
1D9
100
AcDbEntity
  8
0
100
AcDbLine
 10
2533.0
 20
1653.955334987593
 30
0.0
 11
2526.469999999999
 21
1653.955334987593
 31
0.0
  0
LINE
  5
38C4
330
1D9
100
AcDbEntity
  8
0
100
AcDbLine
 10
2533.0
 20
1751.455334987593
 30
0.0
 11
2488.0
 21
1751.455334987593
 31
0.0
  0
ARC
  5
38C5
330
1D9
100
AcDbEntity
  8
0
100
AcDbCircle
 10
2510.0
 20
1706.955334987593
 30
0.0
 40
55.5
100
AcDbArc
 50
72.73740000001194
 51
120.1330000000135
  0
LINE
  5
38C6
330
1D9
100
AcDbEntity
  8
0
100
AcDbLine
 10
2488.0
 20
1706.955334987593
 30
0.0
 11
2488.0
 21
1751.455334987593
 31
0.0
  0
LINE
  5
38C7
330
1D9
100
AcDbEntity
  8
0
100
AcDbLine
 10
2482.139999999999
 20
1754.955334987593
 30
0.0
 11
2471.0
 21
1754.955334987593
 31
0.0
  0
LINE
  5
38C8
330
1D9
100
AcDbEntity
  8
0
100
AcDbLine
 10
2471.0
 20
1710.455334987593
 30
0.0
 11
2471.0
 21
1758.955334987593
 31
0.0
  0
LINE
  5
38C9
330
1D9
100
AcDbEntity
  8
0
100
AcDbLine
 10
2470.219999999999
 20
1710.455334987593
 30
0.0
 11
2488.0
 21
1706.955334987593
 31
0.0
  0
LINE
  5
38CA
330
1D9
100
AcDbEntity
  8
0
100
AcDbLine
 10
2533.0
 20
1759.955334987592
 30
0.0
 11
2526.469999999999
 21
1759.955334987592
 31
0.0
  0
LINE
  5
38CB
330
1D9
100
AcDbEntity
  8
0
100
AcDbLine
 10
2533.0
 20
1706.955334987593
 30
0.0
 11
2533.0
 21
1759.955334987592
 31
0.0
  0
LINE
  5
38CC
330
1D9
100
AcDbEntity
  8
0
100
AcDbLine
 10
2510.0
 20
1719.568334987593
 30
0.0
 11
2510.0
 21
1695.103334987593
 31
0.0
  0
LINE
  5
38CD
330
1D9
100
AcDbEntity
  8
0
100
AcDbLine
 10
3841.0
 20
1642.205334987593
 30
0.0
 11
3832.540000000001
 21
1642.205334987593
 31
0.0
  0
LINE
  5
38CE
330
1D9
100
AcDbEntity
  8
0
100
AcDbLine
 10
3786.0
 20
1656.955334987593
 30
0.0
 11
3841.0
 21
1656.955334987593
 31
0.0
  0
LINE
  5
38CF
330
1D9
100
AcDbEntity
  8
0
100
AcDbLine
 10
668.0
 20
582.5
 30
0.0
 11
944.5
 21
582.5
 31
0.0
  0
LINE
  5
38D0
330
1D9
100
AcDbEntity
  8
0
100
AcDbLine
 10
668.0
 20
417.4999999999998
 30
0.0
 11
944.5
 21
417.4999999999998
 31
0.0
  0
LINE
  5
38D1
330
1D9
100
AcDbEntity
  8
0
100
AcDbLine
 10
3313.0
 20
1795.955334987592
 30
0.0
 11
3576.5
 21
1795.955334987592
 31
0.0
  0
LINE
  5
38D2
330
1D9
100
AcDbEntity
  8
0
100
AcDbLine
 10
2818.87
 20
1725.955334987593
 30
0.0
 11
3640.0
 21
1725.955334987593
 31
0.0
  0
LINE
  5
38D3
330
1D9
100
AcDbEntity
  8
0
100
AcDbLine
 10
200.2399999999997
 20
500.0
 30
0.0
 11
1024.0
 21
500.0
 31
0.0
  0
LINE
  5
38D7
330
1D9
100
AcDbEntity
  8
0
100
AcDbLine
 10
3013.0
 20
1782.955334987593
 30
0.0
 11
3313.0
 21
1782.955334987593
 31
0.0
  0
LINE
  5
38D8
330
1D9
100
AcDbEntity
  8
0
100
AcDbLine
 10
418.0
 20
430.0
 30
0.0
 11
668.0
 21
430.0
 31
0.0
  0
LINE
  5
38D9
330
1D9
100
AcDbEntity
  8
0
100
AcDbLine
 10
418.0
 20
570.0
 30
0.0
 11
668.0
 21
570.0
 31
0.0
  0
ARC
  5
38DA
330
1D9
100
AcDbEntity
  8
0
100
AcDbCircle
 10
2978.0
 20
1725.955334987593
 30
0.0
 40
76.5
100
AcDbArc
 50
69.70319999999496
 51
131.8319999999933
  0
LINE
  5
38DB
330
1D9
100
AcDbEntity
  8
0
100
AcDbLine
 10
2926.98
 20
1782.955334987593
 30
0.0
 11
2843.0
 21
1782.955334987593
 31
0.0
  0
LINE
  5
38DC
330
1D9
100
AcDbEntity
  8
0
100
AcDbLine
 10
2836.0
 20
1781.075334987593
 30
0.0
 11
2836.0
 21
1725.955334987593
 31
0.0
  0
LINE
  5
38DD
330
1D9
100
AcDbEntity
  8
0
100
AcDbLine
 10
2843.0
 20
1782.955334987593
 30
0.0
 11
2843.0
 21
1725.955334987593
 31
0.0
  0
LINE
  5
38DE
330
1D9
100
AcDbEntity
  8
0
100
AcDbLine
 10
2836.0
 20
1781.075334987593
 30
0.0
 11
2843.0
 21
1782.955334987593
 31
0.0
  0
LINE
  5
38DF
330
1D9
100
AcDbEntity
  8
0
100
AcDbLine
 10
2926.98
 20
1782.955334987593
 30
0.0
 11
2926.98
 21
1725.955334987593
 31
0.0
  0
LINE
  5
38E0
330
1D9
100
AcDbEntity
  8
0
100
AcDbLine
 10
3004.54
 20
1797.705334987593
 30
0.0
 11
3004.54
 21
1725.955334987593
 31
0.0
  0
LINE
  5
38E1
330
1D9
100
AcDbEntity
  8
0
100
AcDbLine
 10
3013.0
 20
1725.955334987593
 30
0.0
 11
3013.0
 21
1797.705334987593
 31
0.0
  0
LINE
  5
38E2
330
1D9
100
AcDbEntity
  8
0
100
AcDbLine
 10
2978.0
 20
1750.955334987593
 30
0.0
 11
2978.0
 21
1700.955334987592
 31
0.0
  0
LINE
  5
38E3
330
1D9
100
AcDbEntity
  8
0
100
AcDbLine
 10
3013.0
 20
1797.705334987593
 30
0.0
 11
3004.54
 21
1797.705334987593
 31
0.0
  0
ARC
  5
38E4
330
1D9
100
AcDbEntity
  8
0
100
AcDbCircle
 10
378.0
 20
500.0
 30
0.0
 40
92.24999999999999
100
AcDbArc
 50
70.57700000001926
 51
130.6410000000115
  0
ARC
  5
38E5
330
1D9
100
AcDbEntity
  8
0
100
AcDbCircle
 10
378.0
 20
500.0
 30
0.0
 40
92.24999999999999
100
AcDbArc
 50
229.3589999999884
 51
289.4229999999806
  0
LINE
  5
38E6
330
1D9
100
AcDbEntity
  8
0
100
AcDbLine
 10
317.92
 20
570.0
 30
0.0
 11
317.92
 21
500.0
 31
0.0
  0
LINE
  5
38E7
330
1D9
100
AcDbEntity
  8
0
100
AcDbLine
 10
220.0
 20
567.5799999999997
 30
0.0
 11
220.0
 21
500.0
 31
0.0
  0
LINE
  5
38E8
330
1D9
100
AcDbEntity
  8
0
100
AcDbLine
 10
229.0
 20
570.0
 30
0.0
 11
229.0
 21
500.0
 31
0.0
  0
LINE
  5
38E9
330
1D9
100
AcDbEntity
  8
0
100
AcDbLine
 10
317.92
 20
430.0
 30
0.0
 11
229.0
 21
430.0
 31
0.0
  0
LINE
  5
38EA
330
1D9
100
AcDbEntity
  8
0
100
AcDbLine
 10
220.0
 20
432.4099999999998
 30
0.0
 11
220.0
 21
500.0
 31
0.0
  0
LINE
  5
38EB
330
1D9
100
AcDbEntity
  8
0
100
AcDbLine
 10
229.0
 20
430.0
 30
0.0
 11
229.0
 21
500.0
 31
0.0
  0
LINE
  5
38EC
330
1D9
100
AcDbEntity
  8
0
100
AcDbLine
 10
220.0
 20
432.4099999999998
 30
0.0
 11
229.0
 21
430.0
 31
0.0
  0
LINE
  5
38ED
330
1D9
100
AcDbEntity
  8
0
100
AcDbLine
 10
317.92
 20
430.0
 30
0.0
 11
317.92
 21
500.0
 31
0.0
  0
LINE
  5
38EE
330
1D9
100
AcDbEntity
  8
0
100
AcDbLine
 10
317.92
 20
570.0
 30
0.0
 11
229.0
 21
570.0
 31
0.0
  0
LINE
  5
38EF
330
1D9
100
AcDbEntity
  8
0
100
AcDbLine
 10
220.0
 20
567.5799999999997
 30
0.0
 11
229.0
 21
570.0
 31
0.0
  0
LINE
  5
38F0
330
1D9
100
AcDbEntity
  8
0
100
AcDbLine
 10
418.0
 20
500.0
 30
0.0
 11
418.0
 21
587.0
 31
0.0
  0
LINE
  5
38F1
330
1D9
100
AcDbEntity
  8
0
100
AcDbLine
 10
408.6800000000001
 20
587.0
 30
0.0
 11
408.6800000000001
 21
413.0
 31
0.0
  0
LINE
  5
38F2
330
1D9
100
AcDbEntity
  8
0
100
AcDbLine
 10
378.0
 20
525.0
 30
0.0
 11
378.0
 21
475.0
 31
0.0
  0
LINE
  5
38F3
330
1D9
100
AcDbEntity
  8
0
100
AcDbLine
 10
418.0
 20
500.0
 30
0.0
 11
418.0
 21
413.0
 31
0.0
  0
LINE
  5
38F4
330
1D9
100
AcDbEntity
  8
0
100
AcDbLine
 10
418.0
 20
413.0
 30
0.0
 11
408.6800000000001
 21
413.0
 31
0.0
  0
LINE
  5
38F5
330
1D9
100
AcDbEntity
  8
0
100
AcDbLine
 10
418.0
 20
587.0
 30
0.0
 11
408.6800000000001
 21
587.0
 31
0.0
  0
LINE
  5
38F6
330
1D9
100
AcDbEntity
  8
0
100
AcDbLine
 10
3313.0
 20
1725.955334987593
 30
0.0
 11
3313.0
 21
1795.955334987592
 31
0.0
  0
LINE
  5
38F7
330
1D9
100
AcDbEntity
  8
0
100
AcDbLine
 10
668.0
 20
582.5
 30
0.0
 11
668.0
 21
500.0
 31
0.0
  0
LINE
  5
38F8
330
1D9
100
AcDbEntity
  8
0
100
AcDbLine
 10
668.0
 20
417.4999999999998
 30
0.0
 11
668.0
 21
500.0
 31
0.0
  0
LINE
  5
38F9
330
1D9
100
AcDbEntity
  8
0
100
AcDbLine
 10
1144.92
 20
558.4999999999999
 30
0.0
 11
1119.5
 21
558.4999999999999
 31
0.0
  0
LINE
  5
38FA
330
1D9
100
AcDbEntity
  8
0
100
AcDbLine
 10
1040.0
 20
488.4999999999998
 30
0.0
 11
1276.059999999999
 21
488.4999999999998
 31
0.0
  0
LINE
  5
38FB
330
1D9
100
AcDbEntity
  8
0
100
AcDbLine
 10
1144.92
 20
418.5
 30
0.0
 11
1119.5
 21
418.5
 31
0.0
  0
ARC
  5
38FD
330
1D9
100
AcDbEntity
  8
0
100
AcDbCircle
 10
3806.0
 20
1713.955334987593
 30
0.0
 40
76.5
100
AcDbArc
 50
69.70319999999496
 51
131.8319999999933
  0
LINE
  5
38FE
330
1D9
100
AcDbEntity
  8
0
100
AcDbLine
 10
3658.0
 20
1713.955334987593
 30
0.0
 11
3857.59
 21
1713.955334987593
 31
0.0
  0
LINE
  5
3900
330
1D9
100
AcDbEntity
  8
0
100
AcDbLine
 10
3576.5
 20
1801.455334987593
 30
0.0
 11
3640.0
 21
1801.455334987593
 31
0.0
  0
LINE
  5
3901
330
1D9
100
AcDbEntity
  8
0
100
AcDbLine
 10
3576.5
 20
1801.455334987593
 30
0.0
 11
3576.5
 21
1725.955334987593
 31
0.0
  0
LINE
  5
3902
330
1D9
100
AcDbEntity
  8
0
100
AcDbLine
 10
3658.0
 20
1775.955334987592
 30
0.0
 11
3721.5
 21
1775.955334987592
 31
0.0
  0
LINE
  5
3903
330
1D9
100
AcDbEntity
  8
0
100
AcDbLine
 10
3640.0
 20
1793.545334987593
 30
0.0
 11
3652.360000000001
 21
1773.455334987593
 31
0.0
  0
LINE
  5
3904
330
1D9
100
AcDbEntity
  8
0
100
AcDbLine
 10
3640.0
 20
1801.455334987593
 30
0.0
 11
3640.0
 21
1725.955334987593
 31
0.0
  0
LINE
  5
3905
330
1D9
100
AcDbEntity
  8
0
100
AcDbLine
 10
3658.0
 20
1775.955334987592
 30
0.0
 11
3658.0
 21
1713.955334987593
 31
0.0
  0
LINE
  5
3906
330
1D9
100
AcDbEntity
  8
0
100
AcDbLine
 10
3658.0
 20
1773.455334987593
 30
0.0
 11
3652.360000000001
 21
1773.455334987593
 31
0.0
  0
LINE
  5
3907
330
1D9
100
AcDbEntity
  8
0
100
AcDbLine
 10
3640.0
 20
1725.955334987593
 30
0.0
 11
3658.0
 21
1713.955334987593
 31
0.0
  0
LINE
  5
3908
330
1D9
100
AcDbEntity
  8
0
100
AcDbLine
 10
3754.979999999999
 20
1770.955334987593
 30
0.0
 11
3721.5
 21
1770.955334987593
 31
0.0
  0
LINE
  5
3909
330
1D9
100
AcDbEntity
  8
0
100
AcDbLine
 10
3721.5
 20
1775.955334987592
 30
0.0
 11
3721.5
 21
1713.955334987593
 31
0.0
  0
LINE
  5
390A
330
1D9
100
AcDbEntity
  8
0
100
AcDbLine
 10
944.5
 20
589.0
 30
0.0
 11
1024.0
 21
589.0
 31
0.0
  0
LINE
  5
390B
330
1D9
100
AcDbEntity
  8
0
100
AcDbLine
 10
944.5
 20
411.0
 30
0.0
 11
1024.0
 21
411.0
 31
0.0
  0
LINE
  5
390C
330
1D9
100
AcDbEntity
  8
0
100
AcDbLine
 10
944.5
 20
589.0
 30
0.0
 11
944.5
 21
500.0
 31
0.0
  0
LINE
  5
390D
330
1D9
100
AcDbEntity
  8
0
100
AcDbLine
 10
944.5
 20
411.0
 30
0.0
 11
944.5
 21
500.0
 31
0.0
  0
LINE
  5
390E
330
1D9
100
AcDbEntity
  8
0
100
AcDbLine
 10
1119.5
 20
564.0
 30
0.0
 11
1119.5
 21
488.4999999999998
 31
0.0
  0
LINE
  5
390F
330
1D9
100
AcDbEntity
  8
0
100
AcDbLine
 10
1040.0
 20
564.0
 30
0.0
 11
1040.0
 21
488.4999999999998
 31
0.0
  0
LINE
  5
3910
330
1D9
100
AcDbEntity
  8
0
100
AcDbLine
 10
1024.0
 20
589.0
 30
0.0
 11
1024.0
 21
500.0
 31
0.0
  0
LINE
  5
3911
330
1D9
100
AcDbEntity
  8
0
100
AcDbLine
 10
1035.909999999998
 20
560.0
 30
0.0
 11
1035.909999999998
 21
433.0500000000001
 31
0.0
  0
LINE
  5
3912
330
1D9
100
AcDbEntity
  8
0
100
AcDbLine
 10
1040.0
 20
413.0
 30
0.0
 11
1119.5
 21
413.0
 31
0.0
  0
LINE
  5
3913
330
1D9
100
AcDbEntity
  8
0
100
AcDbLine
 10
1040.0
 20
488.4999999999998
 30
0.0
 11
1040.0
 21
413.0
 31
0.0
  0
LINE
  5
3914
330
1D9
100
AcDbEntity
  8
0
100
AcDbLine
 10
1024.0
 20
500.0
 30
0.0
 11
1024.0
 21
411.0
 31
0.0
  0
LINE
  5
3915
330
1D9
100
AcDbEntity
  8
0
100
AcDbLine
 10
1040.0
 20
417.0
 30
0.0
 11
1024.0
 21
417.0
 31
0.0
  0
LINE
  5
3916
330
1D9
100
AcDbEntity
  8
0
100
AcDbLine
 10
1024.0
 20
500.0
 30
0.0
 11
1040.0
 21
488.4999999999998
 31
0.0
  0
LINE
  5
3917
330
1D9
100
AcDbEntity
  8
0
100
AcDbLine
 10
1119.5
 20
413.0
 30
0.0
 11
1119.5
 21
488.4999999999998
 31
0.0
  0
LINE
  5
3918
330
1D9
100
AcDbEntity
  8
0
100
AcDbLine
 10
1040.0
 20
564.0
 30
0.0
 11
1119.5
 21
564.0
 31
0.0
  0
LINE
  5
3919
330
1D9
100
AcDbEntity
  8
0
100
AcDbLine
 10
1024.0
 20
579.38
 30
0.0
 11
1035.909999999998
 21
560.0
 31
0.0
  0
LINE
  5
391A
330
1D9
100
AcDbEntity
  8
0
100
AcDbLine
 10
1040.0
 20
560.0
 30
0.0
 11
1035.909999999998
 21
560.0
 31
0.0
  0
LINE
  5
391B
330
1D9
100
AcDbEntity
  8
0
100
AcDbLine
 10
3841.0
 20
1785.705334987593
 30
0.0
 11
3832.540000000001
 21
1785.705334987593
 31
0.0
  0
LINE
  5
391C
330
1D9
100
AcDbEntity
  8
0
100
AcDbLine
 10
3786.0
 20
1770.955334987593
 30
0.0
 11
3841.0
 21
1770.955334987593
 31
0.0
  0
LINE
  5
391D
330
1D9
100
AcDbEntity
  8
0
100
AcDbLine
 10
3786.0
 20
1713.955334987593
 30
0.0
 11
3786.0
 21
1770.955334987593
 31
0.0
  0
LINE
  5
391E
330
1D9
100
AcDbEntity
  8
0
100
AcDbLine
 10
3806.0
 20
1738.955334987593
 30
0.0
 11
3806.0
 21
1688.955334987593
 31
0.0
  0
LINE
  5
391F
330
1D9
100
AcDbEntity
  8
0
100
AcDbLine
 10
3841.0
 20
1713.955334987593
 30
0.0
 11
3841.0
 21
1785.705334987593
 31
0.0
  0
LINE
  5
3920
330
1D9
100
AcDbEntity
  8
0
100
AcDbLine
 10
1245.0
 20
488.4999999999998
 30
0.0
 11
1245.0
 21
575.4999999999999
 31
0.0
  0
LINE
  5
3921
330
1D9
100
AcDbEntity
  8
0
100
AcDbLine
 10
1235.68
 20
575.4999999999999
 30
0.0
 11
1235.68
 21
488.4999999999998
 31
0.0
  0
LINE
  5
3922
330
1D9
100
AcDbEntity
  8
0
100
AcDbLine
 10
1170.0
 20
488.4999999999998
 30
0.0
 11
1170.0
 21
558.4999999999999
 31
0.0
  0
LINE
  5
3923
330
1D9
100
AcDbEntity
  8
0
100
AcDbLine
 10
1144.92
 20
558.4999999999999
 30
0.0
 11
1144.92
 21
488.4999999999998
 31
0.0
  0
LINE
  5
3924
330
1D9
100
AcDbEntity
  8
0
100
AcDbLine
 10
1170.0
 20
418.5
 30
0.0
 11
1245.0
 21
418.5
 31
0.0
  0
ARC
  5
3925
330
1D9
100
AcDbEntity
  8
0
100
AcDbCircle
 10
1205.0
 20
488.4999999999998
 30
0.0
 40
92.24999999999999
100
AcDbArc
 50
229.3589999999884
 51
289.4229999999806
  0
LINE
  5
3926
330
1D9
100
AcDbEntity
  8
0
100
AcDbLine
 10
1144.92
 20
418.5
 30
0.0
 11
1144.92
 21
488.4999999999998
 31
0.0
  0
LINE
  5
3927
330
1D9
100
AcDbEntity
  8
0
100
AcDbLine
 10
1170.0
 20
488.4999999999998
 30
0.0
 11
1170.0
 21
418.5
 31
0.0
  0
LINE
  5
3928
330
1D9
100
AcDbEntity
  8
0
100
AcDbLine
 10
1205.0
 20
513.4999999999998
 30
0.0
 11
1205.0
 21
463.4999999999998
 31
0.0
  0
LINE
  5
3929
330
1D9
100
AcDbEntity
  8
0
100
AcDbLine
 10
1245.0
 20
488.4999999999998
 30
0.0
 11
1245.0
 21
401.4999999999998
 31
0.0
  0
LINE
  5
392A
330
1D9
100
AcDbEntity
  8
0
100
AcDbLine
 10
1235.68
 20
401.4999999999998
 30
0.0
 11
1235.68
 21
488.4999999999998
 31
0.0
  0
LINE
  5
392B
330
1D9
100
AcDbEntity
  8
0
100
AcDbLine
 10
1245.0
 20
401.4999999999998
 30
0.0
 11
1235.68
 21
401.4999999999998
 31
0.0
  0
LINE
  5
392C
330
1D9
100
AcDbEntity
  8
0
100
AcDbLine
 10
1170.0
 20
558.4999999999999
 30
0.0
 11
1245.0
 21
558.4999999999999
 31
0.0
  0
ARC
  5
392D
330
1D9
100
AcDbEntity
  8
0
100
AcDbCircle
 10
1205.0
 20
488.4999999999998
 30
0.0
 40
92.24999999999999
100
AcDbArc
 50
70.57700000001926
 51
130.6410000000115
  0
LINE
  5
392E
330
1D9
100
AcDbEntity
  8
0
100
AcDbLine
 10
1245.0
 20
575.4999999999999
 30
0.0
 11
1235.68
 21
575.4999999999999
 31
0.0
  0
LINE
  5
3BFB
330
1D9
100
AcDbEntity
  8
0
100
AcDbLine
 10
1183.0
 20
1725.955334987593
 30
0.0
 11
157.3199999999997
 21
1725.955334987593
 31
0.0
  0
LINE
  5
3BFC
330
1D9
100
AcDbEntity
  8
0
100
AcDbLine
 10
1145.0
 20
1687.955334987593
 30
0.0
 11
615.0
 21
1687.955334987593
 31
0.0
  0
LINE
  5
3BFD
330
1D9
100
AcDbEntity
  8
0
100
AcDbLine
 10
1145.0
 20
1763.955334987593
 30
0.0
 11
615.0
 21
1763.955334987593
 31
0.0
  0
LINE
  5
3BFE
330
1D9
100
AcDbEntity
  8
0
100
AcDbLine
 10
265.0
 20
1695.955334987592
 30
0.0
 11
615.0
 21
1695.955334987592
 31
0.0
  0
LINE
  5
3BFF
330
1D9
100
AcDbEntity
  8
0
100
AcDbLine
 10
265.0
 20
1755.955334987593
 30
0.0
 11
615.0
 21
1755.955334987593
 31
0.0
  0
ARC
  5
3C00
330
1D9
100
AcDbEntity
  8
0
100
AcDbCircle
 10
220.5
 20
1725.955334987593
 30
0.0
 40
37.5
100
AcDbArc
 50
231.2359999999899
 51
271.7680000000053
  0
ARC
  5
3C01
330
1D9
100
AcDbEntity
  8
0
100
AcDbCircle
 10
220.5
 20
1725.955334987593
 30
0.0
 40
37.5
100
AcDbArc
 50
88.2322000000085
 51
128.76400000001
  0
LINE
  5
3C02
330
1D9
100
AcDbEntity
  8
0
100
AcDbLine
 10
196.3299999999999
 20
1697.284334987593
 30
0.0
 11
196.3299999999999
 21
1725.955334987593
 31
0.0
  0
LINE
  5
3C03
330
1D9
100
AcDbEntity
  8
0
100
AcDbLine
 10
170.0
 20
1725.955334987593
 30
0.0
 11
170.0
 21
1695.955334987592
 31
0.0
  0
LINE
  5
3C04
330
1D9
100
AcDbEntity
  8
0
100
AcDbLine
 10
195.0
 20
1695.955334987592
 30
0.0
 11
195.6899999999995
 21
1696.643334987593
 31
0.0
  0
LINE
  5
3C05
330
1D9
100
AcDbEntity
  8
0
100
AcDbLine
 10
170.0
 20
1695.955334987592
 30
0.0
 11
195.0
 21
1695.955334987592
 31
0.0
  0
ARC
  5
3C06
330
1D9
100
AcDbEntity
  8
0
100
AcDbCircle
 10
196.3999999999995
 20
1695.935334987592
 30
0.0
 40
1.0
100
AcDbArc
 50
51.235899999993
 51
135.0
  0
LINE
  5
3C07
330
1D9
100
AcDbEntity
  8
0
100
AcDbLine
 10
196.3299999999999
 20
1754.626334987593
 30
0.0
 11
196.3299999999999
 21
1725.955334987593
 31
0.0
  0
LINE
  5
3C08
330
1D9
100
AcDbEntity
  8
0
100
AcDbLine
 10
170.0
 20
1725.955334987593
 30
0.0
 11
170.0
 21
1755.955334987593
 31
0.0
  0
LINE
  5
3C09
330
1D9
100
AcDbEntity
  8
0
100
AcDbLine
 10
195.0
 20
1755.955334987593
 30
0.0
 11
195.6899999999995
 21
1755.268334987593
 31
0.0
  0
LINE
  5
3C0A
330
1D9
100
AcDbEntity
  8
0
100
AcDbLine
 10
170.0
 20
1755.955334987593
 30
0.0
 11
195.0
 21
1755.955334987593
 31
0.0
  0
ARC
  5
3C0B
330
1D9
100
AcDbEntity
  8
0
100
AcDbCircle
 10
196.3999999999995
 20
1755.975334987593
 30
0.0
 40
1.0
100
AcDbArc
 50
225.0
 51
308.76400000001
  0
LINE
  5
3C0C
330
1D9
100
AcDbEntity
  8
0
100
AcDbLine
 10
227.7699999999994
 20
1689.166334987593
 30
0.0
 11
227.7699999999994
 21
1725.955334987593
 31
0.0
  0
LINE
  5
3C0D
330
1D9
100
AcDbEntity
  8
0
100
AcDbLine
 10
221.6599999999997
 20
1688.473334987593
 30
0.0
 11
221.6599999999997
 21
1725.955334987593
 31
0.0
  0
LINE
  5
3C0E
330
1D9
100
AcDbEntity
  8
0
100
AcDbLine
 10
239.0
 20
1693.955334987593
 30
0.0
 11
239.0
 21
1725.955334987593
 31
0.0
  0
LINE
  5
3C0F
330
1D9
100
AcDbEntity
  8
0
100
AcDbLine
 10
237.5599999999995
 20
1695.395334987593
 30
0.0
 11
237.5599999999995
 21
1725.955334987593
 31
0.0
  0
LINE
  5
3C10
330
1D9
100
AcDbEntity
  8
0
100
AcDbLine
 10
265.0
 20
1725.955334987593
 30
0.0
 11
265.0
 21
1693.955334987593
 31
0.0
  0
LINE
  5
3C11
330
1D9
100
AcDbEntity
  8
0
100
AcDbLine
 10
232.0
 20
1725.955334987593
 30
0.0
 11
232.0
 21
1690.262334987593
 31
0.0
  0
ARC
  5
3C12
330
1D9
100
AcDbEntity
  8
0
100
AcDbCircle
 10
220.5
 20
1725.955334987593
 30
0.0
 40
35.0
100
AcDbArc
 50
289.1820000000068
 51
299.1730000000036
  0
ARC
  5
3C13
330
1D9
100
AcDbEntity
  8
0
100
AcDbCircle
 10
224.5
 20
1690.681334987593
 30
0.0
 40
3.6
100
AcDbArc
 50
217.8350000000099
 51
335.1040000000143
  0
ARC
  5
3C14
330
1D9
100
AcDbEntity
  8
0
100
AcDbCircle
 10
220.5
 20
1725.955334987593
 30
0.0
 40
37.5
100
AcDbArc
 50
281.170999999986
 51
287.8579999999967
  0
LINE
  5
3C15
330
1D9
100
AcDbEntity
  8
0
100
AcDbLine
 10
237.5599999999995
 20
1695.395334987593
 30
0.0
 11
239.0
 21
1693.955334987593
 31
0.0
  0
LINE
  5
3C16
330
1D9
100
AcDbEntity
  8
0
100
AcDbLine
 10
239.0
 20
1693.955334987593
 30
0.0
 11
265.0
 21
1693.955334987593
 31
0.0
  0
LINE
  5
3C17
330
1D9
100
AcDbEntity
  8
0
100
AcDbLine
 10
227.7699999999994
 20
1762.745334987593
 30
0.0
 11
227.7699999999994
 21
1725.955334987593
 31
0.0
  0
LINE
  5
3C18
330
1D9
100
AcDbEntity
  8
0
100
AcDbLine
 10
221.6599999999997
 20
1763.437334987592
 30
0.0
 11
221.6599999999997
 21
1725.955334987593
 31
0.0
  0
LINE
  5
3C19
330
1D9
100
AcDbEntity
  8
0
100
AcDbLine
 10
239.0
 20
1757.955334987593
 30
0.0
 11
239.0
 21
1725.955334987593
 31
0.0
  0
LINE
  5
3C1A
330
1D9
100
AcDbEntity
  8
0
100
AcDbLine
 10
237.5599999999995
 20
1756.516334987593
 30
0.0
 11
237.5599999999995
 21
1725.955334987593
 31
0.0
  0
LINE
  5
3C1B
330
1D9
100
AcDbEntity
  8
0
100
AcDbLine
 10
265.0
 20
1725.955334987593
 30
0.0
 11
265.0
 21
1757.955334987593
 31
0.0
  0
LINE
  5
3C1C
330
1D9
100
AcDbEntity
  8
0
100
AcDbLine
 10
232.0
 20
1725.955334987593
 30
0.0
 11
232.0
 21
1761.648334987593
 31
0.0
  0
LINE
  5
3C1D
330
1D9
100
AcDbEntity
  8
0
100
AcDbLine
 10
220.5
 20
1725.955334987593
 30
0.0
 11
220.5
 21
1710.955334987593
 31
0.0
  0
LINE
  5
3C1E
330
1D9
100
AcDbEntity
  8
0
100
AcDbLine
 10
220.5
 20
1725.955334987593
 30
0.0
 11
220.5
 21
1740.955334987593
 31
0.0
  0
ARC
  5
3C1F
330
1D9
100
AcDbEntity
  8
0
100
AcDbCircle
 10
220.5
 20
1725.955334987593
 30
0.0
 40
35.0
100
AcDbArc
 50
60.82739999999042
 51
70.81790000000054
  0
ARC
  5
3C20
330
1D9
100
AcDbEntity
  8
0
100
AcDbCircle
 10
224.5
 20
1761.229334987593
 30
0.0
 40
3.6
100
AcDbArc
 50
24.89620000000525
 51
142.1649999999899
  0
ARC
  5
3C21
330
1D9
100
AcDbEntity
  8
0
100
AcDbCircle
 10
220.5
 20
1725.955334987593
 30
0.0
 40
37.5
100
AcDbArc
 50
72.14149999999904
 51
78.82850000000316
  0
LINE
  5
3C22
330
1D9
100
AcDbEntity
  8
0
100
AcDbLine
 10
237.5599999999995
 20
1756.516334987593
 30
0.0
 11
239.0
 21
1757.955334987593
 31
0.0
  0
LINE
  5
3C23
330
1D9
100
AcDbEntity
  8
0
100
AcDbLine
 10
239.0
 20
1757.955334987593
 30
0.0
 11
265.0
 21
1757.955334987593
 31
0.0
  0
LINE
  5
3C24
330
1D9
100
AcDbEntity
  8
0
100
AcDbLine
 10
615.0
 20
1725.955334987593
 30
0.0
 11
615.0
 21
1687.955334987593
 31
0.0
  0
LINE
  5
3C25
330
1D9
100
AcDbEntity
  8
0
100
AcDbLine
 10
615.0
 20
1725.955334987593
 30
0.0
 11
615.0
 21
1763.955334987593
 31
0.0
  0
ARC
  5
3C26
330
1D9
100
AcDbEntity
  8
0
100
AcDbCircle
 10
1250.5
 20
1718.955334987593
 30
0.0
 40
37.5
100
AcDbArc
 50
88.2322000000085
 51
128.76400000001
  0
LINE
  5
3C27
330
1D9
100
AcDbEntity
  8
0
100
AcDbLine
 10
1306.429999999998
 20
1718.955334987593
 30
0.0
 11
1197.0
 21
1718.955334987593
 31
0.0
  0
ARC
  5
3C28
330
1D9
100
AcDbEntity
  8
0
100
AcDbCircle
 10
1250.5
 20
1718.955334987593
 30
0.0
 40
37.5
100
AcDbArc
 50
231.2359999999899
 51
271.7680000000053
  0
LINE
  5
3C29
330
1D9
100
AcDbEntity
  8
0
100
AcDbLine
 10
1226.329999999999
 20
1690.284334987593
 30
0.0
 11
1226.329999999999
 21
1718.955334987593
 31
0.0
  0
LINE
  5
3C2A
330
1D9
100
AcDbEntity
  8
0
100
AcDbLine
 10
1225.0
 20
1718.955334987593
 30
0.0
 11
1225.0
 21
1685.955334987593
 31
0.0
  0
LINE
  5
3C2B
330
1D9
100
AcDbEntity
  8
0
100
AcDbLine
 10
1191.589999999999
 20
1749.955334987593
 30
0.0
 11
1191.589999999999
 21
1696.034334987593
 31
0.0
  0
LINE
  5
3C2C
330
1D9
100
AcDbEntity
  8
0
100
AcDbLine
 10
1183.0
 20
1725.955334987593
 30
0.0
 11
1183.0
 21
1684.955334987592
 31
0.0
  0
LINE
  5
3C2D
330
1D9
100
AcDbEntity
  8
0
100
AcDbLine
 10
1197.0
 20
1685.955334987593
 30
0.0
 11
1197.0
 21
1718.955334987593
 31
0.0
  0
LINE
  5
3C2E
330
1D9
100
AcDbEntity
  8
0
100
AcDbLine
 10
1145.0
 20
1725.955334987593
 30
0.0
 11
1145.0
 21
1684.955334987592
 31
0.0
  0
LINE
  5
3C2F
330
1D9
100
AcDbEntity
  8
0
100
AcDbLine
 10
1197.0
 20
1687.955334987593
 30
0.0
 11
1183.0
 21
1687.955334987593
 31
0.0
  0
LINE
  5
3C30
330
1D9
100
AcDbEntity
  8
0
100
AcDbLine
 10
1183.0
 20
1684.955334987592
 30
0.0
 11
1145.0
 21
1684.955334987592
 31
0.0
  0
LINE
  5
3C31
330
1D9
100
AcDbEntity
  8
0
100
AcDbLine
 10
1197.0
 20
1685.955334987593
 30
0.0
 11
1225.0
 21
1685.955334987593
 31
0.0
  0
ARC
  5
3C32
330
1D9
100
AcDbEntity
  8
0
100
AcDbCircle
 10
1226.399999999999
 20
1688.935334987593
 30
0.0
 40
1.0
100
AcDbArc
 50
51.235899999993
 51
135.0
  0
LINE
  5
3C33
330
1D9
100
AcDbEntity
  8
0
100
AcDbLine
 10
1225.0
 20
1688.955334987593
 30
0.0
 11
1225.689999999999
 21
1689.643334987593
 31
0.0
  0
LINE
  5
3C34
330
1D9
100
AcDbEntity
  8
0
100
AcDbLine
 10
1183.0
 20
1725.955334987593
 30
0.0
 11
1197.0
 21
1718.955334987593
 31
0.0
  0
LINE
  5
3C35
330
1D9
100
AcDbEntity
  8
0
100
AcDbLine
 10
1183.0
 20
1762.674334987593
 30
0.0
 11
1191.589999999999
 21
1749.955334987593
 31
0.0
  0
LINE
  5
3C36
330
1D9
100
AcDbEntity
  8
0
100
AcDbLine
 10
1183.0
 20
1725.955334987593
 30
0.0
 11
1183.0
 21
1766.955334987593
 31
0.0
  0
LINE
  5
3C37
330
1D9
100
AcDbEntity
  8
0
100
AcDbLine
 10
1145.0
 20
1725.955334987593
 30
0.0
 11
1145.0
 21
1766.955334987593
 31
0.0
  0
LINE
  5
3C38
330
1D9
100
AcDbEntity
  8
0
100
AcDbLine
 10
1183.0
 20
1766.955334987593
 30
0.0
 11
1145.0
 21
1766.955334987593
 31
0.0
  0
LINE
  5
3C39
330
1D9
100
AcDbEntity
  8
0
100
AcDbLine
 10
1197.0
 20
1751.955334987593
 30
0.0
 11
1225.0
 21
1751.955334987593
 31
0.0
  0
LINE
  5
3C3A
330
1D9
100
AcDbEntity
  8
0
100
AcDbLine
 10
1197.0
 20
1718.955334987593
 30
0.0
 11
1197.0
 21
1751.955334987593
 31
0.0
  0
LINE
  5
3C3B
330
1D9
100
AcDbEntity
  8
0
100
AcDbLine
 10
1197.0
 20
1749.955334987593
 30
0.0
 11
1191.589999999999
 21
1749.955334987593
 31
0.0
  0
LINE
  5
3C3C
330
1D9
100
AcDbEntity
  8
0
100
AcDbLine
 10
1226.329999999999
 20
1747.626334987593
 30
0.0
 11
1226.329999999999
 21
1718.955334987593
 31
0.0
  0
LINE
  5
3C3D
330
1D9
100
AcDbEntity
  8
0
100
AcDbLine
 10
1225.0
 20
1748.955334987592
 30
0.0
 11
1225.689999999999
 21
1748.268334987593
 31
0.0
  0
LINE
  5
3C3E
330
1D9
100
AcDbEntity
  8
0
100
AcDbLine
 10
1225.0
 20
1718.955334987593
 30
0.0
 11
1225.0
 21
1751.955334987593
 31
0.0
  0
ARC
  5
3C3F
330
1D9
100
AcDbEntity
  8
0
100
AcDbCircle
 10
1226.399999999999
 20
1748.975334987592
 30
0.0
 40
1.0
100
AcDbArc
 50
225.0
 51
308.76400000001
  0
LINE
  5
3C40
330
1D9
100
AcDbEntity
  8
0
100
AcDbLine
 10
1250.5
 20
1718.955334987593
 30
0.0
 11
1250.5
 21
1703.955334987593
 31
0.0
  0
LINE
  5
3C41
330
1D9
100
AcDbEntity
  8
0
100
AcDbLine
 10
1269.0
 20
1686.955334987592
 30
0.0
 11
1269.0
 21
1750.955334987593
 31
0.0
  0
LINE
  5
3C42
330
1D9
100
AcDbEntity
  8
0
100
AcDbLine
 10
1267.56
 20
1749.516334987593
 30
0.0
 11
1267.56
 21
1688.395334987593
 31
0.0
  0
LINE
  5
3C43
330
1D9
100
AcDbEntity
  8
0
100
AcDbLine
 10
1270.0
 20
1718.955334987593
 30
0.0
 11
1270.0
 21
1688.955334987593
 31
0.0
  0
LINE
  5
3C44
330
1D9
100
AcDbEntity
  8
0
100
AcDbLine
 10
1262.0
 20
1718.955334987593
 30
0.0
 11
1262.0
 21
1683.262334987593
 31
0.0
  0
LINE
  5
3C45
330
1D9
100
AcDbEntity
  8
0
100
AcDbLine
 10
1295.0
 20
1718.955334987593
 30
0.0
 11
1295.0
 21
1686.955334987592
 31
0.0
  0
LINE
  5
3C46
330
1D9
100
AcDbEntity
  8
0
100
AcDbLine
 10
1270.0
 20
1688.955334987593
 30
0.0
 11
1295.0
 21
1688.955334987593
 31
0.0
  0
LINE
  5
3C47
330
1D9
100
AcDbEntity
  8
0
100
AcDbLine
 10
1269.0
 20
1686.955334987592
 30
0.0
 11
1295.0
 21
1686.955334987592
 31
0.0
  0
ARC
  5
3C48
330
1D9
100
AcDbEntity
  8
0
100
AcDbCircle
 10
1250.5
 20
1718.955334987593
 30
0.0
 40
35.0
100
AcDbArc
 50
289.1820000000068
 51
299.1730000000036
  0
LINE
  5
3C49
330
1D9
100
AcDbEntity
  8
0
100
AcDbLine
 10
1267.56
 20
1688.395334987593
 30
0.0
 11
1269.0
 21
1686.955334987592
 31
0.0
  0
ARC
  5
3C4A
330
1D9
100
AcDbEntity
  8
0
100
AcDbCircle
 10
1254.5
 20
1683.681334987593
 30
0.0
 40
3.6
100
AcDbArc
 50
217.8350000000099
 51
335.1040000000143
  0
ARC
  5
3C4B
330
1D9
100
AcDbEntity
  8
0
100
AcDbCircle
 10
1250.5
 20
1718.955334987593
 30
0.0
 40
37.5
100
AcDbArc
 50
281.170999999986
 51
287.8579999999967
  0
LINE
  5
3C4C
330
1D9
100
AcDbEntity
  8
0
100
AcDbLine
 10
1262.0
 20
1718.955334987593
 30
0.0
 11
1262.0
 21
1754.648334987593
 31
0.0
  0
LINE
  5
3C4D
330
1D9
100
AcDbEntity
  8
0
100
AcDbLine
 10
1270.0
 20
1748.955334987592
 30
0.0
 11
1295.0
 21
1748.955334987592
 31
0.0
  0
LINE
  5
3C4E
330
1D9
100
AcDbEntity
  8
0
100
AcDbLine
 10
1269.0
 20
1750.955334987593
 30
0.0
 11
1295.0
 21
1750.955334987593
 31
0.0
  0
LINE
  5
3C4F
330
1D9
100
AcDbEntity
  8
0
100
AcDbLine
 10
1250.5
 20
1718.955334987593
 30
0.0
 11
1250.5
 21
1733.955334987593
 31
0.0
  0
LINE
  5
3C50
330
1D9
100
AcDbEntity
  8
0
100
AcDbLine
 10
1270.0
 20
1718.955334987593
 30
0.0
 11
1270.0
 21
1748.955334987592
 31
0.0
  0
ARC
  5
3C51
330
1D9
100
AcDbEntity
  8
0
100
AcDbCircle
 10
1250.5
 20
1718.955334987593
 30
0.0
 40
35.0
100
AcDbArc
 50
60.82739999999042
 51
70.81790000000054
  0
LINE
  5
3C52
330
1D9
100
AcDbEntity
  8
0
100
AcDbLine
 10
1267.56
 20
1749.516334987593
 30
0.0
 11
1269.0
 21
1750.955334987593
 31
0.0
  0
LINE
  5
3C53
330
1D9
100
AcDbEntity
  8
0
100
AcDbLine
 10
1295.0
 20
1718.955334987593
 30
0.0
 11
1295.0
 21
1750.955334987593
 31
0.0
  0
ARC
  5
3C54
330
1D9
100
AcDbEntity
  8
0
100
AcDbCircle
 10
1254.5
 20
1754.229334987591
 30
0.0
 40
3.6
100
AcDbArc
 50
24.89620000000525
 51
142.1649999999899
  0
ARC
  5
3C55
330
1D9
100
AcDbEntity
  8
0
100
AcDbCircle
 10
1250.5
 20
1718.955334987593
 30
0.0
 40
37.5
100
AcDbArc
 50
72.14149999999904
 51
78.82850000000316
  0
SOLID
  5
3E0E
330
1D9
100
AcDbEntity
  8
0
100
AcDbTrace
 10
842.8093405516628
 20
1466.526914648752
 30
0.0
 11
842.8093405516628
 21
1433.193581315419
 31
0.0
 12
942.8093405516628
 22
1449.860247982084
 32
0.0
 13
942.8093405516628
 23
1449.860247982084
 33
0.0
  0
LINE
  5
3E0F
330
1D9
100
AcDbEntity
  8
0
100
AcDbLine
 10
601.7734678464274
 20
1449.860247982084
 30
0.0
 11
842.8093405516628
 21
1449.860247982084
 31
0.0
  0
TEXT
  5
3E10
330
1D9
100
AcDbEntity
  8
0
100
AcDbText
 10
620.314109449142
 20
1357.892436417976
 30
0.0
 40
48.51116625310172
  1
流れ方向
100
AcDbText
  0
LINE
  5
3E11
330
1D9
100
AcDbEntity
  8
0
100
AcDbLine
 10
1904.773467846426
 20
1449.860247982084
 30
0.0
 11
2145.809340551662
 21
1449.860247982084
 31
0.0
  0
TEXT
  5
3E12
330
1D9
100
AcDbEntity
  8
0
100
AcDbText
 10
1923.314109449142
 20
1357.892436417976
 30
0.0
 40
48.51116625310172
  1
流れ方向
100
AcDbText
  0
SOLID
  5
3E13
330
1D9
100
AcDbEntity
  8
0
100
AcDbTrace
 10
2145.809340551662
 20
1466.526914648752
 30
0.0
 11
2145.809340551662
 21
1433.193581315419
 31
0.0
 12
2245.809340551662
 22
1449.860247982084
 32
0.0
 13
2245.809340551662
 23
1449.860247982084
 33
0.0
  0
TEXT
  5
3E14
330
1D9
100
AcDbEntity
  8
0
100
AcDbText
 10
3226.314109449142
 20
1357.892436417976
 30
0.0
 40
48.51116625310172
  1
流れ方向
100
AcDbText
  0
LINE
  5
3E15
330
1D9
100
AcDbEntity
  8
0
100
AcDbLine
 10
3207.773467846427
 20
1449.860247982084
 30
0.0
 11
3448.809340551663
 21
1449.860247982084
 31
0.0
  0
SOLID
  5
3E16
330
1D9
100
AcDbEntity
  8
0
100
AcDbTrace
 10
3448.809340551663
 20
1466.526914648752
 30
0.0
 11
3448.809340551663
 21
1433.193581315419
 31
0.0
 12
3548.809340551663
 22
1449.860247982084
 32
0.0
 13
3548.809340551663
 23
1449.860247982084
 33
0.0
  0
SOLID
  5
3E17
330
1D9
100
AcDbEntity
  8
0
100
AcDbTrace
 10
842.2022865712243
 20
240.5715796611588
 30
0.0
 11
842.2022865712243
 21
207.2382463278259
 31
0.0
 12
942.2022865712243
 22
223.9049129944924
 32
0.0
 13
942.2022865712243
 23
223.9049129944924
 33
0.0
  0
LINE
  5
3E18
330
1D9
100
AcDbEntity
  8
0
100
AcDbLine
 10
601.1664138659888
 20
223.9049129944924
 30
0.0
 11
842.2022865712243
 21
223.9049129944924
 31
0.0
  0
TEXT
  5
3E19
330
1D9
100
AcDbEntity
  8
0
100
AcDbText
 10
619.7070554687034
 20
131.9371014303833
 30
0.0
 40
48.51116625310172
  1
流れ方向
100
AcDbText
  0
LINE
  5
3E1A
330
1D9
100
AcDbEntity
  8
0
100
AcDbLine
 10
1904.166413865987
 20
223.9049129944924
 30
0.0
 11
2145.202286571224
 21
223.9049129944924
 31
0.0
  0
TEXT
  5
3E1B
330
1D9
100
AcDbEntity
  8
0
100
AcDbText
 10
1922.707055468702
 20
131.9371014303833
 30
0.0
 40
48.51116625310172
  1
流れ方向
100
AcDbText
  0
SOLID
  5
3E1C
330
1D9
100
AcDbEntity
  8
0
100
AcDbTrace
 10
2145.202286571224
 20
240.5715796611588
 30
0.0
 11
2145.202286571224
 21
207.2382463278259
 31
0.0
 12
2245.202286571224
 22
223.9049129944924
 32
0.0
 13
2245.202286571224
 23
223.9049129944924
 33
0.0
  0
TEXT
  5
3E1D
330
1D9
100
AcDbEntity
  8
0
100
AcDbText
 10
3225.707055468703
 20
131.9371014303833
 30
0.0
 40
48.51116625310172
  1
流れ方向
100
AcDbText
  0
LINE
  5
3E1E
330
1D9
100
AcDbEntity
  8
0
100
AcDbLine
 10
3207.166413865989
 20
223.9049129944924
 30
0.0
 11
3448.202286571223
 21
223.9049129944924
 31
0.0
  0
SOLID
  5
3E1F
330
1D9
100
AcDbEntity
  8
0
100
AcDbTrace
 10
3448.202286571223
 20
240.5715796611588
 30
0.0
 11
3448.202286571223
 21
207.2382463278259
 31
0.0
 12
3548.202286571223
 22
223.9049129944924
 32
0.0
 13
3548.202286571223
 23
223.9049129944924
 33
0.0
  0
LINE
  5
3E29
330
1D9
100
AcDbEntity
  8
0
100
AcDbLine
 10
1537.999999999999
 20
1770.455334987593
 30
0.0
 11
1537.999999999999
 21
1963.955334987593
 31
0.0
  0
LINE
  5
3E2A
330
1D9
100
AcDbEntity
  8
0
100
AcDbLine
 10
2488.0
 20
1752.455334987593
 30
0.0
 11
2488.0
 21
1963.955334987593
 31
0.0
  0
LINE
  5
3E2B
330
1D9
100
AcDbEntity
  8
0
100
AcDbLine
 10
1557.999999999999
 20
1945.955334987592
 30
0.0
 11
2468.0
 21
1945.955334987592
 31
0.0
  0
LINE
  5
3E2F
330
1D9
100
AcDbEntity
  8
0
100
AcDbLine
 10
1537.999999999999
 20
1770.455334987593
 30
0.0
 11
1537.999999999999
 21
2043.955334987593
 31
0.0
  0
LINE
  5
3E30
330
1D9
100
AcDbEntity
  8
0
100
AcDbLine
 10
2533.0
 20
1760.955334987593
 30
0.0
 11
2533.0
 21
2043.955334987593
 31
0.0
  0
LINE
  5
3E31
330
1D9
100
AcDbEntity
  8
0
100
AcDbLine
 10
1557.999999999999
 20
2025.955334987592
 30
0.0
 11
2513.0
 21
2025.955334987592
 31
0.0
  0
LINE
  5
3E35
330
1D9
100
AcDbEntity
  8
0
100
AcDbLine
 10
1491.0
 20
580.5529999999999
 30
0.0
 11
1491.0
 21
738.0
 31
0.0
  0
LINE
  5
3E36
330
1D9
100
AcDbEntity
  8
0
100
AcDbLine
 10
2491.0
 20
559.4999999999998
 30
0.0
 11
2491.0
 21
738.0
 31
0.0
  0
LINE
  5
3E37
330
1D9
100
AcDbEntity
  8
0
100
AcDbLine
 10
1511.0
 20
720.0
 30
0.0
 11
2471.0
 21
720.0
 31
0.0
  0
LINE
  5
3E3B
330
1D9
100
AcDbEntity
  8
0
100
AcDbLine
 10
1491.0
 20
580.5529999999999
 30
0.0
 11
1491.0
 21
818.0
 31
0.0
  0
LINE
  5
3E3C
330
1D9
100
AcDbEntity
  8
0
100
AcDbLine
 10
2580.0
 20
578.0
 30
0.0
 11
2580.0
 21
818.0
 31
0.0
  0
LINE
  5
3E3D
330
1D9
100
AcDbEntity
  8
0
100
AcDbLine
 10
1511.0
 20
800.0
 30
0.0
 11
2560.0
 21
800.0
 31
0.0
  0
LINE
  5
3E41
330
1D9
100
AcDbEntity
  8
0
100
AcDbLine
 10
170.0
 20
1756.955334987593
 30
0.0
 11
170.0
 21
1963.955334987593
 31
0.0
  0
LINE
  5
3E42
330
1D9
100
AcDbEntity
  8
0
100
AcDbLine
 10
1270.0
 20
1749.955334987593
 30
0.0
 11
1270.0
 21
1963.955334987593
 31
0.0
  0
LINE
  5
3E43
330
1D9
100
AcDbEntity
  8
0
100
AcDbLine
 10
190.0
 20
1945.955334987592
 30
0.0
 11
1250.0
 21
1945.955334987592
 31
0.0
  0
LINE
  5
3E47
330
1D9
100
AcDbEntity
  8
0
100
AcDbLine
 10
170.0
 20
1756.955334987593
 30
0.0
 11
170.0
 21
2043.955334987593
 31
0.0
  0
LINE
  5
3E48
330
1D9
100
AcDbEntity
  8
0
100
AcDbLine
 10
1295.0
 20
1756.955334987593
 30
0.0
 11
1295.0
 21
2043.955334987593
 31
0.0
  0
LINE
  5
3E49
330
1D9
100
AcDbEntity
  8
0
100
AcDbLine
 10
190.0
 20
2025.955334987592
 30
0.0
 11
1275.0
 21
2025.955334987592
 31
0.0
  0
LINE
  5
3E4D
330
1D9
100
AcDbEntity
  8
0
100
AcDbLine
 10
220.0
 20
568.5799999999998
 30
0.0
 11
220.0
 21
738.0
 31
0.0
  0
LINE
  5
3E4E
330
1D9
100
AcDbEntity
  8
0
100
AcDbLine
 10
1170.0
 20
559.4999999999998
 30
0.0
 11
1170.0
 21
738.0
 31
0.0
  0
LINE
  5
3E4F
330
1D9
100
AcDbEntity
  8
0
100
AcDbLine
 10
240.0
 20
720.0
 30
0.0
 11
1150.0
 21
720.0
 31
0.0
  0
LINE
  5
3E53
330
1D9
100
AcDbEntity
  8
0
100
AcDbLine
 10
220.0
 20
568.5799999999998
 30
0.0
 11
220.0
 21
818.0
 31
0.0
  0
LINE
  5
3E54
330
1D9
100
AcDbEntity
  8
0
100
AcDbLine
 10
1245.0
 20
576.4999999999998
 30
0.0
 11
1245.0
 21
818.0
 31
0.0
  0
LINE
  5
3E55
330
1D9
100
AcDbEntity
  8
0
100
AcDbLine
 10
240.0
 20
800.0
 30
0.0
 11
1225.0
 21
800.0
 31
0.0
  0
LINE
  5
3E59
330
1D9
100
AcDbEntity
  8
0
100
AcDbLine
 10
2836.0
 20
1782.075334987593
 30
0.0
 11
2836.0
 21
1963.955334987593
 31
0.0
  0
LINE
  5
3E5A
330
1D9
100
AcDbEntity
  8
0
100
AcDbLine
 10
3786.0
 20
1771.955334987593
 30
0.0
 11
3786.0
 21
1963.955334987593
 31
0.0
  0
LINE
  5
3E5B
330
1D9
100
AcDbEntity
  8
0
100
AcDbLine
 10
2856.0
 20
1945.955334987592
 30
0.0
 11
3766.0
 21
1945.955334987592
 31
0.0
  0
LINE
  5
3E5F
330
1D9
100
AcDbEntity
  8
0
100
AcDbLine
 10
2836.0
 20
1782.075334987593
 30
0.0
 11
2836.0
 21
2043.955334987593
 31
0.0
  0
LINE
  5
3E60
330
1D9
100
AcDbEntity
  8
0
100
AcDbLine
 10
3841.0
 20
1786.705334987593
 30
0.0
 11
3841.0
 21
2043.955334987593
 31
0.0
  0
LINE
  5
3E61
330
1D9
100
AcDbEntity
  8
0
100
AcDbLine
 10
2856.0
 20
2025.955334987592
 30
0.0
 11
3821.0
 21
2025.955334987592
 31
0.0
  0
LINE
  5
3E65
330
1D9
100
AcDbEntity
  8
0
100
AcDbLine
 10
2780.499999999999
 20
607.0
 30
0.0
 11
2780.499999999999
 21
738.0
 31
0.0
  0
LINE
  5
3E66
330
1D9
100
AcDbEntity
  8
0
100
AcDbLine
 10
3780.499999999998
 20
584.4999999999998
 30
0.0
 11
3780.499999999998
 21
738.0
 31
0.0
  0
LINE
  5
3E67
330
1D9
100
AcDbEntity
  8
0
100
AcDbLine
 10
2800.499999999999
 20
720.0
 30
0.0
 11
3760.5
 21
720.0
 31
0.0
  0
LINE
  5
3E6B
330
1D9
100
AcDbEntity
  8
0
100
AcDbLine
 10
2780.499999999999
 20
606.0
 30
0.0
 11
2780.499999999999
 21
818.0
 31
0.0
  0
LINE
  5
3E6C
330
1D9
100
AcDbEntity
  8
0
100
AcDbLine
 10
3896.5
 20
606.0
 30
0.0
 11
3896.5
 21
818.0
 31
0.0
  0
LINE
  5
3E6D
330
1D9
100
AcDbEntity
  8
0
100
AcDbLine
 10
2800.499999999999
 20
800.0
 30
0.0
 11
3876.5
 21
800.0
 31
0.0
  0
TEXT
  5
3E71
330
1D9
100
AcDbEntity
  8
0
100
AcDbText
 10
1948.5
 20
735.0
 30
0.0
 40
30.0
  1
1000
100
AcDbText
  0
LINE
  5
3E72
330
1D9
100
AcDbEntity
  8
0
100
AcDbLine
 10
220.0
 20
720.0
 30
0.0
 11
240.0
 21
725.3589838486219
 31
0.0
  0
LINE
  5
3E73
330
1D9
100
AcDbEntity
  8
0
100
AcDbLine
 10
220.0
 20
720.0
 30
0.0
 11
240.0
 21
714.6410161513777
 31
0.0
  0
LINE
  5
3E74
330
1D9
100
AcDbEntity
  8
0
100
AcDbLine
 10
240.0
 20
720.0
 30
0.0
 11
220.0
 21
720.0
 31
0.0
  0
LINE
  5
3E75
330
1D9
100
AcDbEntity
  8
0
100
AcDbLine
 10
220.0
 20
800.0
 30
0.0
 11
240.0
 21
805.3589838486221
 31
0.0
  0
LINE
  5
3E76
330
1D9
100
AcDbEntity
  8
0
100
AcDbLine
 10
220.0
 20
800.0
 30
0.0
 11
240.0
 21
794.6410161513778
 31
0.0
  0
LINE
  5
3E77
330
1D9
100
AcDbEntity
  8
0
100
AcDbLine
 10
240.0
 20
800.0
 30
0.0
 11
220.0
 21
800.0
 31
0.0
  0
LINE
  5
3E78
330
1D9
100
AcDbEntity
  8
0
100
AcDbLine
 10
170.0
 20
1945.955334987592
 30
0.0
 11
190.0
 21
1951.314318836215
 31
0.0
  0
LINE
  5
3E79
330
1D9
100
AcDbEntity
  8
0
100
AcDbLine
 10
170.0
 20
1945.955334987592
 30
0.0
 11
190.0
 21
1940.596351138971
 31
0.0
  0
LINE
  5
3E7A
330
1D9
100
AcDbEntity
  8
0
100
AcDbLine
 10
190.0
 20
1945.955334987592
 30
0.0
 11
170.0
 21
1945.955334987592
 31
0.0
  0
LINE
  5
3E7B
330
1D9
100
AcDbEntity
  8
0
100
AcDbLine
 10
170.0
 20
2025.955334987592
 30
0.0
 11
190.0
 21
2031.314318836214
 31
0.0
  0
LINE
  5
3E7C
330
1D9
100
AcDbEntity
  8
0
100
AcDbLine
 10
170.0
 20
2025.955334987592
 30
0.0
 11
190.0
 21
2020.596351138971
 31
0.0
  0
LINE
  5
3E7D
330
1D9
100
AcDbEntity
  8
0
100
AcDbLine
 10
190.0
 20
2025.955334987592
 30
0.0
 11
170.0
 21
2025.955334987592
 31
0.0
  0
LINE
  5
3E7E
330
1D9
100
AcDbEntity
  8
0
100
AcDbLine
 10
1270.0
 20
1945.955334987592
 30
0.0
 11
1250.0
 21
1940.596351138971
 31
0.0
  0
LINE
  5
3E7F
330
1D9
100
AcDbEntity
  8
0
100
AcDbLine
 10
1270.0
 20
1945.955334987592
 30
0.0
 11
1250.0
 21
1951.314318836215
 31
0.0
  0
LINE
  5
3E80
330
1D9
100
AcDbEntity
  8
0
100
AcDbLine
 10
1250.0
 20
1945.955334987592
 30
0.0
 11
1270.0
 21
1945.955334987592
 31
0.0
  0
TEXT
  5
3E81
330
1D9
100
AcDbEntity
  8
0
100
AcDbText
 10
657.5
 20
735.0
 30
0.0
 40
30.0
  1
950
100
AcDbText
  0
TEXT
  5
3E82
330
1D9
100
AcDbEntity
  8
0
100
AcDbText
 10
685.0
 20
815.0
 30
0.0
 40
30.0
  1
1025
100
AcDbText
  0
LINE
  5
3E83
330
1D9
100
AcDbEntity
  8
0
100
AcDbLine
 10
1170.0
 20
720.0
 30
0.0
 11
1150.0
 21
714.6410161513777
 31
0.0
  0
LINE
  5
3E84
330
1D9
100
AcDbEntity
  8
0
100
AcDbLine
 10
1170.0
 20
720.0
 30
0.0
 11
1150.0
 21
725.3589838486219
 31
0.0
  0
LINE
  5
3E85
330
1D9
100
AcDbEntity
  8
0
100
AcDbLine
 10
1150.0
 20
720.0
 30
0.0
 11
1170.0
 21
720.0
 31
0.0
  0
LINE
  5
3E86
330
1D9
100
AcDbEntity
  8
0
100
AcDbLine
 10
1245.0
 20
800.0
 30
0.0
 11
1225.0
 21
794.6410161513778
 31
0.0
  0
LINE
  5
3E87
330
1D9
100
AcDbEntity
  8
0
100
AcDbLine
 10
1245.0
 20
800.0
 30
0.0
 11
1225.0
 21
805.3589838486221
 31
0.0
  0
LINE
  5
3E88
330
1D9
100
AcDbEntity
  8
0
100
AcDbLine
 10
1225.0
 20
800.0
 30
0.0
 11
1245.0
 21
800.0
 31
0.0
  0
TEXT
  5
3E89
330
1D9
100
AcDbEntity
  8
0
100
AcDbText
 10
680.0
 20
1960.955334987593
 30
0.0
 40
30.0
  1
1100
100
AcDbText
  0
LINE
  5
3E8A
330
1D9
100
AcDbEntity
  8
0
100
AcDbLine
 10
1491.0
 20
720.0
 30
0.0
 11
1511.0
 21
725.3589838486219
 31
0.0
  0
LINE
  5
3E8B
330
1D9
100
AcDbEntity
  8
0
100
AcDbLine
 10
1491.0
 20
720.0
 30
0.0
 11
1511.0
 21
714.6410161513777
 31
0.0
  0
LINE
  5
3E8C
330
1D9
100
AcDbEntity
  8
0
100
AcDbLine
 10
1511.0
 20
720.0
 30
0.0
 11
1491.0
 21
720.0
 31
0.0
  0
LINE
  5
3E8D
330
1D9
100
AcDbEntity
  8
0
100
AcDbLine
 10
1491.0
 20
800.0
 30
0.0
 11
1511.0
 21
805.3589838486221
 31
0.0
  0
LINE
  5
3E8E
330
1D9
100
AcDbEntity
  8
0
100
AcDbLine
 10
1491.0
 20
800.0
 30
0.0
 11
1511.0
 21
794.6410161513778
 31
0.0
  0
LINE
  5
3E8F
330
1D9
100
AcDbEntity
  8
0
100
AcDbLine
 10
1511.0
 20
800.0
 30
0.0
 11
1491.0
 21
800.0
 31
0.0
  0
LINE
  5
3E90
330
1D9
100
AcDbEntity
  8
0
100
AcDbLine
 10
1537.999999999999
 20
1945.955334987592
 30
0.0
 11
1557.999999999999
 21
1951.314318836215
 31
0.0
  0
LINE
  5
3E91
330
1D9
100
AcDbEntity
  8
0
100
AcDbLine
 10
1537.999999999999
 20
1945.955334987592
 30
0.0
 11
1557.999999999999
 21
1940.596351138971
 31
0.0
  0
LINE
  5
3E92
330
1D9
100
AcDbEntity
  8
0
100
AcDbLine
 10
1557.999999999999
 20
1945.955334987592
 30
0.0
 11
1537.999999999999
 21
1945.955334987592
 31
0.0
  0
TEXT
  5
3E93
330
1D9
100
AcDbEntity
  8
0
100
AcDbText
 10
687.5
 20
2040.955334987593
 30
0.0
 40
30.0
  1
1125
100
AcDbText
  0
LINE
  5
3E94
330
1D9
100
AcDbEntity
  8
0
100
AcDbLine
 10
1295.0
 20
2025.955334987592
 30
0.0
 11
1275.0
 21
2020.596351138971
 31
0.0
  0
LINE
  5
3E95
330
1D9
100
AcDbEntity
  8
0
100
AcDbLine
 10
1295.0
 20
2025.955334987592
 30
0.0
 11
1275.0
 21
2031.314318836214
 31
0.0
  0
LINE
  5
3E96
330
1D9
100
AcDbEntity
  8
0
100
AcDbLine
 10
1275.0
 20
2025.955334987592
 30
0.0
 11
1295.0
 21
2025.955334987592
 31
0.0
  0
LINE
  5
3E97
330
1D9
100
AcDbEntity
  8
0
100
AcDbLine
 10
1537.999999999999
 20
2025.955334987592
 30
0.0
 11
1557.999999999999
 21
2031.314318836214
 31
0.0
  0
LINE
  5
3E98
330
1D9
100
AcDbEntity
  8
0
100
AcDbLine
 10
1537.999999999999
 20
2025.955334987592
 30
0.0
 11
1557.999999999999
 21
2020.596351138971
 31
0.0
  0
LINE
  5
3E99
330
1D9
100
AcDbEntity
  8
0
100
AcDbLine
 10
1557.999999999999
 20
2025.955334987592
 30
0.0
 11
1537.999999999999
 21
2025.955334987592
 31
0.0
  0
TEXT
  5
3E9A
330
1D9
100
AcDbEntity
  8
0
100
AcDbText
 10
3298.5
 20
815.0
 30
0.0
 40
30.0
  1
1116
100
AcDbText
  0
TEXT
  5
3E9B
330
1D9
100
AcDbEntity
  8
0
100
AcDbText
 10
3293.5
 20
2040.955334987593
 30
0.0
 40
30.0
  1
1005
100
AcDbText
  0
TEXT
  5
3E9C
330
1D9
100
AcDbEntity
  8
0
100
AcDbText
 10
1988.0
 20
815.0
 30
0.0
 40
30.0
  1
1089
100
AcDbText
  0
LINE
  5
3E9D
330
1D9
100
AcDbEntity
  8
0
100
AcDbLine
 10
2491.0
 20
720.0
 30
0.0
 11
2471.0
 21
714.6410161513777
 31
0.0
  0
LINE
  5
3E9E
330
1D9
100
AcDbEntity
  8
0
100
AcDbLine
 10
2491.0
 20
720.0
 30
0.0
 11
2471.0
 21
725.3589838486219
 31
0.0
  0
LINE
  5
3E9F
330
1D9
100
AcDbEntity
  8
0
100
AcDbLine
 10
2471.0
 20
720.0
 30
0.0
 11
2491.0
 21
720.0
 31
0.0
  0
LINE
  5
3EA0
330
1D9
100
AcDbEntity
  8
0
100
AcDbLine
 10
2580.0
 20
800.0
 30
0.0
 11
2560.0
 21
794.6410161513778
 31
0.0
  0
LINE
  5
3EA1
330
1D9
100
AcDbEntity
  8
0
100
AcDbLine
 10
2580.0
 20
800.0
 30
0.0
 11
2560.0
 21
805.3589838486221
 31
0.0
  0
LINE
  5
3EA2
330
1D9
100
AcDbEntity
  8
0
100
AcDbLine
 10
2560.0
 20
800.0
 30
0.0
 11
2580.0
 21
800.0
 31
0.0
  0
TEXT
  5
3EA3
330
1D9
100
AcDbEntity
  8
0
100
AcDbText
 10
1975.5
 20
1960.955334987593
 30
0.0
 40
30.0
  1
950
100
AcDbText
  0
LINE
  5
3EA4
330
1D9
100
AcDbEntity
  8
0
100
AcDbLine
 10
2488.0
 20
1945.955334987592
 30
0.0
 11
2468.0
 21
1940.596351138971
 31
0.0
  0
LINE
  5
3EA5
330
1D9
100
AcDbEntity
  8
0
100
AcDbLine
 10
2488.0
 20
1945.955334987592
 30
0.0
 11
2468.0
 21
1951.314318836215
 31
0.0
  0
LINE
  5
3EA6
330
1D9
100
AcDbEntity
  8
0
100
AcDbLine
 10
2468.0
 20
1945.955334987592
 30
0.0
 11
2488.0
 21
1945.955334987592
 31
0.0
  0
LINE
  5
3EA7
330
1D9
100
AcDbEntity
  8
0
100
AcDbLine
 10
2780.499999999999
 20
720.0
 30
0.0
 11
2800.499999999999
 21
725.3589838486219
 31
0.0
  0
LINE
  5
3EA8
330
1D9
100
AcDbEntity
  8
0
100
AcDbLine
 10
2780.499999999999
 20
720.0
 30
0.0
 11
2800.499999999999
 21
714.6410161513777
 31
0.0
  0
LINE
  5
3EA9
330
1D9
100
AcDbEntity
  8
0
100
AcDbLine
 10
2800.499999999999
 20
720.0
 30
0.0
 11
2780.499999999999
 21
720.0
 31
0.0
  0
LINE
  5
3EAA
330
1D9
100
AcDbEntity
  8
0
100
AcDbLine
 10
2780.499999999999
 20
800.0
 30
0.0
 11
2800.499999999999
 21
805.3589838486221
 31
0.0
  0
LINE
  5
3EAB
330
1D9
100
AcDbEntity
  8
0
100
AcDbLine
 10
2780.499999999999
 20
800.0
 30
0.0
 11
2800.499999999999
 21
794.6410161513778
 31
0.0
  0
LINE
  5
3EAC
330
1D9
100
AcDbEntity
  8
0
100
AcDbLine
 10
2800.499999999999
 20
800.0
 30
0.0
 11
2780.499999999999
 21
800.0
 31
0.0
  0
TEXT
  5
3EAD
330
1D9
100
AcDbEntity
  8
0
100
AcDbText
 10
3238.0
 20
735.0
 30
0.0
 40
30.0
  1
1000
100
AcDbText
  0
LINE
  5
3EAE
330
1D9
100
AcDbEntity
  8
0
100
AcDbLine
 10
2836.0
 20
1945.955334987592
 30
0.0
 11
2856.0
 21
1951.314318836215
 31
0.0
  0
LINE
  5
3EAF
330
1D9
100
AcDbEntity
  8
0
100
AcDbLine
 10
2836.0
 20
1945.955334987592
 30
0.0
 11
2856.0
 21
1940.596351138971
 31
0.0
  0
LINE
  5
3EB0
330
1D9
100
AcDbEntity
  8
0
100
AcDbLine
 10
2856.0
 20
1945.955334987592
 30
0.0
 11
2836.0
 21
1945.955334987592
 31
0.0
  0
TEXT
  5
3EB1
330
1D9
100
AcDbEntity
  8
0
100
AcDbText
 10
3273.5
 20
1960.955334987593
 30
0.0
 40
30.0
  1
950
100
AcDbText
  0
TEXT
  5
3EB2
330
1D9
100
AcDbEntity
  8
0
100
AcDbText
 10
1995.5
 20
2040.955334987593
 30
0.0
 40
30.0
  1
995
100
AcDbText
  0
LINE
  5
3EB3
330
1D9
100
AcDbEntity
  8
0
100
AcDbLine
 10
2533.0
 20
2025.955334987592
 30
0.0
 11
2513.0
 21
2020.596351138971
 31
0.0
  0
LINE
  5
3EB4
330
1D9
100
AcDbEntity
  8
0
100
AcDbLine
 10
2533.0
 20
2025.955334987592
 30
0.0
 11
2513.0
 21
2031.314318836214
 31
0.0
  0
LINE
  5
3EB5
330
1D9
100
AcDbEntity
  8
0
100
AcDbLine
 10
2513.0
 20
2025.955334987592
 30
0.0
 11
2533.0
 21
2025.955334987592
 31
0.0
  0
LINE
  5
3EB6
330
1D9
100
AcDbEntity
  8
0
100
AcDbLine
 10
2836.0
 20
2025.955334987592
 30
0.0
 11
2856.0
 21
2031.314318836214
 31
0.0
  0
LINE
  5
3EB7
330
1D9
100
AcDbEntity
  8
0
100
AcDbLine
 10
2836.0
 20
2025.955334987592
 30
0.0
 11
2856.0
 21
2020.596351138971
 31
0.0
  0
LINE
  5
3EB8
330
1D9
100
AcDbEntity
  8
0
100
AcDbLine
 10
2856.0
 20
2025.955334987592
 30
0.0
 11
2836.0
 21
2025.955334987592
 31
0.0
  0
LINE
  5
3EB9
330
1D9
100
AcDbEntity
  8
0
100
AcDbLine
 10
3780.499999999998
 20
720.0
 30
0.0
 11
3760.5
 21
714.6410161513777
 31
0.0
  0
LINE
  5
3EBA
330
1D9
100
AcDbEntity
  8
0
100
AcDbLine
 10
3780.499999999998
 20
720.0
 30
0.0
 11
3760.5
 21
725.3589838486219
 31
0.0
  0
LINE
  5
3EBB
330
1D9
100
AcDbEntity
  8
0
100
AcDbLine
 10
3760.5
 20
720.0
 30
0.0
 11
3780.499999999998
 21
720.0
 31
0.0
  0
LINE
  5
3EBC
330
1D9
100
AcDbEntity
  8
0
100
AcDbLine
 10
3786.0
 20
1945.955334987592
 30
0.0
 11
3766.0
 21
1940.596351138971
 31
0.0
  0
LINE
  5
3EBD
330
1D9
100
AcDbEntity
  8
0
100
AcDbLine
 10
3786.0
 20
1945.955334987592
 30
0.0
 11
3766.0
 21
1951.314318836215
 31
0.0
  0
LINE
  5
3EBE
330
1D9
100
AcDbEntity
  8
0
100
AcDbLine
 10
3766.0
 20
1945.955334987592
 30
0.0
 11
3786.0
 21
1945.955334987592
 31
0.0
  0
LINE
  5
3EBF
330
1D9
100
AcDbEntity
  8
0
100
AcDbLine
 10
3841.0
 20
2025.955334987592
 30
0.0
 11
3821.0
 21
2020.596351138971
 31
0.0
  0
LINE
  5
3EC0
330
1D9
100
AcDbEntity
  8
0
100
AcDbLine
 10
3841.0
 20
2025.955334987592
 30
0.0
 11
3821.0
 21
2031.314318836214
 31
0.0
  0
LINE
  5
3EC1
330
1D9
100
AcDbEntity
  8
0
100
AcDbLine
 10
3821.0
 20
2025.955334987592
 30
0.0
 11
3841.0
 21
2025.955334987592
 31
0.0
  0
LINE
  5
3EC2
330
1D9
100
AcDbEntity
  8
0
100
AcDbLine
 10
3896.5
 20
800.0
 30
0.0
 11
3876.5
 21
794.6410161513778
 31
0.0
  0
LINE
  5
3EC3
330
1D9
100
AcDbEntity
  8
0
100
AcDbLine
 10
3896.5
 20
800.0
 30
0.0
 11
3876.5
 21
805.3589838486221
 31
0.0
  0
LINE
  5
3EC4
330
1D9
100
AcDbEntity
  8
0
100
AcDbLine
 10
3876.5
 20
800.0
 30
0.0
 11
3896.5
 21
800.0
 31
0.0
  0
ENDSEC
  0
SECTION
  2
OBJECTS
  0
DICTIONARY
  5
1CD
330
0
100
AcDbDictionary
  3
ACAD_GROUP
350
1CE
  3
ACAD_LAYOUT
350
2DE
  3
ACAD_MLINESTYLE
350
1CF
  3
ACAD_PLOTSETTINGS
350
2DF
1001
ACAD
1000
TREAT_AS_HARD
1070
     0
1000
TREAT_AS_HARD
1070
     0
  0
DICTIONARY
  5
2738
330
1C3
100
AcDbDictionary
  3
ACAD_LAYERSTATES
350
2739
1001
ACAD
1000
TREAT_AS_HARD
1070
     1
1000
TREAT_AS_HARD
1070
     0
  0
DICTIONARY
  5
3ECB
330
1D9
100
AcDbDictionary
  3
ACAD_LAYOUTSELFREF
350
3F01
1001
ACAD
1000
TREAT_AS_HARD
1070
     0
  0
DICTIONARY
  5
3EC9
330
1D6
100
AcDbDictionary
  3
ACAD_LAYOUTSELFREF
350
3F00
1001
ACAD
1000
TREAT_AS_HARD
1070
     0
  0
DICTIONARY
  5
1CE
102
{ACAD_REACTORS
330
1CD
102
}
330
1CD
100
AcDbDictionary
1001
ACAD
1000
TREAT_AS_HARD
1070
     0
1000
TREAT_AS_HARD
1070
     0
  0
DICTIONARY
  5
2DE
102
{ACAD_REACTORS
330
1CD
102
}
330
1CD
100
AcDbDictionary
1001
ACAD
1000
TREAT_AS_HARD
1070
     0
1000
TREAT_AS_HARD
1070
     0
  0
DICTIONARY
  5
1CF
102
{ACAD_REACTORS
330
1CD
102
}
330
1CD
100
AcDbDictionary
  3
STANDARD
350
1DC
1001
ACAD
1000
TREAT_AS_HARD
1070
     0
1000
TREAT_AS_HARD
1070
     0
  0
DICTIONARY
  5
2DF
102
{ACAD_REACTORS
330
1CD
102
}
330
1CD
100
AcDbDictionary
1001
ACAD
1000
TREAT_AS_HARD
1070
     0
1000
TREAT_AS_HARD
1070
     0
  0
DICTIONARY
  5
2739
102
{ACAD_REACTORS
330
2738
102
}
330
2738
100
AcDbDictionary
1001
ACAD
1000
TREAT_AS_HARD
1070
     0
1000
TREAT_AS_HARD
1070
     0
  0
XRECORD
  5
3F01
102
{ACAD_REACTORS
330
3ECB
102
}
330
3ECB
100
AcDbXrecord
340
1D9
  0
XRECORD
  5
3F00
102
{ACAD_REACTORS
330
3EC9
102
}
330
3EC9
100
AcDbXrecord
340
1D6
  0
MLINESTYLE
  5
1DC
102
{ACAD_REACTORS
330
1CF
102
}
330
1CF
100
AcDbMlineStyle
  2
STANDARD
 70
     0
  3

 62
     0
 51
90.0
 52
90.0
 71
     2
 49
0.5
 62
   256
  6
BYLAYER
 49
-0.5
 62
   256
  6
BYLAYER
  0
ENDSEC
  0
EOF
