  0
SECTION
  2
HEADER
  9
$ACADVER
  1
AC1012
  9
$DWGCODEPAGE
  3
dos932
  9
$INSBASE
 10
0.0
 20
0.0
 30
0.0
  9
$EXTMIN
 10
30.0
 20
0.0
 30
0.0
  9
$EXTMAX
 10
3990.607053980438
 20
2840.0
 30
0.0
  9
$LIMMIN
 10
0.0
 20
0.0
  9
$LIMMAX
 10
4200.0
 20
2970.0
  9
$ORTHOMODE
 70
     0
  9
$REGENMODE
 70
     1
  9
$FILLMODE
 70
     1
  9
$QTEXTMODE
 70
     0
  9
$MIRRTEXT
 70
     0
  9
$DRAGMODE
 70
     2
  9
$LTSCALE
 40
80.0
  9
$OSMODE
 70
    37
  9
$ATTMODE
 70
     1
  9
$TEXTSIZE
 40
30.0
  9
$TRACEWID
 40
0.05
  9
$TEXTSTYLE
  7
STANDARD
  9
$CLAYER
  8
0
  9
$CELTYPE
  6
BYLAYER
  9
$CECOLOR
 62
   256
  9
$CELTSCALE
 40
1.0
  9
$DELOBJ
 70
     1
  9
$DISPSILH
 70
     0
  9
$DIMSCALE
 40
10.0
  9
$DIMASZ
 40
2.0
  9
$DIMEXO
 40
0.1
  9
$DIMDLI
 40
7.0
  9
$DIMRND
 40
0.0
  9
$DIMDLE
 40
0.0
  9
$DIMEXE
 40
1.8
  9
$DIMTP
 40
0.0
  9
$DIMTM
 40
0.0
  9
$DIMTXT
 40
3.0
  9
$DIMCEN
 40
0.1
  9
$DIMTSZ
 40
0.0
  9
$DIMTOL
 70
     0
  9
$DIMLIM
 70
     0
  9
$DIMTIH
 70
     0
  9
$DIMTOH
 70
     0
  9
$DIMSE1
 70
     0
  9
$DIMSE2
 70
     0
  9
$DIMTAD
 70
     0
  9
$DIMZIN
 70
     9
  9
$DIMBLK
  1
YAZ1
  9
$DIMASO
 70
     1
  9
$DIMSHO
 70
     1
  9
$DIMPOST
  1

  9
$DIMAPOST
  1

  9
$DIMALT
 70
     0
  9
$DIMALTD
 70
     2
  9
$DIMALTF
 40
25.4
  9
$DIMLFAC
 40
1.0
  9
$DIMTOFL
 70
     1
  9
$DIMTVP
 40
1.0
  9
$DIMTIX
 70
     0
  9
$DIMSOXD
 70
     0
  9
$DIMSAH
 70
     1
  9
$DIMBLK1
  1
YAZ1
  9
$DIMBLK2
  1
YAZ1
  9
$DIMSTYLE
  2
YAZ1
  9
$DIMCLRD
 70
   256
  9
$DIMCLRE
 70
   256
  9
$DIMCLRT
 70
   256
  9
$DIMTFAC
 40
1.0
  9
$DIMGAP
 40
0.0
  9
$DIMJUST
 70
     0
  9
$DIMSD1
 70
     0
  9
$DIMSD2
 70
     0
  9
$DIMTOLJ
 70
     1
  9
$DIMTZIN
 70
     9
  9
$DIMALTZ
 70
     9
  9
$DIMALTTZ
 70
     9
  9
$DIMFIT
 70
     3
  9
$DIMUPT
 70
     0
  9
$DIMUNIT
 70
     2
  9
$DIMDEC
 70
     3
  9
$DIMTDEC
 70
     3
  9
$DIMALTU
 70
     2
  9
$DIMALTTD
 70
     2
  9
$DIMTXSTY
  7
STANDARD
  9
$DIMAUNIT
 70
     0
  9
$LUNITS
 70
     2
  9
$LUPREC
 70
     3
  9
$SKETCHINC
 40
0.1
  9
$FILLETRAD
 40
0.0
  9
$AUNITS
 70
     0
  9
$AUPREC
 70
     2
  9
$MENU
  1
amecex
  9
$ELEVATION
 40
0.0
  9
$PELEVATION
 40
0.0
  9
$THICKNESS
 40
0.0
  9
$LIMCHECK
 70
     0
  9
$BLIPMODE
 70
     0
  9
$CHAMFERA
 40
0.0
  9
$CHAMFERB
 40
0.0
  9
$CHAMFERC
 40
0.0
  9
$CHAMFERD
 40
0.0
  9
$SKPOLY
 70
     0
  9
$TDCREATE
 40
2452593.633064710
  9
$TDUPDATE
 40
2456045.483707071
  9
$TDINDWG
 40
0.5901446412
  9
$TDUSRTIMER
 40
0.5901445255
  9
$USRTIMER
 70
     1
  9
$ANGBASE
 50
0.0
  9
$ANGDIR
 70
     0
  9
$PDMODE
 70
     0
  9
$PDSIZE
 40
0.0
  9
$PLINEWID
 40
0.0
  9
$COORDS
 70
     0
  9
$SPLFRAME
 70
     0
  9
$SPLINETYPE
 70
     6
  9
$SPLINESEGS
 70
     8
  9
$ATTDIA
 70
     0
  9
$ATTREQ
 70
     1
  9
$HANDLING
 70
-16383
  9
$HANDSEED
  5
4E07
  9
$SURFTAB1
 70
     6
  9
$SURFTAB2
 70
     6
  9
$SURFTYPE
 70
     6
  9
$SURFU
 70
     6
  9
$SURFV
 70
     6
  9
$UCSNAME
  2

  9
$UCSORG
 10
0.0
 20
0.0
 30
0.0
  9
$UCSXDIR
 10
1.0
 20
0.0
 30
0.0
  9
$UCSYDIR
 10
0.0
 20
1.0
 30
0.0
  9
$PUCSNAME
  2

  9
$PUCSORG
 10
0.0
 20
0.0
 30
0.0
  9
$PUCSXDIR
 10
1.0
 20
0.0
 30
0.0
  9
$PUCSYDIR
 10
0.0
 20
1.0
 30
0.0
  9
$USERI1
 70
     0
  9
$USERI2
 70
     0
  9
$USERI3
 70
     0
  9
$USERI4
 70
     0
  9
$USERI5
 70
     0
  9
$USERR1
 40
30.0
  9
$USERR2
 40
0.0
  9
$USERR3
 40
0.0
  9
$USERR4
 40
0.0
  9
$USERR5
 40
0.0
  9
$WORLDVIEW
 70
     1
  9
$SHADEDGE
 70
     3
  9
$SHADEDIF
 70
    70
  9
$TILEMODE
 70
     1
  9
$MAXACTVP
 70
    16
  9
$PINSBASE
 10
0.0
 20
0.0
 30
0.0
  9
$PLIMCHECK
 70
     0
  9
$PEXTMIN
 10
1.000000000000000E+20
 20
1.000000000000000E+20
 30
1.000000000000000E+20
  9
$PEXTMAX
 10
-1.000000000000000E+20
 20
-1.000000000000000E+20
 30
-1.000000000000000E+20
  9
$PLIMMIN
 10
0.0
 20
0.0
  9
$PLIMMAX
 10
12.0
 20
9.0
  9
$UNITMODE
 70
     0
  9
$VISRETAIN
 70
     0
  9
$PLINEGEN
 70
     0
  9
$PSLTSCALE
 70
     0
  9
$TREEDEPTH
 70
  3020
  9
$PICKSTYLE
 70
     1
  9
$CMLSTYLE
  2
STANDARD
  9
$CMLJUST
 70
     0
  9
$CMLSCALE
 40
1.0
  9
$SAVEIMAGES
 70
     1
  0
ENDSEC
  0
SECTION
  2
CLASSES
  0
CLASS
  1
ACDBDICTIONARYWDFLT
  2
AcDbDictionaryWithDefault
  3
AutoCAD 2000
 90
    32768
280
     0
281
     0
  0
CLASS
  1
ACDBPLACEHOLDER
  2
AcDbPlaceHolder
  3
AutoCAD 2000
 90
    32768
280
     0
281
     0
  0
CLASS
  1
LAYOUT
  2
AcDbLayout
  3
AutoCAD 2000
 90
    32768
280
     0
281
     0
  0
CLASS
  1
DICTIONARYVAR
  2
AcDbDictionaryVar
  3
AutoCAD 2000
 90
    32768
280
     0
281
     0
  0
CLASS
  1
LONG_TRANSACTION
  2
AcDbLongTransaction
  3
AutoCAD 2000
 90
    32768
280
     0
281
     0
  0
CLASS
  1
LWPOLYLINE
  2
AcDbPolyline
  3
AutoCAD 2000
 90
    32768
280
     0
281
     1
  0
CLASS
  1
HATCH
  2
AcDbHatch
  3
AutoCAD 2000
 90
    32768
280
     0
281
     1
  0
CLASS
  1
XRECORD
  2
AcDbXrecord
  3
AutoCAD 2000
 90
    32768
280
     0
281
     0
  0
CLASS
  1
LONG_TRANSACTION
  2
AcDbLongTransaction
  3
AutoCAD 2000
 90
    32768
280
     0
281
     0
  0
CLASS
  1
LWPOLYLINE
  2
AcDbPolyline
  3
AutoCAD 2000
 90
    32768
280
     0
281
     1
  0
CLASS
  1
HATCH
  2
AcDbHatch
  3
AutoCAD 2000
 90
    32768
280
     0
281
     1
  0
CLASS
  1
XRECORD
  2
AcDbXrecord
  3
AutoCAD 2000
 90
    32768
280
     0
281
     0
  0
ENDSEC
  0
SECTION
  2
TABLES
  0
TABLE
  2
VPORT
  5
1C9
330
0
100
AcDbSymbolTable
 70
     2
  0
VPORT
  5
4E04
330
1C9
100
AcDbSymbolTableRecord
100
AcDbViewportTableRecord
  2
*ACTIVE
 70
     0
 10
0.0
 20
0.0
 11
1.0
 21
1.0
 12
4367.562102810317
 22
1818.086211076032
 13
0.0
 23
0.0
 14
1.0
 24
1.0
 15
0.0
 25
0.0
 16
0.0
 26
0.0
 36
1.0
 17
0.0
 27
0.0
 37
0.0
 40
6849.939183831509
 41
1.821090047393364
 42
50.0
 43
0.0
 44
0.0
 50
0.0
 51
0.0
 71
     0
 72
   100
 73
     1
 74
     1
 75
     0
 76
     0
 77
     0
 78
     0
  0
ENDTAB
  0
TABLE
  2
LTYPE
  5
1C6
330
0
100
AcDbSymbolTable
 70
     2
  0
LTYPE
  5
1D3
330
1C6
100
AcDbSymbolTableRecord
100
AcDbLinetypeTableRecord
  2
BYBLOCK
 70
     0
  3

 72
    65
 73
     0
 40
0.0
  0
LTYPE
  5
1D4
330
1C6
100
AcDbSymbolTableRecord
100
AcDbLinetypeTableRecord
  2
BYLAYER
 70
     0
  3

 72
    65
 73
     0
 40
0.0
  0
LTYPE
  5
1D5
330
1C6
100
AcDbSymbolTableRecord
100
AcDbLinetypeTableRecord
  2
CONTINUOUS
 70
     0
  3
実線
 72
    65
 73
     0
 40
0.0
  0
ENDTAB
  0
TABLE
  2
LAYER
  5
1C3
102
{ACAD_XDICTIONARY
360
2738
102
}
330
0
100
AcDbSymbolTable
 70
     5
  0
LAYER
  5
1D0
330
1C3
100
AcDbSymbolTableRecord
100
AcDbLayerTableRecord
  2
0
 70
     0
 62
     7
  6
CONTINUOUS
  0
ENDTAB
  0
TABLE
  2
STYLE
  5
1C4
330
0
100
AcDbSymbolTable
 70
     1
  0
STYLE
  5
1D1
330
1C4
100
AcDbSymbolTableRecord
100
AcDbTextStyleTableRecord
  2
STANDARD
 70
     0
 40
0.0
 41
1.0
 50
0.0
 71
     0
 42
30.0
  3
TXT
  4
BIGFONT
  0
ENDTAB
  0
TABLE
  2
VIEW
  5
1C7
330
0
100
AcDbSymbolTable
 70
     0
  0
ENDTAB
  0
TABLE
  2
UCS
  5
1C8
330
0
100
AcDbSymbolTable
 70
     0
  0
ENDTAB
  0
TABLE
  2
APPID
  5
1CA
330
0
100
AcDbSymbolTable
 70
     2
  0
APPID
  5
1D2
330
1CA
100
AcDbSymbolTableRecord
100
AcDbRegAppTableRecord
  2
ACAD
 70
     0
  0
APPID
  5
286
330
1CA
100
AcDbSymbolTableRecord
100
AcDbRegAppTableRecord
  2
ACE-LT__COPYRIGHT_TRIALSOFT-JPN
 70
     0
  0
ENDTAB
  0
TABLE
  2
DIMSTYLE
  5
1CB
330
0
100
AcDbSymbolTable
 70
     1
  0
DIMSTYLE
105
1F1
330
1CB
100
AcDbSymbolTableRecord
100
AcDbDimStyleTableRecord
  2
YAZ1
 70
     0
  3

  4

  5
YAZ1
  6
YAZ1
  7
YAZ1
 40
10.0
 41
2.0
 42
0.1
 43
7.0
 44
1.8
 45
0.0
 46
0.0
 47
0.0
 48
0.0
140
3.0
141
0.1
142
0.0
143
25.4
144
1.0
145
1.0
146
1.0
147
0.0
 71
     0
 72
     0
 73
     0
 74
     0
 75
     0
 76
     0
 77
     0
 78
     9
170
     0
171
     2
172
     1
173
     1
174
     0
175
     0
176
   256
177
   256
178
   256
270
     2
271
     3
272
     3
273
     2
274
     2
340
1D1
275
     0
280
     0
281
     0
282
     0
283
     1
284
     9
285
     9
286
     9
287
     3
288
     0
  0
ENDTAB
  0
TABLE
  2
BLOCK_RECORD
  5
1C2
330
0
100
AcDbSymbolTable
 70
     1
  0
BLOCK_RECORD
  5
1D9
102
{ACAD_XDICTIONARY
360
4DD0
102
}
330
1C2
100
AcDbSymbolTableRecord
100
AcDbBlockTableRecord
  2
*MODEL_SPACE
  0
BLOCK_RECORD
  5
1D6
102
{ACAD_XDICTIONARY
360
4DCE
102
}
330
1C2
100
AcDbSymbolTableRecord
100
AcDbBlockTableRecord
  2
*PAPER_SPACE
  0
BLOCK_RECORD
  5
254
330
1C2
100
AcDbSymbolTableRecord
100
AcDbBlockTableRecord
  2
YAZ1
  0
ENDTAB
  0
ENDSEC
  0
SECTION
  2
BLOCKS
  0
BLOCK
  5
20A
330
1D9
100
AcDbEntity
  8
0
100
AcDbBlockBegin
  2
*MODEL_SPACE
 70
     0
 10
0.0
 20
0.0
 30
0.0
  3
*MODEL_SPACE
  1

  0
ENDBLK
  5
20B
330
1D9
100
AcDbEntity
  8
0
100
AcDbBlockEnd
  0
BLOCK
  5
208
330
1D6
100
AcDbEntity
 67
     1
  8
0
100
AcDbBlockBegin
  2
*PAPER_SPACE
 70
     0
 10
0.0
 20
0.0
 30
0.0
  3
*PAPER_SPACE
  1

  0
ENDBLK
  5
209
330
1D6
100
AcDbEntity
 67
     1
  8
0
100
AcDbBlockEnd
  0
BLOCK
  5
258
330
254
100
AcDbEntity
  8
0
100
AcDbBlockBegin
  2
YAZ1
 70
     0
 10
0.0
 20
0.0
 30
0.0
  3
YAZ1
  1

  0
LINE
  5
255
330
254
100
AcDbEntity
  8
0
100
AcDbLine
 10
0.0
 20
0.0
 30
0.0
 11
-1.0
 21
-0.2679491924311037
 31
0.0
  0
LINE
  5
256
330
254
100
AcDbEntity
  8
0
100
AcDbLine
 10
0.0
 20
0.0
 30
0.0
 11
-1.0
 21
0.2679491924311037
 31
0.0
  0
LINE
  5
257
330
254
100
AcDbEntity
  8
0
100
AcDbLine
 10
-1.0
 20
0.0
 30
0.0
 11
0.0
 21
0.0
 31
0.0
  0
ENDBLK
  5
259
330
254
100
AcDbEntity
  8
0
100
AcDbBlockEnd
  0
ENDSEC
  0
SECTION
  2
ENTITIES
  0
LINE
  5
3591
330
1D9
100
AcDbEntity
  8
0
100
AcDbLine
 10
80.0
 20
2450.0
 30
0.0
 11
3990.0
 21
2450.0
 31
0.0
  0
LINE
  5
3592
330
1D9
100
AcDbEntity
  8
0
100
AcDbLine
 10
3990.607053980438
 20
1225.955334987593
 30
0.0
 11
80.60705398043863
 21
1225.955334987593
 31
0.0
  0
LINE
  5
359E
330
1D9
100
AcDbEntity
  8
0
100
AcDbLine
 10
3990.0
 20
0.0
 30
0.0
 11
80.0
 21
0.0
 31
0.0
  0
LINE
  5
359F
330
1D9
100
AcDbEntity
  8
0
100
AcDbLine
 10
80.0
 20
2840.0
 30
0.0
 11
3990.0
 21
2840.0
 31
0.0
  0
LINE
  5
35A1
330
1D9
100
AcDbEntity
  8
0
100
AcDbLine
 10
80.0
 20
0.0
 30
0.0
 11
80.0
 21
2840.0
 31
0.0
  0
LINE
  5
372B
330
1D9
100
AcDbEntity
  8
0
100
AcDbLine
 10
3990.0
 20
2840.0
 30
0.0
 11
3990.0
 21
0.0
 31
0.0
  0
TEXT
  5
3BAA
330
1D9
100
AcDbEntity
  8
0
100
AcDbText
 10
195.1116189770246
 20
2608.88260459352
 30
0.0
 40
67.91563275434242
  1
フレキベンダー給水用 〔偏芯量：100mm　JIS 10kフランジ〕
100
AcDbText
  0
TEXT
  5
3BAD
330
1D9
100
AcDbEntity
  8
0
100
AcDbText
 10
2859.582929673814
 20
2619.829270159938
 30
0.0
 40
48.51116625310172
  1
内面塗装：エポキシ樹脂粉体塗装
100
AcDbText
  0
TEXT
  5
3BAE
330
1D9
100
AcDbEntity
  8
0
100
AcDbText
 10
2859.582929673814
 20
2512.619782322264
 30
0.0
 40
48.51116625310172
  1
接合方式：フランジ接合
100
AcDbText
  0
TEXT
  5
3BAF
330
1D9
100
AcDbEntity
  8
0
100
AcDbText
 10
2859.582929673814
 20
2727.993337267484
 30
0.0
 40
48.51116625310172
  1
材質：FCD450
100
AcDbText
  0
LINE
  5
3BC3
330
1D9
100
AcDbEntity
  8
0
100
AcDbLine
 10
1384.0
 20
1225.955334987593
 30
0.0
 11
1384.0
 21
0.0
 31
0.0
  0
LINE
  5
3BC4
330
1D9
100
AcDbEntity
  8
0
100
AcDbLine
 10
2687.0
 20
1225.955334987593
 30
0.0
 11
2687.0
 21
0.0
 31
0.0
  0
LINE
  5
3BC5
330
1D9
100
AcDbEntity
  8
0
100
AcDbLine
 10
1058.0
 20
2450.0
 30
0.0
 11
1058.0
 21
1225.955334987593
 31
0.0
  0
LINE
  5
3BC6
330
1D9
100
AcDbEntity
  8
0
100
AcDbLine
 10
2036.0
 20
2450.0
 30
0.0
 11
2036.0
 21
1225.955334987593
 31
0.0
  0
LINE
  5
3BC7
330
1D9
100
AcDbEntity
  8
0
100
AcDbLine
 10
3014.0
 20
2450.0
 30
0.0
 11
3014.0
 21
1225.955334987593
 31
0.0
  0
TEXT
  5
3BCE
330
1D9
100
AcDbEntity
  8
0
100
AcDbText
 10
225.0776831543989
 20
2164.318667198811
 30
0.0
 40
48.51116625310172
  1
品番：NFB50A-100FF
100
AcDbText
  0
TEXT
  5
3BCF
330
1D9
100
AcDbEntity
  8
0
100
AcDbText
 10
383.3639785155446
 20
2236.991365005521
 30
0.0
 40
48.51116625310172
  1
呼び径：50A
100
AcDbText
  0
TEXT
  5
3C60
330
1D9
100
AcDbEntity
  8
0
100
AcDbText
 10
1203.077683154399
 20
2164.318667198811
 30
0.0
 40
48.51116625310172
  1
品番：NFB65A-100FF
100
AcDbText
  0
TEXT
  5
3C61
330
1D9
100
AcDbEntity
  8
0
100
AcDbText
 10
1361.363978515544
 20
2236.991365005521
 30
0.0
 40
48.51116625310172
  1
呼び径：65A
100
AcDbText
  0
TEXT
  5
3C63
330
1D9
100
AcDbEntity
  8
0
100
AcDbText
 10
2181.077683154398
 20
2164.318667198811
 30
0.0
 40
48.51116625310172
  1
品番：NFB80A-100FF
100
AcDbText
  0
TEXT
  5
3C64
330
1D9
100
AcDbEntity
  8
0
100
AcDbText
 10
2339.363978515544
 20
2236.991365005521
 30
0.0
 40
48.51116625310172
  1
呼び径：80A
100
AcDbText
  0
TEXT
  5
3C66
330
1D9
100
AcDbEntity
  8
0
100
AcDbText
 10
3159.077683154399
 20
2164.318667198811
 30
0.0
 40
48.51116625310172
  1
品番：NFB100A-100FF
100
AcDbText
  0
TEXT
  5
3C67
330
1D9
100
AcDbEntity
  8
0
100
AcDbText
 10
3317.363978515543
 20
2236.991365005521
 30
0.0
 40
48.51116625310172
  1
呼び径：100A
100
AcDbText
  0
TEXT
  5
3C69
330
1D9
100
AcDbEntity
  8
0
100
AcDbText
 10
372.3363820475824
 20
940.2740021864046
 30
0.0
 40
48.51116625310172
  1
品番：NFB125A-100FF
100
AcDbText
  0
TEXT
  5
3C6A
330
1D9
100
AcDbEntity
  8
0
100
AcDbText
 10
530.6226774087281
 20
1012.946699993115
 30
0.0
 40
48.51116625310172
  1
呼び径：125A
100
AcDbText
  0
TEXT
  5
3C6C
330
1D9
100
AcDbEntity
  8
0
100
AcDbText
 10
1833.622677408728
 20
1012.946699993115
 30
0.0
 40
48.51116625310172
  1
呼び径：150A
100
AcDbText
  0
TEXT
  5
3C6D
330
1D9
100
AcDbEntity
  8
0
100
AcDbText
 10
1675.336382047581
 20
940.2740021864046
 30
0.0
 40
48.51116625310172
  1
品番：NFB150A-100FF
100
AcDbText
  0
TEXT
  5
3C70
330
1D9
100
AcDbEntity
  8
0
100
AcDbText
 10
2978.336382047582
 20
940.2740021864046
 30
0.0
 40
48.51116625310172
  1
品番：NFB200A-100FF
100
AcDbText
  0
TEXT
  5
3C71
330
1D9
100
AcDbEntity
  8
0
100
AcDbText
 10
3136.622677408728
 20
1012.946699993115
 30
0.0
 40
48.51116625310172
  1
呼び径：200A
100
AcDbText
  0
ARC
  5
443D
330
1D9
100
AcDbEntity
  8
0
100
AcDbCircle
 10
1132.499999999998
 20
485.2601556114414
 30
0.0
 40
10.0
100
AcDbArc
 50
280.8855270546861
 51
0.0
  0
ARC
  5
443F
330
1D9
100
AcDbEntity
  8
0
100
AcDbCircle
 10
1132.499999999998
 20
314.7398443885577
 30
0.0
 40
10.0
100
AcDbArc
 50
0.0
 51
79.1144729453137
  0
LINE
  5
4441
330
1D9
100
AcDbEntity
  8
0
100
AcDbLine
 10
292.499999999999
 20
400.0
 30
0.0
 11
1172.499999999998
 21
400.0
 31
0.0
  0
LINE
  5
4444
330
1D9
100
AcDbEntity
  8
0
100
AcDbLine
 10
1600.499999999995
 20
400.0
 30
0.0
 11
2470.500000000003
 21
400.0
 31
0.0
  0
LINE
  5
4445
330
1D9
100
AcDbEntity
  8
0
100
AcDbLine
 10
2873.499999999998
 20
400.0
 30
0.0
 11
3803.499999999999
 21
400.0
 31
0.0
  0
ARC
  5
4446
330
1D9
100
AcDbEntity
  8
0
100
AcDbCircle
 10
3735.011287496548
 20
525.5856040063718
 30
0.0
 40
15.0
100
AcDbArc
 50
228.4160785886848
 51
279.7824070318204
  0
ARC
  5
4447
330
1D9
100
AcDbEntity
  8
0
100
AcDbCircle
 10
3735.011287496548
 20
274.2770104498466
 30
0.0
 40
15.0
100
AcDbArc
 50
80.21759296817943
 51
131.583921411315
  0
LINE
  5
444C
330
1D9
100
AcDbEntity
  8
0
100
AcDbLine
 10
2158.159347925527
 20
297.6037594610188
 30
0.0
 11
2158.159347925527
 21
400.0037594610184
 31
0.0
  0
LINE
  5
444D
330
1D9
100
AcDbEntity
  8
0
100
AcDbLine
 10
2118.159347925526
 20
297.6037594610188
 30
0.0
 11
2118.159347925526
 21
400.0037594610184
 31
0.0
  0
LINE
  5
444E
330
1D9
100
AcDbEntity
  8
0
100
AcDbLine
 10
2300.499999999995
 20
244.0100923597541
 30
0.0
 11
2300.499999999995
 21
400.0
 31
0.0
  0
LINE
  5
444F
330
1D9
100
AcDbEntity
  8
0
100
AcDbLine
 10
1770.500000000003
 20
244.0100923597541
 30
0.0
 11
1770.500000000003
 21
400.0
 31
0.0
  0
LINE
  5
4450
330
1D9
100
AcDbEntity
  8
0
100
AcDbLine
 10
2201.901700196616
 20
400.0
 30
0.0
 11
2201.901700196616
 21
311.5017756156898
 31
0.0
  0
LINE
  5
4451
330
1D9
100
AcDbEntity
  8
0
100
AcDbLine
 10
2208.191620196616
 20
289.9264000000006
 30
0.0
 11
2208.191620196616
 21
400.0
 31
0.0
  0
LINE
  5
4452
330
1D9
100
AcDbEntity
  8
0
100
AcDbLine
 10
2227.061380196615
 20
261.62176
 30
0.0
 11
2227.061380196615
 21
400.0
 31
0.0
  0
LINE
  5
4453
330
1D9
100
AcDbEntity
  8
0
100
AcDbLine
 10
1843.938619803387
 20
261.62176
 30
0.0
 11
1843.938619803387
 21
400.0
 31
0.0
  0
LINE
  5
4454
330
1D9
100
AcDbEntity
  8
0
100
AcDbLine
 10
1862.808379803386
 20
289.9264000000006
 30
0.0
 11
1862.808379803386
 21
400.0
 31
0.0
  0
LINE
  5
4455
330
1D9
100
AcDbEntity
  8
0
100
AcDbLine
 10
1869.098299803385
 20
400.0
 30
0.0
 11
1869.098299803385
 21
311.5017756156898
 31
0.0
  0
LINE
  5
4456
330
1D9
100
AcDbEntity
  8
0
100
AcDbLine
 10
1990.499999999996
 20
400.0
 30
0.0
 11
1990.499999999996
 21
301.7583468058177
 31
0.0
  0
LINE
  5
4457
330
1D9
100
AcDbEntity
  8
0
100
AcDbLine
 10
2041.500000000004
 20
400.0
 30
0.0
 11
2041.500000000004
 21
301.5876527719256
 31
0.0
  0
LINE
  5
4458
330
1D9
100
AcDbEntity
  8
0
100
AcDbLine
 10
1999.499999999996
 20
400.0
 30
0.0
 11
1999.499999999996
 21
298.4416531941815
 31
0.0
  0
LINE
  5
4459
330
1D9
100
AcDbEntity
  8
0
100
AcDbLine
 10
2034.299999999997
 20
400.0
 30
0.0
 11
2034.299999999997
 21
298.6123472280737
 31
0.0
  0
LINE
  5
445A
330
1D9
100
AcDbEntity
  8
0
100
AcDbLine
 10
1890.499999999996
 20
400.0
 30
0.0
 11
1890.499999999996
 21
302.9474020191078
 31
0.0
  0
LINE
  5
445B
330
1D9
100
AcDbEntity
  8
0
100
AcDbLine
 10
1872.499999999996
 20
400.0
 30
0.0
 11
1872.499999999996
 21
314.3701306411876
 31
0.0
  0
LINE
  5
445C
330
1D9
100
AcDbEntity
  8
0
100
AcDbLine
 10
2230.499999999996
 20
400.0
 30
0.0
 11
2230.499999999996
 21
263.0
 31
0.0
  0
LINE
  5
445D
330
1D9
100
AcDbEntity
  8
0
100
AcDbLine
 10
2450.500000000003
 20
294.0
 30
0.0
 11
2450.500000000003
 21
400.0
 31
0.0
  0
LINE
  5
445E
330
1D9
100
AcDbEntity
  8
0
100
AcDbLine
 10
2392.612702707066
 20
400.0
 30
0.0
 11
2392.612702707066
 21
313.3520570354594
 31
0.0
  0
LINE
  5
445F
330
1D9
100
AcDbEntity
  8
0
100
AcDbLine
 10
2323.500000000004
 20
271.5000000000003
 30
0.0
 11
2323.500000000004
 21
400.0
 31
0.0
  0
LINE
  5
4460
330
1D9
100
AcDbEntity
  8
0
100
AcDbLine
 10
2447.500000000005
 20
260.0000000000004
 30
0.0
 11
2447.500000000005
 21
400.0
 31
0.0
  0
LINE
  5
4461
330
1D9
100
AcDbEntity
  8
0
100
AcDbLine
 10
2428.499999999996
 20
260.0000000000004
 30
0.0
 11
2428.499999999996
 21
400.0
 31
0.0
  0
LINE
  5
4462
330
1D9
100
AcDbEntity
  8
0
100
AcDbLine
 10
2293.999999999996
 20
260.2694608366259
 30
0.0
 11
2293.999999999996
 21
400.0
 31
0.0
  0
LINE
  5
4463
330
1D9
100
AcDbEntity
  8
0
100
AcDbLine
 10
1623.500000000003
 20
260.0000000000004
 30
0.0
 11
1623.500000000003
 21
400.0
 31
0.0
  0
LINE
  5
4464
330
1D9
100
AcDbEntity
  8
0
100
AcDbLine
 10
1620.499999999996
 20
294.0
 30
0.0
 11
1620.499999999996
 21
400.0
 31
0.0
  0
LINE
  5
4465
330
1D9
100
AcDbEntity
  8
0
100
AcDbLine
 10
1642.500000000002
 20
262.0
 30
0.0
 11
1642.500000000002
 21
400.0
 31
0.0
  0
LINE
  5
4466
330
1D9
100
AcDbEntity
  8
0
100
AcDbLine
 10
1678.387297292935
 20
400.0
 30
0.0
 11
1678.387297292935
 21
313.3520570354594
 31
0.0
  0
LINE
  5
4467
330
1D9
100
AcDbEntity
  8
0
100
AcDbLine
 10
1747.499999999996
 20
271.5000000000003
 30
0.0
 11
1747.499999999996
 21
400.0
 31
0.0
  0
LINE
  5
4468
330
1D9
100
AcDbEntity
  8
0
100
AcDbLine
 10
1777.000000000003
 20
260.2694608366259
 30
0.0
 11
1777.000000000003
 21
400.0
 31
0.0
  0
LINE
  5
4469
330
1D9
100
AcDbEntity
  8
0
100
AcDbLine
 10
1840.500000000003
 20
400.0
 30
0.0
 11
1840.500000000003
 21
263.0
 31
0.0
  0
LINE
  5
446A
330
1D9
100
AcDbEntity
  8
0
100
AcDbLine
 10
1778.242640687126
 20
260.0000000000004
 30
0.0
 11
1837.500000000003
 21
260.0000000000004
 31
0.0
  0
LINE
  5
446B
330
1D9
100
AcDbEntity
  8
0
100
AcDbLine
 10
3061.244999999999
 20
568.5
 30
0.0
 11
3130.501999999999
 21
568.5
 31
0.0
  0
LINE
  5
446C
330
1D9
100
AcDbEntity
  8
0
100
AcDbLine
 10
3061.244999999999
 20
231.4999999999967
 30
0.0
 11
3130.501999999999
 21
231.4999999999967
 31
0.0
  0
LINE
  5
446D
330
1D9
100
AcDbEntity
  8
0
100
AcDbLine
 10
3027.421197332206
 20
553.6043581579333
 30
0.0
 11
3027.552950152609
 21
400.1161415444458
 31
0.0
  0
LINE
  5
446E
330
1D9
100
AcDbEntity
  8
0
100
AcDbLine
 10
3053.549794403129
 20
573.5
 30
0.0
 11
3053.55020555762
 21
400.0
 31
0.0
  0
ARC
  5
446F
330
1D9
100
AcDbEntity
  8
0
100
AcDbCircle
 10
3053.55020555762
 20
399.9307713425537
 30
0.0
 40
153.0830905786983
100
AcDbArc
 50
102.0515339505781
 51
131.7019517114295
  0
LINE
  5
4470
330
1D9
100
AcDbEntity
  8
0
100
AcDbLine
 10
2915.500000000001
 20
400.0
 30
0.0
 11
2915.500000000001
 21
563.0005358855513
 31
0.0
  0
LINE
  5
4471
330
1D9
100
AcDbEntity
  8
0
100
AcDbLine
 10
2895.5
 20
400.0
 30
0.0
 11
2895.5
 21
565.0005358855527
 31
0.0
  0
LINE
  5
4473
330
1D9
100
AcDbEntity
  8
0
100
AcDbLine
 10
2923.800930834921
 20
513.569340914014
 30
0.0
 11
2939.440108755841
 21
510.8729309276505
 31
0.0
  0
LINE
  5
4474
330
1D9
100
AcDbEntity
  8
0
100
AcDbLine
 10
2923.800930834921
 20
286.4317308570921
 30
0.0
 11
2939.440108755841
 21
289.1281408434578
 31
0.0
  0
LINE
  5
4476
330
1D9
100
AcDbEntity
  8
0
100
AcDbLine
 10
2895.5
 20
400.0005358855528
 30
0.0
 11
2895.5
 21
235.0005358855528
 31
0.0
  0
LINE
  5
4477
330
1D9
100
AcDbEntity
  8
0
100
AcDbLine
 10
2915.500000000001
 20
400.0005358855528
 30
0.0
 11
2915.500000000001
 21
237.0005358855528
 31
0.0
  0
LINE
  5
4478
330
1D9
100
AcDbEntity
  8
0
100
AcDbLine
 10
2893.5
 20
269.0005358855528
 30
0.0
 11
2893.5
 21
531.0005358855513
 31
0.0
  0
ARC
  5
4479
330
1D9
100
AcDbEntity
  8
0
100
AcDbCircle
 10
2913.5
 20
237.0005358855528
 30
0.0
 40
2.0
100
AcDbArc
 50
270.0
 51
0.0
  0
LINE
  5
447A
330
1D9
100
AcDbEntity
  8
0
100
AcDbLine
 10
2895.5
 20
235.0005358855528
 30
0.0
 11
2913.5
 21
235.0005358855528
 31
0.0
  0
ARC
  5
447B
330
1D9
100
AcDbEntity
  8
0
100
AcDbCircle
 10
2925.499999999999
 20
276.577129699649
 30
0.0
 40
10.0
100
AcDbArc
 50
99.78240703182057
 51
180.0
  0
LINE
  5
447C
330
1D9
100
AcDbEntity
  8
0
100
AcDbLine
 10
2893.5
 20
269.0005358855528
 30
0.0
 11
2895.5
 21
269.0005358855528
 31
0.0
  0
LINE
  5
447D
330
1D9
100
AcDbEntity
  8
0
100
AcDbLine
 10
2893.5
 20
531.0005358855513
 30
0.0
 11
2895.5
 21
531.0005358855513
 31
0.0
  0
ARC
  5
447E
330
1D9
100
AcDbEntity
  8
0
100
AcDbCircle
 10
2925.499999999999
 20
523.4239420714593
 30
0.0
 40
10.0
100
AcDbArc
 50
180.0
 51
260.2175929681794
  0
LINE
  5
447F
330
1D9
100
AcDbEntity
  8
0
100
AcDbLine
 10
3053.549794403129
 20
226.5
 30
0.0
 11
3053.55020555762
 21
400.0
 31
0.0
  0
LINE
  5
4480
330
1D9
100
AcDbEntity
  8
0
100
AcDbLine
 10
3027.553000000001
 20
246.5117268388406
 30
0.0
 11
3027.553000000001
 21
400.0
 31
0.0
  0
LINE
  5
4481
330
1D9
100
AcDbEntity
  8
0
100
AcDbLine
 10
2946.755612853641
 20
288.5686390823784
 30
0.0
 11
2946.755612853641
 21
400.0005358855528
 31
0.0
  0
ARC
  5
4482
330
1D9
100
AcDbEntity
  8
0
100
AcDbCircle
 10
3053.55020555762
 20
400.069228657443
 30
0.0
 40
153.0830905786968
100
AcDbArc
 50
228.2980482888472
 51
257.9484660494218
  0
ARC
  5
4483
330
1D9
100
AcDbEntity
  8
0
100
AcDbCircle
 10
2941.988712503448
 20
274.3462391072911
 30
0.0
 40
15.0
100
AcDbArc
 50
48.41607858868485
 51
99.78240703182057
  0
LINE
  5
4484
330
1D9
100
AcDbEntity
  8
0
100
AcDbLine
 10
3052.258000000001
 20
238.0
 30
0.0
 11
3034.304999999999
 21
238.0
 31
0.0
  0
LINE
  5
4485
330
1D9
100
AcDbEntity
  8
0
100
AcDbLine
 10
3052.258000000249
 20
237.9999999999963
 30
0.0
 11
3034.30701745329
 21
238.0000000000308
 31
0.0
  0
ARC
  5
4486
330
1D9
100
AcDbEntity
  8
0
100
AcDbCircle
 10
3034.307
 20
243.0
 30
0.0
 40
5.0
100
AcDbArc
 50
189.2630000000026
 51
270.0001999999159
  0
ARC
  5
4487
330
1D9
100
AcDbEntity
  8
0
100
AcDbCircle
 10
3019.499826936589
 20
240.5761139112128
 30
0.0
 40
10.00425395598377
100
AcDbArc
 50
9.313510068091693
 51
77.95347042225424
  0
LINE
  5
4488
330
1D9
100
AcDbEntity
  8
0
100
AcDbLine
 10
3054.380999999998
 20
237.1199999999984
 30
0.0
 11
3059.123716680789
 21
232.3786426327391
 31
0.0
  0
ARC
  5
4489
330
1D9
100
AcDbEntity
  8
0
100
AcDbCircle
 10
3061.244999999999
 20
234.4999999999967
 30
0.0
 40
2.999999999999618
100
AcDbArc
 50
225.0010000000385
 51
270.0
  0
ARC
  5
448A
330
1D9
100
AcDbEntity
  8
0
100
AcDbCircle
 10
3052.257666890418
 20
234.998327623151
 30
0.0
 40
3.001672395331024
100
AcDbArc
 50
44.97758472363136
 51
89.99364161559705
  0
LINE
  5
448B
330
1D9
100
AcDbEntity
  8
0
100
AcDbLine
 10
2946.755612853641
 20
511.4313609176206
 30
0.0
 11
2946.755612853641
 21
399.9994641144457
 31
0.0
  0
ARC
  5
448C
330
1D9
100
AcDbEntity
  8
0
100
AcDbCircle
 10
2941.988712503448
 20
525.6548326638172
 30
0.0
 40
15.0
100
AcDbArc
 50
260.2175929681794
 51
311.5839214113151
  0
ARC
  5
448E
330
1D9
100
AcDbEntity
  8
0
100
AcDbCircle
 10
1652.499999999996
 20
300.315183061787
 30
0.0
 40
10.0
100
AcDbArc
 50
100.9317787955045
 51
180.0
  0
ARC
  5
4490
330
1D9
100
AcDbEntity
  8
0
100
AcDbCircle
 10
2913.5
 20
563.0005358855513
 30
0.0
 40
2.0
100
AcDbArc
 50
0.0
 51
90.0
  0
LINE
  5
4491
330
1D9
100
AcDbEntity
  8
0
100
AcDbLine
 10
2895.5
 20
565.0005358855527
 30
0.0
 11
2913.5
 21
565.0005358855527
 31
0.0
  0
ARC
  5
4494
330
1D9
100
AcDbEntity
  8
0
100
AcDbCircle
 10
1640.499999999996
 20
262.0
 30
0.0
 40
2.0
100
AcDbArc
 50
270.0
 51
0.0
  0
LINE
  5
4495
330
1D9
100
AcDbEntity
  8
0
100
AcDbLine
 10
1620.499999999996
 20
294.0
 30
0.0
 11
1623.500000000003
 21
294.0
 31
0.0
  0
LINE
  5
4496
330
1D9
100
AcDbEntity
  8
0
100
AcDbLine
 10
1623.500000000003
 20
260.0000000000004
 30
0.0
 11
1640.499999999996
 21
260.0000000000004
 31
0.0
  0
LINE
  5
4497
330
1D9
100
AcDbEntity
  8
0
100
AcDbLine
 10
3052.258000000249
 20
562.0000000000008
 30
0.0
 11
3034.30701745329
 21
561.9999999999704
 31
0.0
  0
LINE
  5
4498
330
1D9
100
AcDbEntity
  8
0
100
AcDbLine
 10
3052.258000000001
 20
562.0
 30
0.0
 11
3034.304999999999
 21
562.0
 31
0.0
  0
ARC
  5
4499
330
1D9
100
AcDbEntity
  8
0
100
AcDbCircle
 10
3034.307
 20
557.0
 30
0.0
 40
5.0
100
AcDbArc
 50
89.99979999997988
 51
170.7369999999972
  0
ARC
  5
449A
330
1D9
100
AcDbEntity
  8
0
100
AcDbCircle
 10
3019.499826936589
 20
559.4238860887871
 30
0.0
 40
10.00425395598411
100
AcDbArc
 50
282.0465295777458
 51
350.6864899319083
  0
ARC
  5
449B
330
1D9
100
AcDbEntity
  8
0
100
AcDbCircle
 10
3052.257666890418
 20
565.0016723768479
 30
0.0
 40
3.001672395331024
100
AcDbArc
 50
270.0063583842986
 51
315.0224152763686
  0
LINE
  5
449C
330
1D9
100
AcDbEntity
  8
0
100
AcDbLine
 10
3054.380999999998
 20
562.8799999999996
 30
0.0
 11
3059.124000000001
 21
567.6199999999997
 31
0.0
  0
ARC
  5
449D
330
1D9
100
AcDbEntity
  8
0
100
AcDbCircle
 10
3061.244999999999
 20
565.5
 30
0.0
 40
3.0
100
AcDbArc
 50
89.99930000003374
 51
134.9989999999613
  0
ARC
  5
449E
330
1D9
100
AcDbEntity
  8
0
100
AcDbCircle
 10
1770.500000000003
 20
400.0
 30
0.0
 40
125.0
100
AcDbArc
 50
226.0305997930633
 51
255.9395356278521
  0
ARC
  5
449F
330
1D9
100
AcDbEntity
  8
0
100
AcDbCircle
 10
1673.301626607655
 20
299.2405031280818
 30
0.0
 40
15.0
100
AcDbArc
 50
46.03059979306348
 51
100.9317787955045
  0
LINE
  5
44A0
330
1D9
100
AcDbEntity
  8
0
100
AcDbLine
 10
1650.603599480126
 20
310.1337198707115
 30
0.0
 11
1670.457025827836
 21
313.9683083414701
 31
0.0
  0
ARC
  5
44A1
330
1D9
100
AcDbEntity
  8
0
100
AcDbCircle
 10
1769.257359312887
 20
263.5
 30
0.0
 40
3.0
100
AcDbArc
 50
45.0000000000046
 51
90.0
  0
ARC
  5
44A2
330
1D9
100
AcDbEntity
  8
0
100
AcDbCircle
 10
1737.702328328635
 20
269.0446154870396
 30
0.0
 40
10.0
100
AcDbArc
 50
9.421275993204263
 51
75.93953562785227
  0
ARC
  5
44A3
330
1D9
100
AcDbEntity
  8
0
100
AcDbCircle
 10
1752.499999999996
 20
271.5000000000003
 30
0.0
 40
5.0
100
AcDbArc
 50
189.4212759932042
 51
270.0
  0
LINE
  5
44A4
330
1D9
100
AcDbEntity
  8
0
100
AcDbLine
 10
1769.257359312887
 20
266.5
 30
0.0
 11
1752.499999999996
 21
266.5
 31
0.0
  0
ARC
  5
44A5
330
1D9
100
AcDbEntity
  8
0
100
AcDbCircle
 10
1778.242640687126
 20
263.0
 30
0.0
 40
3.0
100
AcDbArc
 50
225.0000000000045
 51
270.0
  0
LINE
  5
44A6
330
1D9
100
AcDbEntity
  8
0
100
AcDbLine
 10
1776.121320343565
 20
260.8786796564408
 30
0.0
 11
1771.378679656443
 21
265.6213203435608
 31
0.0
  0
LINE
  5
44A7
330
1D9
100
AcDbEntity
  8
0
100
AcDbLine
 10
2128.159347925517
 20
287.6037594610196
 30
0.0
 11
2148.159347925518
 21
287.6037594610196
 31
0.0
  0
LINE
  5
44A8
330
1D9
100
AcDbEntity
  8
0
100
AcDbLine
 10
3355.011989585328
 20
274.9999999990063
 30
0.0
 11
3429.400302964078
 21
274.9999999998699
 31
0.0
  0
LINE
  5
44A9
330
1D9
100
AcDbEntity
  8
0
100
AcDbLine
 10
3355.011989556295
 20
525.0000000009945
 30
0.0
 11
3429.400302964078
 21
525.0000000001286
 31
0.0
  0
LINE
  5
44AA
330
1D9
100
AcDbEntity
  8
0
100
AcDbLine
 10
3136.501999999998
 20
567.4999999999986
 30
0.0
 11
3136.501999999998
 21
400.0
 31
0.0
  0
LINE
  5
44AB
330
1D9
100
AcDbEntity
  8
0
100
AcDbLine
 10
3133.501999999998
 20
400.0
 30
0.0
 11
3133.501999999998
 21
552.0
 31
0.0
  0
LINE
  5
44AC
330
1D9
100
AcDbEntity
  8
0
100
AcDbLine
 10
3151.501999999998
 20
543.5
 30
0.0
 11
3151.501999999998
 21
400.0
 31
0.0
  0
LINE
  5
44AD
330
1D9
100
AcDbEntity
  8
0
100
AcDbLine
 10
3193.952930693139
 20
279.4999999999999
 30
0.0
 11
3282.560162074121
 21
279.4999999999999
 31
0.0
  0
LINE
  5
44AE
330
1D9
100
AcDbEntity
  8
0
100
AcDbLine
 10
3193.952930693139
 20
520.4999999999968
 30
0.0
 11
3282.560162078816
 21
520.4999999999968
 31
0.0
  0
LINE
  5
44AF
330
1D9
100
AcDbEntity
  8
0
100
AcDbLine
 10
3188.551801750261
 20
280.2431101643477
 30
0.0
 11
3188.551801750261
 21
400.0
 31
0.0
  0
LINE
  5
44B0
330
1D9
100
AcDbEntity
  8
0
100
AcDbLine
 10
3170.532418883476
 20
289.4463105405689
 30
0.0
 11
3170.532418883476
 21
400.0
 31
0.0
  0
LINE
  5
44B1
330
1D9
100
AcDbEntity
  8
0
100
AcDbLine
 10
3151.501999999998
 20
256.5069999999999
 30
0.0
 11
3151.501999999998
 21
400.0
 31
0.0
  0
LINE
  5
44B2
330
1D9
100
AcDbEntity
  8
0
100
AcDbLine
 10
3156.501999999998
 20
400.0
 30
0.0
 11
3156.501999999998
 21
287.007
 31
0.0
  0
LINE
  5
44B3
330
1D9
100
AcDbEntity
  8
0
100
AcDbLine
 10
3136.501999999998
 20
232.5069999999985
 30
0.0
 11
3136.501999999998
 21
400.0
 31
0.0
  0
LINE
  5
44B4
330
1D9
100
AcDbEntity
  8
0
100
AcDbLine
 10
3133.501999999998
 20
400.0
 30
0.0
 11
3133.501999999998
 21
234.4999999999967
 31
0.0
  0
ARC
  5
44B5
330
1D9
100
AcDbEntity
  8
0
100
AcDbCircle
 10
3166.50885708035
 20
275.1157807774688
 30
0.0
 40
14.88466099293375
100
AcDbArc
 50
59.90656633068951
 51
90.06162521774408
  0
LINE
  5
44B6
330
1D9
100
AcDbEntity
  8
0
100
AcDbLine
 10
3151.501999999998
 20
256.5069999999999
 30
0.0
 11
3151.501999999998
 21
285.0
 31
0.0
  0
LINE
  5
44B7
330
1D9
100
AcDbEntity
  8
0
100
AcDbLine
 10
3141.501999999999
 20
246.507
 30
0.0
 11
3141.501999999999
 21
246.507
 31
0.0
  0
ARC
  5
44B8
330
1D9
100
AcDbEntity
  8
0
100
AcDbCircle
 10
3141.501999999999
 20
256.5069999999999
 30
0.0
 40
10.0
100
AcDbArc
 50
270.0
 51
0.0
  0
LINE
  5
44B9
330
1D9
100
AcDbEntity
  8
0
100
AcDbLine
 10
3136.501999999998
 20
232.5
 30
0.0
 11
3136.501999999998
 21
241.5
 31
0.0
  0
LINE
  5
44BA
330
1D9
100
AcDbEntity
  8
0
100
AcDbLine
 10
3133.501999999998
 20
232.5
 30
0.0
 11
3136.501999999998
 21
232.5
 31
0.0
  0
LINE
  5
44BB
330
1D9
100
AcDbEntity
  8
0
100
AcDbLine
 10
3133.501999999998
 20
232.5069999999985
 30
0.0
 11
3136.501999999998
 21
232.5069999999985
 31
0.0
  0
ARC
  5
44BC
330
1D9
100
AcDbEntity
  8
0
100
AcDbCircle
 10
3130.501999999999
 20
234.4999999999967
 30
0.0
 40
3.0
100
AcDbArc
 50
270.0
 51
0.0
  0
ARC
  5
44BD
330
1D9
100
AcDbEntity
  8
0
100
AcDbCircle
 10
3141.501999999999
 20
241.5070000000009
 30
0.0
 40
5.0
100
AcDbArc
 50
90.0
 51
180.0
  0
LINE
  5
44BE
330
1D9
100
AcDbEntity
  8
0
100
AcDbLine
 10
3156.505178803961
 20
290.0001445365719
 30
0.0
 11
3166.524005633839
 21
290.0004340618369
 31
0.0
  0
LINE
  5
44BF
330
1D9
100
AcDbEntity
  8
0
100
AcDbLine
 10
3153.501999999998
 20
287.007
 30
0.0
 11
3156.501999999998
 21
287.007
 31
0.0
  0
ARC
  5
44C0
330
1D9
100
AcDbEntity
  8
0
100
AcDbCircle
 10
3153.501999999998
 20
285.007
 30
0.0
 40
2.0
100
AcDbArc
 50
90.0
 51
180.0
  0
LINE
  5
44C1
330
1D9
100
AcDbEntity
  8
0
100
AcDbLine
 10
3173.97219852575
 20
287.9941217942382
 30
0.0
 11
3183.894215437099
 21
282.213524147533
 31
0.0
  0
ARC
  5
44C2
330
1D9
100
AcDbEntity
  8
0
100
AcDbCircle
 10
3193.952930693139
 20
299.4999999999968
 30
0.0
 40
19.99999999999907
100
AcDbArc
 50
239.7439999999833
 51
270.0
  0
ARC
  5
44C3
330
1D9
100
AcDbEntity
  8
0
100
AcDbCircle
 10
3166.500979447731
 20
524.9167915219873
 30
0.0
 40
14.91679580777555
100
AcDbArc
 50
269.9565558798655
 51
300.3935381060043
  0
LINE
  5
44C4
330
1D9
100
AcDbEntity
  8
0
100
AcDbLine
 10
3156.501999999998
 20
400.0
 30
0.0
 11
3156.501999999998
 21
513.0
 31
0.0
  0
LINE
  5
44C5
330
1D9
100
AcDbEntity
  8
0
100
AcDbLine
 10
3156.501999999998
 20
510.0000000005437
 30
0.0
 11
3166.512289237618
 21
510.0000000017053
 31
0.0
  0
LINE
  5
44C6
330
1D9
100
AcDbEntity
  8
0
100
AcDbLine
 10
3153.501999999998
 20
513.0
 30
0.0
 11
3156.501999999998
 21
513.0
 31
0.0
  0
ARC
  5
44C7
330
1D9
100
AcDbEntity
  8
0
100
AcDbCircle
 10
3153.501999999998
 20
514.9999999999968
 30
0.0
 40
2.0
100
AcDbArc
 50
180.0
 51
270.0
  0
LINE
  5
44C8
330
1D9
100
AcDbEntity
  8
0
100
AcDbLine
 10
3188.551801750261
 20
519.7568898356498
 30
0.0
 11
3188.551801750261
 21
400.0
 31
0.0
  0
LINE
  5
44C9
330
1D9
100
AcDbEntity
  8
0
100
AcDbLine
 10
3170.532418883476
 20
510.5536894594291
 30
0.0
 11
3170.532418883476
 21
400.0
 31
0.0
  0
ARC
  5
44CA
330
1D9
100
AcDbEntity
  8
0
100
AcDbCircle
 10
3193.952930693139
 20
500.5000000000008
 30
0.0
 40
19.99999999999907
100
AcDbArc
 50
90.0
 51
120.2560000000165
  0
LINE
  5
44CB
330
1D9
100
AcDbEntity
  8
0
100
AcDbLine
 10
3173.97219852575
 20
512.0058782057608
 30
0.0
 11
3183.894215437227
 21
517.7864758525425
 31
0.0
  0
LINE
  5
44CC
330
1D9
100
AcDbEntity
  8
0
100
AcDbLine
 10
3351.550205557826
 20
274.595028444024
 30
0.0
 11
3351.550205557826
 21
400.0
 31
0.0
  0
LINE
  5
44CD
330
1D9
100
AcDbEntity
  8
0
100
AcDbLine
 10
3343.243634396189
 20
271.3546283425038
 30
0.0
 11
3343.243634396189
 21
400.0
 31
0.0
  0
LINE
  5
44CE
330
1D9
100
AcDbEntity
  8
0
100
AcDbLine
 10
3297.544522917827
 20
272.199062838073
 30
0.0
 11
3297.544522917827
 21
400.0
 31
0.0
  0
LINE
  5
44CF
330
1D9
100
AcDbEntity
  8
0
100
AcDbLine
 10
3288.551801750269
 20
278.2509371602313
 30
0.0
 11
3288.551801750269
 21
400.0
 31
0.0
  0
LINE
  5
44D0
330
1D9
100
AcDbEntity
  8
0
100
AcDbLine
 10
3303.537162335308
 20
270.9500000000011
 30
0.0
 11
3339.786389791962
 21
270.950000003861
 31
0.0
  0
ARC
  5
44D1
330
1D9
100
AcDbEntity
  8
0
100
AcDbCircle
 10
3282.559162205309
 20
264.4999997995959
 30
0.0
 40
15.00000023372781
100
AcDbArc
 50
46.4690001716641
 51
90.00381922811401
  0
LINE
  5
44D2
330
1D9
100
AcDbEntity
  8
0
100
AcDbLine
 10
3292.890366435709
 20
275.3750274391832
 30
0.0
 11
3293.205958228087
 21
275.0749725642654
 31
0.0
  0
ARC
  5
44D3
330
1D9
100
AcDbEntity
  8
0
100
AcDbCircle
 10
3303.537162333707
 20
285.9499999999983
 30
0.0
 40
14.99999999999908
100
AcDbArc
 50
226.4689999999998
 51
270.0
  0
LINE
  5
44D4
330
1D9
100
AcDbEntity
  8
0
100
AcDbLine
 10
3346.36116233344
 20
272.4699999998669
 30
0.0
 11
3348.442582133589
 21
273.4848291051125
 31
0.0
  0
ARC
  5
44D5
330
1D9
100
AcDbEntity
  8
0
100
AcDbCircle
 10
3339.78460589263
 20
285.9373327487559
 30
0.0
 40
14.98733285106213
100
AcDbArc
 50
269.9931802519278
 51
296.0278298058876
  0
ARC
  5
44D6
330
1D9
100
AcDbEntity
  8
0
100
AcDbCircle
 10
3355.012162333707
 20
260.0
 30
0.0
 40
15.0
100
AcDbArc
 50
89.9990000000035
 51
116.0100000000563
  0
LINE
  5
44D7
330
1D9
100
AcDbEntity
  8
0
100
AcDbLine
 10
3303.537162335308
 20
529.0499999999979
 30
0.0
 11
3339.786389793959
 21
529.0499999961371
 31
0.0
  0
LINE
  5
44D8
330
1D9
100
AcDbEntity
  8
0
100
AcDbLine
 10
3288.551801750269
 20
521.7490628397682
 30
0.0
 11
3288.551801750269
 21
400.0
 31
0.0
  0
LINE
  5
44D9
330
1D9
100
AcDbEntity
  8
0
100
AcDbLine
 10
3297.544522917827
 20
527.8009371619232
 30
0.0
 11
3297.544522917827
 21
400.0
 31
0.0
  0
ARC
  5
44DA
330
1D9
100
AcDbEntity
  8
0
100
AcDbCircle
 10
3282.559162205309
 20
535.5000002004024
 30
0.0
 40
15.00000023372781
100
AcDbArc
 50
269.9961807718859
 51
313.5309998283357
  0
ARC
  5
44DB
330
1D9
100
AcDbEntity
  8
0
100
AcDbCircle
 10
3303.537162333707
 20
514.0499999999997
 30
0.0
 40
14.99999999999908
100
AcDbArc
 50
90.0
 51
133.5309999999999
  0
LINE
  5
44DC
330
1D9
100
AcDbEntity
  8
0
100
AcDbLine
 10
3292.89036643617
 20
524.6249725612547
 30
0.0
 11
3293.205958227808
 21
524.9250274354599
 31
0.0
  0
LINE
  5
44DD
330
1D9
100
AcDbEntity
  8
0
100
AcDbLine
 10
3343.243634396189
 20
528.645371657492
 30
0.0
 11
3343.243634396189
 21
400.0
 31
0.0
  0
LINE
  5
44DE
330
1D9
100
AcDbEntity
  8
0
100
AcDbLine
 10
3351.550205557826
 20
525.4049715559752
 30
0.0
 11
3351.550205557826
 21
400.0
 31
0.0
  0
ARC
  5
44DF
330
1D9
100
AcDbEntity
  8
0
100
AcDbCircle
 10
3355.012162333707
 20
540.0
 30
0.0
 40
15.0
100
AcDbArc
 50
243.9899999999436
 51
270.0009999999963
  0
ARC
  5
44E0
330
1D9
100
AcDbEntity
  8
0
100
AcDbCircle
 10
3339.78460589263
 20
514.0626672512429
 30
0.0
 40
14.98733285106213
100
AcDbArc
 50
63.97217019411232
 51
90.00681974796796
  0
LINE
  5
44E1
330
1D9
100
AcDbEntity
  8
0
100
AcDbLine
 10
3346.344445139457
 20
527.538150732149
 30
0.0
 11
3348.442582130639
 21
526.5151708963197
 31
0.0
  0
LINE
  5
44E2
330
1D9
100
AcDbEntity
  8
0
100
AcDbLine
 10
1987.316783243255
 20
302.099999999999
 30
0.0
 11
1895.470308882883
 21
302.099999999999
 31
0.0
  0
LINE
  5
44E3
330
1D9
100
AcDbEntity
  8
0
100
AcDbLine
 10
3133.501999999998
 20
552.0
 30
0.0
 11
3133.501999999998
 21
565.5
 31
0.0
  0
ARC
  5
44E4
330
1D9
100
AcDbEntity
  8
0
100
AcDbCircle
 10
3141.501999999999
 20
558.4999999999999
 30
0.0
 40
5.0
100
AcDbArc
 50
180.0
 51
270.0
  0
LINE
  5
44E5
330
1D9
100
AcDbEntity
  8
0
100
AcDbLine
 10
3141.501999999999
 20
553.4999999999986
 30
0.0
 11
3141.501999999999
 21
553.4999999999986
 31
0.0
  0
LINE
  5
44E6
330
1D9
100
AcDbEntity
  8
0
100
AcDbLine
 10
3133.501999999998
 20
567.4999999999986
 30
0.0
 11
3136.501999999998
 21
567.4999999999986
 31
0.0
  0
ARC
  5
44E7
330
1D9
100
AcDbEntity
  8
0
100
AcDbCircle
 10
3130.501999999999
 20
565.5
 30
0.0
 40
3.0
100
AcDbArc
 50
0.0
 51
90.0
  0
ARC
  5
44E8
330
1D9
100
AcDbEntity
  8
0
100
AcDbCircle
 10
3141.501999999999
 20
543.5
 30
0.0
 40
10.0
100
AcDbArc
 50
0.0
 51
90.0
  0
ARC
  5
44E9
330
1D9
100
AcDbEntity
  8
0
100
AcDbCircle
 10
1895.470308882883
 20
317.099999999999
 30
0.0
 40
15.0
100
AcDbArc
 50
233.334364517369
 51
270.0
  0
ARC
  5
44EA
330
1D9
100
AcDbEntity
  8
0
100
AcDbCircle
 10
1850.228539803385
 20
289.9264000000006
 30
0.0
 40
12.57983999999999
100
AcDbArc
 50
270.0
 51
0.0
  0
ARC
  5
44EB
330
1D9
100
AcDbEntity
  8
0
100
AcDbCircle
 10
1850.228539803385
 20
271.0566400000002
 30
0.0
 40
6.289919999999998
100
AcDbArc
 50
90.0
 51
180.0
  0
LINE
  5
44EC
330
1D9
100
AcDbEntity
  8
0
100
AcDbLine
 10
1840.164667803382
 20
261.62176
 30
0.0
 11
1843.938619803387
 21
261.62176
 31
0.0
  0
ARC
  5
44ED
330
1D9
100
AcDbEntity
  8
0
100
AcDbCircle
 10
1837.499999999996
 20
263.0000000000018
 30
0.0
 40
3.0
100
AcDbArc
 50
270.0
 51
359.9999999999738
  0
ARC
  5
44EE
330
1D9
100
AcDbEntity
  8
0
100
AcDbCircle
 10
1865.324347803386
 20
308.9858076156896
 30
0.0
 40
2.515967999999999
100
AcDbArc
 50
90.0
 51
180.0
  0
LINE
  5
44EF
330
1D9
100
AcDbEntity
  8
0
100
AcDbLine
 10
1865.324347803386
 20
311.5017756156898
 30
0.0
 11
1869.098299803385
 21
311.5017756156898
 31
0.0
  0
LINE
  5
44F0
330
1D9
100
AcDbEntity
  8
0
100
AcDbLine
 10
1877.815804596465
 20
311.5426788004118
 30
0.0
 11
1886.513146552656
 21
305.0679908996917
 31
0.0
  0
ARC
  5
44F1
330
1D9
100
AcDbEntity
  8
0
100
AcDbCircle
 10
1865.872921489495
 20
295.5
 30
0.0
 40
20.0
100
AcDbArc
 50
53.33436451736909
 51
80.71944370722397
  0
LINE
  5
44F3
330
1D9
100
AcDbEntity
  8
0
100
AcDbLine
 10
2118.159347925526
 20
302.1000000000008
 30
0.0
 11
2045.386890422966
 21
302.1000000000008
 31
0.0
  0
LINE
  5
44F4
330
1D9
100
AcDbEntity
  8
0
100
AcDbLine
 10
2030.413109577048
 20
298.099999999999
 30
0.0
 11
2002.683216756734
 21
298.099999999999
 31
0.0
  0
LINE
  5
44F5
330
1D9
100
AcDbEntity
  8
0
100
AcDbLine
 10
1996.591139765936
 20
299.3928267706978
 30
0.0
 11
1993.408860234067
 21
300.8071732293037
 31
0.0
  0
ARC
  5
44F6
330
1D9
100
AcDbEntity
  8
0
100
AcDbCircle
 10
2002.683216756734
 20
313.1000000000008
 30
0.0
 40
15.0
100
AcDbArc
 50
246.0375110254687
 51
270.0
  0
ARC
  5
44F7
330
1D9
100
AcDbEntity
  8
0
100
AcDbCircle
 10
1987.316783243255
 20
287.1000000000008
 30
0.0
 40
15.0
100
AcDbArc
 50
66.03751102546877
 51
90.0
  0
LINE
  5
44F8
330
1D9
100
AcDbEntity
  8
0
100
AcDbLine
 10
2037.697753544726
 20
299.9876408581758
 30
0.0
 11
2038.102246455275
 21
300.212359141823
 31
0.0
  0
ARC
  5
44F9
330
1D9
100
AcDbEntity
  8
0
100
AcDbCircle
 10
2045.386890422966
 20
287.1000000000008
 30
0.0
 40
15.0
100
AcDbArc
 50
90.0
 51
119.0546040990801
  0
ARC
  5
44FA
330
1D9
100
AcDbEntity
  8
0
100
AcDbCircle
 10
2030.413109577048
 20
313.1000000000008
 30
0.0
 40
15.0
100
AcDbArc
 50
270.0
 51
299.0546040990802
  0
ARC
  5
44FB
330
1D9
100
AcDbEntity
  8
0
100
AcDbCircle
 10
2128.159347925517
 20
297.6037594610188
 30
0.0
 40
10.0
100
AcDbArc
 50
180.0
 51
270.0
  0
LINE
  5
44FC
330
1D9
100
AcDbEntity
  8
0
100
AcDbLine
 10
3623.449383287882
 20
573.4999999999967
 30
0.0
 11
3623.449794442368
 21
399.9999999999986
 31
0.0
  0
LINE
  5
44FD
330
1D9
100
AcDbEntity
  8
0
100
AcDbLine
 10
3649.447999999999
 20
553.5572617318985
 30
0.0
 11
3649.447999999999
 21
400.069228657443
 31
0.0
  0
ARC
  5
44FE
330
1D9
100
AcDbEntity
  8
0
100
AcDbCircle
 10
3623.449794442368
 20
399.861542685111
 30
0.0
 40
153.0830905786983
100
AcDbArc
 50
48.29804828857032
 51
77.94846604942184
  0
LINE
  5
44FF
330
1D9
100
AcDbEntity
  8
0
100
AcDbLine
 10
3540.497999999996
 20
567.430771342556
 30
0.0
 11
3540.497999999996
 21
399.9999999999986
 31
0.0
  0
LINE
  5
4500
330
1D9
100
AcDbEntity
  8
0
100
AcDbLine
 10
3543.497999999996
 20
400.0
 30
0.0
 11
3543.497999999996
 21
551.9307713425559
 31
0.0
  0
LINE
  5
4501
330
1D9
100
AcDbEntity
  8
0
100
AcDbLine
 10
3525.497999999997
 20
543.4307713425563
 30
0.0
 11
3525.497999999997
 21
400.0
 31
0.0
  0
LINE
  5
4502
330
1D9
100
AcDbEntity
  8
0
100
AcDbLine
 10
3615.758000000001
 20
231.4307713425559
 30
0.0
 11
3546.497999999997
 21
231.4307713425559
 31
0.0
  0
LINE
  5
4503
330
1D9
100
AcDbEntity
  8
0
100
AcDbLine
 10
3429.400302964078
 20
268.973689376658
 30
0.0
 11
3429.400302964078
 21
400.0
 31
0.0
  0
LINE
  5
4504
330
1D9
100
AcDbEntity
  8
0
100
AcDbLine
 10
3469.30353228114
 20
270.4107105678257
 30
0.0
 11
3469.30353228114
 21
400.0
 31
0.0
  0
LINE
  5
4505
330
1D9
100
AcDbEntity
  8
0
100
AcDbLine
 10
3457.400302964078
 20
362.0069999999981
 30
0.0
 11
3457.400302964078
 21
345.5069999999999
 31
0.0
  0
LINE
  5
4506
330
1D9
100
AcDbEntity
  8
0
100
AcDbLine
 10
3441.400302964077
 20
362.0069999999981
 30
0.0
 11
3441.400302964077
 21
345.5069999999999
 31
0.0
  0
LINE
  5
4507
330
1D9
100
AcDbEntity
  8
0
100
AcDbLine
 10
3525.497999999997
 20
256.437771342556
 30
0.0
 11
3525.497999999997
 21
399.9307713425558
 31
0.0
  0
LINE
  5
4508
330
1D9
100
AcDbEntity
  8
0
100
AcDbLine
 10
3520.497999999997
 20
399.9307713425558
 30
0.0
 11
3520.497999999997
 21
286.937771342556
 31
0.0
  0
LINE
  5
4509
330
1D9
100
AcDbEntity
  8
0
100
AcDbLine
 10
3540.497999999996
 20
232.437771342556
 30
0.0
 11
3540.497999999996
 21
399.9307713425558
 31
0.0
  0
LINE
  5
450A
330
1D9
100
AcDbEntity
  8
0
100
AcDbLine
 10
3543.497999999996
 20
399.9307713425558
 30
0.0
 11
3543.497999999996
 21
234.430771342556
 31
0.0
  0
LINE
  5
450B
330
1D9
100
AcDbEntity
  8
0
100
AcDbLine
 10
3470.288780457998
 20
263.9017056737234
 30
0.0
 11
3491.28877340594
 21
263.8844956051721
 31
0.0
  0
LINE
  5
450C
330
1D9
100
AcDbEntity
  8
0
100
AcDbLine
 10
3470.301892891181
 20
279.9017003007284
 30
0.0
 11
3491.301885839119
 21
279.8844902321724
 31
0.0
  0
LINE
  5
450D
330
1D9
100
AcDbEntity
  8
0
100
AcDbLine
 10
3469.310167618502
 20
289.9990608540751
 30
0.0
 11
3520.497999999997
 21
289.9990608540751
 31
0.0
  0
ARC
  5
450F
330
1D9
100
AcDbEntity
  8
0
100
AcDbCircle
 10
3459.303532281142
 20
270.4107105678271
 30
0.0
 40
10.0
100
AcDbArc
 50
269.9530445521621
 51
0.0
  0
ARC
  5
4511
330
1D9
100
AcDbEntity
  8
0
100
AcDbCircle
 10
3439.29411779416
 20
270.4271088302389
 30
0.0
 40
10.0
100
AcDbArc
 50
188.3570809834811
 51
269.9530445521621
  0
LINE
  5
4512
330
1D9
100
AcDbEntity
  8
0
100
AcDbLine
 10
3459.295337010399
 20
260.4107139259489
 30
0.0
 11
3439.285922523419
 21
260.427112188362
 31
0.0
  0
LINE
  5
4513
330
1D9
100
AcDbEntity
  8
0
100
AcDbLine
 10
3471.283862959738
 20
257.9008881615259
 30
0.0
 11
3485.28385825837
 21
257.8894147824889
 31
0.0
  0
LINE
  5
4514
330
1D9
100
AcDbEntity
  8
0
100
AcDbLine
 10
3470.28468282263
 20
258.9017073527847
 30
0.0
 11
3471.283862959738
 21
257.9008881615259
 31
0.0
  0
LINE
  5
4515
330
1D9
100
AcDbEntity
  8
0
100
AcDbLine
 10
3485.28385825837
 20
257.8894147824889
 30
0.0
 11
3486.284677449629
 21
258.8885949196036
 31
0.0
  0
ARC
  5
4516
330
1D9
100
AcDbEntity
  8
0
100
AcDbCircle
 10
3449.400302964078
 20
366.0909999999998
 30
0.0
 40
22.0833
100
AcDbArc
 50
248.7599999999235
 51
291.2389999999053
  0
ARC
  5
4518
330
1D9
100
AcDbEntity
  8
0
100
AcDbCircle
 10
3467.757142253447
 20
261.9037797488457
 30
0.0
 40
2.000000000001584
100
AcDbArc
 50
89.95304455226644
 51
134.8560445521597
  0
LINE
  5
4519
330
1D9
100
AcDbEntity
  8
0
100
AcDbLine
 10
3467.758781307598
 20
263.9037790772204
 30
0.0
 11
3470.288780457998
 21
263.9017056737234
 31
0.0
  0
ARC
  5
451B
330
1D9
100
AcDbEntity
  8
0
100
AcDbCircle
 10
3471.30353160952
 20
281.9008801020286
 30
0.0
 40
2.0
100
AcDbArc
 50
179.9530445522143
 51
239.9530445521974
  0
LINE
  5
451D
330
1D9
100
AcDbEntity
  8
0
100
AcDbLine
 10
3525.497999999997
 20
256.4307713425545
 30
0.0
 11
3525.497999999997
 21
284.9307713425563
 31
0.0
  0
ARC
  5
451E
330
1D9
100
AcDbEntity
  8
0
100
AcDbCircle
 10
3535.497999999996
 20
256.4307713425545
 30
0.0
 40
10.0
100
AcDbArc
 50
180.0
 51
270.0
  0
LINE
  5
451F
330
1D9
100
AcDbEntity
  8
0
100
AcDbLine
 10
3535.497999999996
 20
246.430771342556
 30
0.0
 11
3535.497999999996
 21
246.430771342556
 31
0.0
  0
LINE
  5
4520
330
1D9
100
AcDbEntity
  8
0
100
AcDbLine
 10
3535.497999999996
 20
246.437771342556
 30
0.0
 11
3535.497999999996
 21
246.437771342556
 31
0.0
  0
LINE
  5
4521
330
1D9
100
AcDbEntity
  8
0
100
AcDbLine
 10
3540.497999999996
 20
232.430771342556
 30
0.0
 11
3540.497999999996
 21
241.4307713425559
 31
0.0
  0
LINE
  5
4522
330
1D9
100
AcDbEntity
  8
0
100
AcDbLine
 10
3543.497999999996
 20
232.430771342556
 30
0.0
 11
3540.497999999996
 21
232.430771342556
 31
0.0
  0
LINE
  5
4523
330
1D9
100
AcDbEntity
  8
0
100
AcDbLine
 10
3543.497999999996
 20
232.437771342556
 30
0.0
 11
3540.497999999996
 21
232.437771342556
 31
0.0
  0
ARC
  5
4524
330
1D9
100
AcDbEntity
  8
0
100
AcDbCircle
 10
3546.497999999997
 20
234.430771342556
 30
0.0
 40
3.0
100
AcDbArc
 50
180.0
 51
270.0
  0
ARC
  5
4525
330
1D9
100
AcDbEntity
  8
0
100
AcDbCircle
 10
3535.497999999996
 20
241.4307713425559
 30
0.0
 40
5.0
100
AcDbArc
 50
0.0
 51
90.0
  0
ARC
  5
4526
330
1D9
100
AcDbEntity
  8
0
100
AcDbCircle
 10
3491.290412460078
 20
265.8844949335466
 30
0.0
 40
2.0
100
AcDbArc
 50
269.9530445521621
 51
359.9530445522142
  0
LINE
  5
4527
330
1D9
100
AcDbEntity
  8
0
100
AcDbLine
 10
3493.300246113347
 20
277.8828518496488
 30
0.0
 11
3493.290411788457
 21
265.8828558793989
 31
0.0
  0
ARC
  5
4528
330
1D9
100
AcDbEntity
  8
0
100
AcDbCircle
 10
3491.300246784968
 20
277.8844909037989
 30
0.0
 40
2.0
100
AcDbArc
 50
359.9530445522142
 51
89.95304455216222
  0
ARC
  5
4529
330
1D9
100
AcDbEntity
  8
0
100
AcDbCircle
 10
3523.497999999997
 20
284.9377713425565
 30
0.0
 40
2.0
100
AcDbArc
 50
0.0
 51
90.0
  0
LINE
  5
452A
330
1D9
100
AcDbEntity
  8
0
100
AcDbLine
 10
3523.497999999997
 20
286.937771342556
 30
0.0
 11
3520.497999999997
 21
286.937771342556
 31
0.0
  0
LINE
  5
452B
330
1D9
100
AcDbEntity
  8
0
100
AcDbLine
 10
3470.301892891181
 20
520.0982996992711
 30
0.0
 11
3491.301885839119
 21
520.1155097678269
 31
0.0
  0
LINE
  5
452C
330
1D9
100
AcDbEntity
  8
0
100
AcDbLine
 10
3470.288780457998
 20
536.0982943262729
 30
0.0
 11
3491.28877340594
 21
536.1155043948278
 31
0.0
  0
LINE
  5
452D
330
1D9
100
AcDbEntity
  8
0
100
AcDbLine
 10
3469.310167618502
 20
510.0009391459225
 30
0.0
 11
3520.497999999997
 21
510.0009391459238
 31
0.0
  0
LINE
  5
452E
330
1D9
100
AcDbEntity
  8
0
100
AcDbLine
 10
3469.30353228114
 20
529.5892894321728
 30
0.0
 11
3469.30353228114
 21
400.0
 31
0.0
  0
LINE
  5
452F
330
1D9
100
AcDbEntity
  8
0
100
AcDbLine
 10
3429.400302964078
 20
531.0263106233397
 30
0.0
 11
3429.400302964078
 21
400.0
 31
0.0
  0
LINE
  5
4530
330
1D9
100
AcDbEntity
  8
0
100
AcDbLine
 10
3439.000302964078
 20
437.9929999999984
 30
0.0
 11
3459.800302964078
 21
437.9929999999984
 31
0.0
  0
LINE
  5
4531
330
1D9
100
AcDbEntity
  8
0
100
AcDbLine
 10
3467.400302964078
 20
424.9929999999984
 30
0.0
 11
3431.400302964076
 21
424.9929999999984
 31
0.0
  0
ARC
  5
4532
330
1D9
100
AcDbEntity
  8
0
100
AcDbCircle
 10
3449.400302964078
 20
424.9192734843945
 30
0.0
 40
13.07372651560491
100
AcDbArc
 50
57.88633960776937
 51
122.1136603922305
  0
ARC
  5
4533
330
1D9
100
AcDbEntity
  8
0
100
AcDbCircle
 10
3449.400302964078
 20
375.0807265156044
 30
0.0
 40
13.07372651560491
100
AcDbArc
 50
237.8863396077694
 51
302.1136603922306
  0
LINE
  5
4534
330
1D9
100
AcDbEntity
  8
0
100
AcDbLine
 10
3467.400302964078
 20
375.0069999999999
 30
0.0
 11
3431.400302964076
 21
375.0069999999999
 31
0.0
  0
LINE
  5
4535
330
1D9
100
AcDbEntity
  8
0
100
AcDbLine
 10
3439.000302964078
 20
362.0069999999981
 30
0.0
 11
3459.800302964078
 21
362.0069999999981
 31
0.0
  0
LINE
  5
4536
330
1D9
100
AcDbEntity
  8
0
100
AcDbLine
 10
3469.30353228114
 20
400.0
 30
0.0
 11
3429.400302964069
 21
400.0
 31
0.0
  0
ARC
  5
4537
330
1D9
100
AcDbEntity
  8
0
100
AcDbCircle
 10
3439.000315035498
 20
434.0177344394133
 30
0.0
 40
3.975265560603856
100
AcDbArc
 50
29.78869299830737
 51
150.2120074328121
  0
LINE
  5
4538
330
1D9
100
AcDbEntity
  8
0
100
AcDbLine
 10
3435.550302964077
 20
435.9926149381784
 30
0.0
 11
3435.550302964077
 21
424.9929999999984
 31
0.0
  0
LINE
  5
4539
330
1D9
100
AcDbEntity
  8
0
100
AcDbLine
 10
3442.450302964079
 20
435.9926571138388
 30
0.0
 11
3442.450302964079
 21
424.9929999999984
 31
0.0
  0
ARC
  5
453A
330
1D9
100
AcDbEntity
  8
0
100
AcDbCircle
 10
3431.400302964076
 20
422.9929999999986
 30
0.0
 40
2.0
100
AcDbArc
 50
90.0
 51
180.0
  0
LINE
  5
453B
330
1D9
100
AcDbEntity
  8
0
100
AcDbLine
 10
3442.450302964079
 20
364.0073428861601
 30
0.0
 11
3442.450302964079
 21
375.0069999999999
 31
0.0
  0
LINE
  5
453C
330
1D9
100
AcDbEntity
  8
0
100
AcDbLine
 10
3435.550302964077
 20
364.0073850618205
 30
0.0
 11
3435.550302964077
 21
375.0069999999999
 31
0.0
  0
ARC
  5
453D
330
1D9
100
AcDbEntity
  8
0
100
AcDbCircle
 10
3431.400302964076
 20
377.0069999999999
 30
0.0
 40
2.0
100
AcDbArc
 50
180.0
 51
270.0
  0
ARC
  5
453E
330
1D9
100
AcDbEntity
  8
0
100
AcDbCircle
 10
3439.000315035498
 20
365.9822655605858
 30
0.0
 40
3.975265560603856
100
AcDbArc
 50
209.7879925671878
 51
330.2113070016925
  0
ARC
  5
453F
330
1D9
100
AcDbEntity
  8
0
100
AcDbCircle
 10
3459.800290892899
 20
434.0177344389943
 30
0.0
 40
3.975265561022918
100
AcDbArc
 50
29.78799258514336
 51
150.2113069981829
  0
LINE
  5
4540
330
1D9
100
AcDbEntity
  8
0
100
AcDbLine
 10
3456.35030296408
 20
435.9926571138388
 30
0.0
 11
3456.35030296408
 21
424.9929999999984
 31
0.0
  0
LINE
  5
4541
330
1D9
100
AcDbEntity
  8
0
100
AcDbLine
 10
3463.250302964078
 20
435.992614939027
 30
0.0
 11
3463.250302964078
 21
424.9929999999984
 31
0.0
  0
ARC
  5
4542
330
1D9
100
AcDbEntity
  8
0
100
AcDbCircle
 10
3467.400302964078
 20
422.9929999999986
 30
0.0
 40
2.0
100
AcDbArc
 50
0.0
 51
90.0
  0
LINE
  5
4543
330
1D9
100
AcDbEntity
  8
0
100
AcDbLine
 10
3463.250302964078
 20
364.0073850609728
 30
0.0
 11
3463.250302964078
 21
375.0069999999999
 31
0.0
  0
ARC
  5
4544
330
1D9
100
AcDbEntity
  8
0
100
AcDbCircle
 10
3467.400302964078
 20
377.0069999999999
 30
0.0
 40
2.0
100
AcDbArc
 50
270.0
 51
0.0
  0
LINE
  5
4545
330
1D9
100
AcDbEntity
  8
0
100
AcDbLine
 10
3456.35030296408
 20
364.0073428861601
 30
0.0
 11
3456.35030296408
 21
375.0069999999999
 31
0.0
  0
ARC
  5
4546
330
1D9
100
AcDbEntity
  8
0
100
AcDbCircle
 10
3459.800290892899
 20
365.9822655610037
 30
0.0
 40
3.975265561022918
100
AcDbArc
 50
209.788693001817
 51
330.2120074148566
  0
LINE
  5
4547
330
1D9
100
AcDbEntity
  8
0
100
AcDbLine
 10
3459.295337010399
 20
539.5892860740501
 30
0.0
 11
3439.285922523419
 21
539.5728878116361
 31
0.0
  0
ARC
  5
4548
330
1D9
100
AcDbEntity
  8
0
100
AcDbCircle
 10
3439.29411779416
 20
529.5728911697601
 30
0.0
 40
10.0
100
AcDbArc
 50
90.04695544783777
 51
171.642919016492
  0
ARC
  5
454C
330
1D9
100
AcDbEntity
  8
0
100
AcDbCircle
 10
3471.30353160952
 20
518.0991198979709
 30
0.0
 40
2.0
100
AcDbArc
 50
120.0469554478024
 51
180.0469554477855
  0
LINE
  5
454F
330
1D9
100
AcDbEntity
  8
0
100
AcDbLine
 10
3467.758781307598
 20
536.0962209227769
 30
0.0
 11
3470.288780457998
 21
536.0982943262738
 31
0.0
  0
ARC
  5
4550
330
1D9
100
AcDbEntity
  8
0
100
AcDbCircle
 10
3467.757142253447
 20
538.0962202511546
 30
0.0
 40
2.000000000001584
100
AcDbArc
 50
225.1439554478401
 51
270.0469554477335
  0
LINE
  5
4551
330
1D9
100
AcDbEntity
  8
0
100
AcDbLine
 10
3485.28385825837
 20
542.11058521751
 30
0.0
 11
3486.284677449629
 21
541.1114050803957
 31
0.0
  0
LINE
  5
4552
330
1D9
100
AcDbEntity
  8
0
100
AcDbLine
 10
3470.28468282263
 20
541.0982926472115
 30
0.0
 11
3471.283862959738
 21
542.0991118384753
 31
0.0
  0
LINE
  5
4553
330
1D9
100
AcDbEntity
  8
0
100
AcDbLine
 10
3471.283862959738
 20
542.0991118384753
 30
0.0
 11
3485.28385825837
 21
542.11058521751
 31
0.0
  0
ARC
  5
4554
330
1D9
100
AcDbEntity
  8
0
100
AcDbCircle
 10
3459.303532281142
 20
529.5892894321723
 30
0.0
 40
10.0
100
AcDbArc
 50
0.0
 51
90.04695544783777
  0
LINE
  5
4555
330
1D9
100
AcDbEntity
  8
0
100
AcDbLine
 10
3520.497999999997
 20
400.0
 30
0.0
 11
3520.497999999997
 21
512.9307713425563
 31
0.0
  0
ARC
  5
4556
330
1D9
100
AcDbEntity
  8
0
100
AcDbCircle
 10
3491.300246784968
 20
522.1155090962009
 30
0.0
 40
2.0
100
AcDbArc
 50
270.0469554478376
 51
0.0469554477856718
  0
LINE
  5
4557
330
1D9
100
AcDbEntity
  8
0
100
AcDbLine
 10
3493.300246113347
 20
522.1171481503488
 30
0.0
 11
3493.290411788457
 21
534.1171441206011
 31
0.0
  0
ARC
  5
4558
330
1D9
100
AcDbEntity
  8
0
100
AcDbCircle
 10
3491.290412460078
 20
534.1155050664529
 30
0.0
 40
2.0
100
AcDbArc
 50
0.0469554477856718
 51
90.04695544783777
  0
LINE
  5
4559
330
1D9
100
AcDbEntity
  8
0
100
AcDbLine
 10
3523.497999999997
 20
512.9307713425563
 30
0.0
 11
3520.497999999997
 21
512.9307713425563
 31
0.0
  0
ARC
  5
455A
330
1D9
100
AcDbEntity
  8
0
100
AcDbCircle
 10
3523.497999999997
 20
514.9307713425546
 30
0.0
 40
2.0
100
AcDbArc
 50
270.0
 51
0.0
  0
LINE
  5
455B
330
1D9
100
AcDbEntity
  8
0
100
AcDbLine
 10
3623.449383287882
 20
226.4999999999968
 30
0.0
 11
3623.449794442368
 21
399.9999999999968
 31
0.0
  0
LINE
  5
455C
330
1D9
100
AcDbEntity
  8
0
100
AcDbLine
 10
3730.244387146358
 20
288.4994104249353
 30
0.0
 11
3730.244387146358
 21
399.9313072281088
 31
0.0
  0
LINE
  5
455D
330
1D9
100
AcDbEntity
  8
0
100
AcDbLine
 10
3649.447999999999
 20
246.442738268101
 30
0.0
 11
3649.447999999999
 21
399.9307713425558
 31
0.0
  0
ARC
  5
455E
330
1D9
100
AcDbEntity
  8
0
100
AcDbCircle
 10
3657.492935300769
 20
240.5198253553689
 30
0.0
 40
9.990089157025591
100
AcDbArc
 50
102.0224233163262
 51
170.7482325695847
  0
ARC
  5
455F
330
1D9
100
AcDbEntity
  8
0
100
AcDbCircle
 10
3642.697999999999
 20
242.930771342556
 30
0.0
 40
5.0
100
AcDbArc
 50
269.9971000000195
 51
350.7372700000093
  0
LINE
  5
4560
330
1D9
100
AcDbEntity
  8
0
100
AcDbLine
 10
3622.617999999998
 20
237.0507713425558
 30
0.0
 11
3617.877999999999
 21
232.310771342556
 31
0.0
  0
ARC
  5
4561
330
1D9
100
AcDbEntity
  8
0
100
AcDbCircle
 10
3615.760430451011
 20
234.4185525287625
 30
0.0
 40
2.987782174748258
100
AcDbArc
 50
269.9533919836446
 51
315.1327300164532
  0
ARC
  5
4562
330
1D9
100
AcDbEntity
  8
0
100
AcDbCircle
 10
3624.735568450127
 20
234.9429922249869
 30
0.0
 40
2.987779936586356
100
AcDbArc
 50
89.95738723760235
 51
135.1327432661429
  0
LINE
  5
4563
330
1D9
100
AcDbEntity
  8
0
100
AcDbLine
 10
3624.73779056049
 20
237.930771335244
 30
0.0
 11
3642.697746927258
 21
237.9307713489611
 31
0.0
  0
ARC
  5
4564
330
1D9
100
AcDbEntity
  8
0
100
AcDbCircle
 10
3623.449794442368
 20
400.0
 30
0.0
 40
153.0830905786968
100
AcDbArc
 50
282.0515339505781
 51
311.7019517111526
  0
LINE
  5
4565
330
1D9
100
AcDbEntity
  8
0
100
AcDbLine
 10
3730.244387146349
 20
511.5005895750669
 30
0.0
 11
3730.244387146358
 21
400.0686927718921
 31
0.0
  0
LINE
  5
4566
330
1D9
100
AcDbEntity
  8
0
100
AcDbLine
 10
2294.878679656442
 20
260.8786796564408
 30
0.0
 11
2299.621320343566
 21
265.6213203435608
 31
0.0
  0
LINE
  5
4567
330
1D9
100
AcDbEntity
  8
0
100
AcDbLine
 10
3615.758000000001
 20
568.4307713425563
 30
0.0
 11
3546.497999999997
 21
568.4307713425563
 31
0.0
  0
ARC
  5
4568
330
1D9
100
AcDbEntity
  8
0
100
AcDbCircle
 10
3535.497999999996
 20
543.4307713425563
 30
0.0
 40
10.0
100
AcDbArc
 50
90.0
 51
180.0
  0
LINE
  5
4569
330
1D9
100
AcDbEntity
  8
0
100
AcDbLine
 10
3543.497999999996
 20
567.430771342556
 30
0.0
 11
3540.497999999996
 21
567.430771342556
 31
0.0
  0
ARC
  5
456A
330
1D9
100
AcDbEntity
  8
0
100
AcDbCircle
 10
3546.497999999997
 20
565.4307713425565
 30
0.0
 40
3.0
100
AcDbArc
 50
90.0
 51
180.0
  0
LINE
  5
456B
330
1D9
100
AcDbEntity
  8
0
100
AcDbLine
 10
3535.497999999996
 20
553.430771342556
 30
0.0
 11
3535.497999999996
 21
553.430771342556
 31
0.0
  0
LINE
  5
456C
330
1D9
100
AcDbEntity
  8
0
100
AcDbLine
 10
3543.497999999996
 20
551.9307713425559
 30
0.0
 11
3543.497999999996
 21
565.4307713425565
 31
0.0
  0
ARC
  5
456D
330
1D9
100
AcDbEntity
  8
0
100
AcDbCircle
 10
3535.497999999996
 20
558.430771342556
 30
0.0
 40
5.0
100
AcDbArc
 50
270.0
 51
0.0
  0
ARC
  5
456E
330
1D9
100
AcDbEntity
  8
0
100
AcDbCircle
 10
2220.771460196615
 20
289.9264000000006
 30
0.0
 40
12.57983999999999
100
AcDbArc
 50
180.0
 51
270.0
  0
LINE
  5
456F
330
1D9
100
AcDbEntity
  8
0
100
AcDbLine
 10
2174.159347925518
 20
283.5075189220388
 30
0.0
 11
2175.159347925518
 21
284.5075189220386
 31
0.0
  0
LINE
  5
4570
330
1D9
100
AcDbEntity
  8
0
100
AcDbLine
 10
2179.159347925527
 20
305.5075189220388
 30
0.0
 11
2159.159347925526
 21
305.5075189220388
 31
0.0
  0
LINE
  5
4571
330
1D9
100
AcDbEntity
  8
0
100
AcDbLine
 10
2179.159347925527
 20
289.5075189220388
 30
0.0
 11
2159.159347925526
 21
289.5075189220388
 31
0.0
  0
LINE
  5
4572
330
1D9
100
AcDbEntity
  8
0
100
AcDbLine
 10
2175.159347925518
 20
306.5075189220388
 30
0.0
 11
2169.159347925517
 21
310.5075189220388
 31
0.0
  0
LINE
  5
4573
330
1D9
100
AcDbEntity
  8
0
100
AcDbLine
 10
2159.159347925526
 20
310.5075189220388
 30
0.0
 11
2175.159347925518
 21
310.5075189220388
 31
0.0
  0
LINE
  5
4574
330
1D9
100
AcDbEntity
  8
0
100
AcDbLine
 10
2158.159347925527
 20
315.499999999999
 30
0.0
 11
2201.901700196616
 21
315.5000000000004
 31
0.0
  0
ARC
  5
4575
330
1D9
100
AcDbEntity
  8
0
100
AcDbCircle
 10
2148.159347925527
 20
297.6037594610188
 30
0.0
 40
10.0
100
AcDbArc
 50
270.0
 51
0.0
  0
LINE
  5
4576
330
1D9
100
AcDbEntity
  8
0
100
AcDbLine
 10
2160.159347925527
 20
283.5075189220388
 30
0.0
 11
2174.159347925518
 21
283.5075189220388
 31
0.0
  0
LINE
  5
4577
330
1D9
100
AcDbEntity
  8
0
100
AcDbLine
 10
2159.159347925526
 20
284.5075189220386
 30
0.0
 11
2160.159347925527
 21
283.5075189220388
 31
0.0
  0
LINE
  5
4578
330
1D9
100
AcDbEntity
  8
0
100
AcDbLine
 10
2159.159347925526
 20
289.5075189220373
 30
0.0
 11
2159.159347925526
 21
284.5075189220386
 31
0.0
  0
LINE
  5
4579
330
1D9
100
AcDbEntity
  8
0
100
AcDbLine
 10
2159.159347925526
 20
289.5075189220388
 30
0.0
 11
2153.419347925516
 21
289.5075189220388
 31
0.0
  0
LINE
  5
457A
330
1D9
100
AcDbEntity
  8
0
100
AcDbLine
 10
2165.159347925527
 20
310.5075189220388
 30
0.0
 11
2159.159347925526
 21
306.5075189220388
 31
0.0
  0
LINE
  5
457B
330
1D9
100
AcDbEntity
  8
0
100
AcDbLine
 10
2159.159347925526
 20
306.5075189220388
 30
0.0
 11
2159.159347925526
 21
305.5075189220378
 31
0.0
  0
ARC
  5
457C
330
1D9
100
AcDbEntity
  8
0
100
AcDbCircle
 10
2161.159347925527
 20
308.5075189220388
 30
0.0
 40
3.0
100
AcDbArc
 50
180.0
 51
228.1899999999976
  0
LINE
  5
457D
330
1D9
100
AcDbEntity
  8
0
100
AcDbLine
 10
2159.159347925526
 20
315.5000000000004
 30
0.0
 11
2159.159347925526
 21
310.5075189220388
 31
0.0
  0
ARC
  5
457E
330
1D9
100
AcDbEntity
  8
0
100
AcDbCircle
 10
2179.159347925527
 20
302.5075189220387
 30
0.0
 40
3.0
100
AcDbArc
 50
0.0
 51
90.0
  0
ARC
  5
457F
330
1D9
100
AcDbEntity
  8
0
100
AcDbCircle
 10
2179.159347925527
 20
292.5075189220386
 30
0.0
 40
3.0
100
AcDbArc
 50
270.0
 51
0.0
  0
LINE
  5
4580
330
1D9
100
AcDbEntity
  8
0
100
AcDbLine
 10
2175.159347925518
 20
305.5075189220388
 30
0.0
 11
2175.159347925518
 21
306.5075189220388
 31
0.0
  0
LINE
  5
4581
330
1D9
100
AcDbEntity
  8
0
100
AcDbLine
 10
2182.159347925527
 20
292.5075189220386
 30
0.0
 11
2182.159347925527
 21
302.5075189220387
 31
0.0
  0
LINE
  5
4582
330
1D9
100
AcDbEntity
  8
0
100
AcDbLine
 10
2175.159347925518
 20
284.5075189220386
 30
0.0
 11
2175.159347925518
 21
289.5075189220388
 31
0.0
  0
LINE
  5
4583
330
1D9
100
AcDbEntity
  8
0
100
AcDbLine
 10
2175.159347925518
 20
310.5075189220388
 30
0.0
 11
2175.159347925526
 21
315.5000000000004
 31
0.0
  0
LINE
  5
4584
330
1D9
100
AcDbEntity
  8
0
100
AcDbLine
 10
2205.675652196615
 20
311.5017756156898
 30
0.0
 11
2201.901700196616
 21
311.5017756156898
 31
0.0
  0
ARC
  5
4585
330
1D9
100
AcDbEntity
  8
0
100
AcDbCircle
 10
2205.675652196615
 20
308.9858076156896
 30
0.0
 40
2.515967999999999
100
AcDbArc
 50
0.0
 51
90.0
  0
LINE
  5
4586
330
1D9
100
AcDbEntity
  8
0
100
AcDbLine
 10
2292.757359312886
 20
260.0000000000004
 30
0.0
 11
2233.499999999995
 21
260.0000000000004
 31
0.0
  0
ARC
  5
4587
330
1D9
100
AcDbEntity
  8
0
100
AcDbCircle
 10
2220.771460196615
 20
271.0566400000002
 30
0.0
 40
6.289919999999998
100
AcDbArc
 50
0.0
 51
90.0
  0
LINE
  5
4588
330
1D9
100
AcDbEntity
  8
0
100
AcDbLine
 10
2230.835332196616
 20
261.62176
 30
0.0
 11
2227.061380196615
 21
261.62176
 31
0.0
  0
ARC
  5
4589
330
1D9
100
AcDbEntity
  8
0
100
AcDbCircle
 10
2233.500000000003
 20
263.0000000000018
 30
0.0
 40
3.0
100
AcDbArc
 50
180.000000000026
 51
270.0
  0
ARC
  5
458A
330
1D9
100
AcDbEntity
  8
0
100
AcDbCircle
 10
2292.757359312886
 20
263.0
 30
0.0
 40
3.0
100
AcDbArc
 50
270.0
 51
314.9999999999954
  0
ARC
  5
458B
330
1D9
100
AcDbEntity
  8
0
100
AcDbCircle
 10
3657.507255251088
 20
559.3488377048088
 30
0.0
 40
10.0053687050069
100
AcDbArc
 50
189.2788279522357
 51
257.9161376385048
  0
ARC
  5
458C
330
1D9
100
AcDbEntity
  8
0
100
AcDbCircle
 10
3642.697999999999
 20
556.9307713425558
 30
0.0
 40
5.0
100
AcDbArc
 50
9.262729999990641
 51
90.00289999998043
  0
ARC
  5
458D
330
1D9
100
AcDbEntity
  8
0
100
AcDbCircle
 10
3615.760430451011
 20
565.442990156349
 30
0.0
 40
2.987782174747191
100
AcDbArc
 50
44.8672699835467
 51
90.04660801635521
  0
ARC
  5
458E
330
1D9
100
AcDbEntity
  8
0
100
AcDbCircle
 10
3624.735568450127
 20
564.9185504601249
 30
0.0
 40
2.987779936586356
100
AcDbArc
 50
224.8672567338569
 51
270.0426127623976
  0
LINE
  5
458F
330
1D9
100
AcDbEntity
  8
0
100
AcDbLine
 10
3622.617999999998
 20
562.8107713425561
 30
0.0
 11
3617.877999999999
 21
567.5507713425568
 31
0.0
  0
LINE
  5
4590
330
1D9
100
AcDbEntity
  8
0
100
AcDbLine
 10
3624.73779056049
 20
561.9307713498669
 30
0.0
 11
3642.697746927258
 21
561.9307713361522
 31
0.0
  0
ARC
  5
4591
330
1D9
100
AcDbEntity
  8
0
100
AcDbCircle
 10
2300.499999999995
 20
400.0
 30
0.0
 40
125.0
100
AcDbArc
 50
284.0604643721476
 51
313.9694002069365
  0
ARC
  5
4592
330
1D9
100
AcDbEntity
  8
0
100
AcDbCircle
 10
2333.297671671366
 20
269.0446154870396
 30
0.0
 40
10.0
100
AcDbArc
 50
104.0604643721476
 51
170.5787240067956
  0
ARC
  5
4593
330
1D9
100
AcDbEntity
  8
0
100
AcDbCircle
 10
2318.499999999996
 20
271.5000000000003
 30
0.0
 40
5.0
100
AcDbArc
 50
270.0
 51
350.5787240067956
  0
ARC
  5
4594
330
1D9
100
AcDbEntity
  8
0
100
AcDbCircle
 10
2301.742640687125
 20
263.5
 30
0.0
 40
3.0
100
AcDbArc
 50
90.0
 51
134.9999999999952
  0
LINE
  5
4595
330
1D9
100
AcDbEntity
  8
0
100
AcDbLine
 10
2301.742640687125
 20
266.5
 30
0.0
 11
2318.499999999996
 21
266.5
 31
0.0
  0
LINE
  5
4596
330
1D9
100
AcDbEntity
  8
0
100
AcDbLine
 10
2420.396400519874
 20
310.1337198707115
 30
0.0
 11
2400.542974172165
 21
313.9683083414701
 31
0.0
  0
ARC
  5
4597
330
1D9
100
AcDbEntity
  8
0
100
AcDbCircle
 10
2397.698373392349
 20
299.2405031280818
 30
0.0
 40
15.0
100
AcDbArc
 50
79.06822120449544
 51
133.9694002069364
  0
LINE
  5
4598
330
1D9
100
AcDbEntity
  8
0
100
AcDbLine
 10
2450.500000000003
 20
294.0
 30
0.0
 11
2447.500000000005
 21
294.0
 31
0.0
  0
ARC
  5
4599
330
1D9
100
AcDbEntity
  8
0
100
AcDbCircle
 10
2418.499999999996
 20
300.315183061787
 30
0.0
 40
10.0
100
AcDbArc
 50
0.0
 51
79.06822120449544
  0
LINE
  5
459A
330
1D9
100
AcDbEntity
  8
0
100
AcDbLine
 10
2447.500000000005
 20
260.0000000000004
 30
0.0
 11
2428.499999999996
 21
260.0000000000004
 31
0.0
  0
LINE
  5
459B
330
1D9
100
AcDbEntity
  8
0
100
AcDbLine
 10
482.5000000000064
 20
566.5
 30
0.0
 11
500.4999999999991
 21
566.5
 31
0.0
  0
LINE
  5
459C
330
1D9
100
AcDbEntity
  8
0
100
AcDbLine
 10
482.5000000000064
 20
233.4999999999991
 30
0.0
 11
500.4999999999991
 21
233.4999999999991
 31
0.0
  0
LINE
  5
459D
330
1D9
100
AcDbEntity
  8
0
100
AcDbLine
 10
1778.242640687126
 20
539.9999999999989
 30
0.0
 11
1837.500000000003
 21
539.9999999999989
 31
0.0
  0
LINE
  5
459E
330
1D9
100
AcDbEntity
  8
0
100
AcDbLine
 10
3310.999000000001
 20
1736.955334987591
 30
0.0
 11
3255.999005235984
 21
1736.955334987587
 31
0.0
  0
LINE
  5
459F
330
1D9
100
AcDbEntity
  8
0
100
AcDbLine
 10
3310.999000000001
 20
1514.955334987591
 30
0.0
 11
3255.998999999992
 21
1514.955334987591
 31
0.0
  0
LINE
  5
45A0
330
1D9
100
AcDbEntity
  8
0
100
AcDbLine
 10
3083.0
 20
1625.955334987593
 30
0.0
 11
3922.999
 21
1625.955334987593
 31
0.0
  0
LINE
  5
45A2
330
1D9
100
AcDbEntity
  8
0
100
AcDbLine
 10
482.5000000000064
 20
566.5
 30
0.0
 11
482.5000000000064
 21
400.0
 31
0.0
  0
LINE
  5
45A3
330
1D9
100
AcDbEntity
  8
0
100
AcDbLine
 10
435.3148510533592
 20
520.7854138018436
 30
0.0
 11
435.3148510533592
 21
400.0
 31
0.0
  0
LINE
  5
45A4
330
1D9
100
AcDbEntity
  8
0
100
AcDbLine
 10
348.499999999999
 20
472.0
 30
0.0
 11
348.499999999999
 21
400.0
 31
0.0
  0
LINE
  5
45A5
330
1D9
100
AcDbEntity
  8
0
100
AcDbLine
 10
365.3187884197905
 20
474.0123357327767
 30
0.0
 11
365.3187884197905
 21
400.0
 31
0.0
  0
LINE
  5
45A6
330
1D9
100
AcDbEntity
  8
0
100
AcDbLine
 10
467.499999999999
 20
576.4999999999998
 30
0.0
 11
467.499999999999
 21
400.0
 31
0.0
  0
LINE
  5
45A7
330
1D9
100
AcDbEntity
  8
0
100
AcDbLine
 10
456.5000000000008
 20
563.4999999999998
 30
0.0
 11
456.5000000000008
 21
400.0
 31
0.0
  0
LINE
  5
45A8
330
1D9
100
AcDbEntity
  8
0
100
AcDbLine
 10
302.4999999999991
 20
490.9999999999991
 30
0.0
 11
302.4999999999991
 21
400.0
 31
0.0
  0
LINE
  5
45A9
330
1D9
100
AcDbEntity
  8
0
100
AcDbLine
 10
304.4999999999991
 20
525.0
 30
0.0
 11
304.4999999999991
 21
400.0
 31
0.0
  0
LINE
  5
45AA
330
1D9
100
AcDbEntity
  8
0
100
AcDbLine
 10
322.499999999999
 20
522.0
 30
0.0
 11
322.499999999999
 21
400.0
 31
0.0
  0
LINE
  5
45AB
330
1D9
100
AcDbEntity
  8
0
100
AcDbLine
 10
477.499999999999
 20
566.5
 30
0.0
 11
477.499999999999
 21
400.0
 31
0.0
  0
ARC
  5
45AC
330
1D9
100
AcDbEntity
  8
0
100
AcDbCircle
 10
1652.499999999996
 20
499.6848169382118
 30
0.0
 40
10.0
100
AcDbArc
 50
180.0
 51
259.0682212044953
  0
LINE
  5
45B0
330
1D9
100
AcDbEntity
  8
0
100
AcDbLine
 10
1623.500000000003
 20
539.9999999999989
 30
0.0
 11
1623.500000000003
 21
400.0
 31
0.0
  0
LINE
  5
45B1
330
1D9
100
AcDbEntity
  8
0
100
AcDbLine
 10
1642.500000000002
 20
537.9999999999982
 30
0.0
 11
1642.500000000002
 21
400.0
 31
0.0
  0
LINE
  5
45B3
330
1D9
100
AcDbEntity
  8
0
100
AcDbLine
 10
1620.499999999996
 20
505.999999999998
 30
0.0
 11
1620.499999999996
 21
400.0
 31
0.0
  0
LINE
  5
45B4
330
1D9
100
AcDbEntity
  8
0
100
AcDbLine
 10
1620.499999999996
 20
505.999999999998
 30
0.0
 11
1623.500000000003
 21
505.999999999998
 31
0.0
  0
ARC
  5
45B5
330
1D9
100
AcDbEntity
  8
0
100
AcDbCircle
 10
1640.499999999996
 20
537.9999999999982
 30
0.0
 40
2.0
100
AcDbArc
 50
0.0
 51
90.0
  0
LINE
  5
45B6
330
1D9
100
AcDbEntity
  8
0
100
AcDbLine
 10
1623.500000000003
 20
539.9999999999989
 30
0.0
 11
1640.499999999996
 21
539.9999999999989
 31
0.0
  0
LINE
  5
45B7
330
1D9
100
AcDbEntity
  8
0
100
AcDbLine
 10
1770.500000000003
 20
400.0
 30
0.0
 11
1770.500000000003
 21
516.0000000000008
 31
0.0
  0
LINE
  5
45B8
330
1D9
100
AcDbEntity
  8
0
100
AcDbLine
 10
1777.000000000003
 20
539.7305391633726
 30
0.0
 11
1777.000000000003
 21
400.0
 31
0.0
  0
ARC
  5
45B9
330
1D9
100
AcDbEntity
  8
0
100
AcDbCircle
 10
1770.500000000003
 20
400.0
 30
0.0
 40
125.0
100
AcDbArc
 50
104.0604643721476
 51
133.9694002069364
  0
LINE
  5
45BA
330
1D9
100
AcDbEntity
  8
0
100
AcDbLine
 10
1747.499999999996
 20
528.499999999998
 30
0.0
 11
1747.499999999996
 21
400.0
 31
0.0
  0
LINE
  5
45BB
330
1D9
100
AcDbEntity
  8
0
100
AcDbLine
 10
1770.500000000003
 20
555.989907640246
 30
0.0
 11
1770.500000000003
 21
400.0
 31
0.0
  0
LINE
  5
45BC
330
1D9
100
AcDbEntity
  8
0
100
AcDbLine
 10
1678.387297292935
 20
400.0
 30
0.0
 11
1678.387297292935
 21
486.6479429645386
 31
0.0
  0
ARC
  5
45BD
330
1D9
100
AcDbEntity
  8
0
100
AcDbCircle
 10
1673.301626607655
 20
500.7594968719168
 30
0.0
 40
15.0
100
AcDbArc
 50
259.0682212044953
 51
313.9694002069365
  0
LINE
  5
45BE
330
1D9
100
AcDbEntity
  8
0
100
AcDbLine
 10
1650.603599480126
 20
489.8662801292885
 30
0.0
 11
1670.457025827836
 21
486.0316916585325
 31
0.0
  0
ARC
  5
45BF
330
1D9
100
AcDbEntity
  8
0
100
AcDbCircle
 10
1769.257359312887
 20
536.499999999998
 30
0.0
 40
3.0
100
AcDbArc
 50
270.0
 51
314.9999999999954
  0
ARC
  5
45C0
330
1D9
100
AcDbEntity
  8
0
100
AcDbCircle
 10
1737.702328328635
 20
530.9553845129593
 30
0.0
 40
10.0
100
AcDbArc
 50
284.0604643721476
 51
350.5787240067956
  0
ARC
  5
45C1
330
1D9
100
AcDbEntity
  8
0
100
AcDbCircle
 10
1752.499999999996
 20
528.499999999998
 30
0.0
 40
5.0
100
AcDbArc
 50
90.0
 51
170.5787240067956
  0
LINE
  5
45C2
330
1D9
100
AcDbEntity
  8
0
100
AcDbLine
 10
1769.257359312887
 20
533.5000000000007
 30
0.0
 11
1752.499999999996
 21
533.5000000000007
 31
0.0
  0
ARC
  5
45C3
330
1D9
100
AcDbEntity
  8
0
100
AcDbCircle
 10
1778.242640687126
 20
536.9999999999992
 30
0.0
 40
3.0
100
AcDbArc
 50
90.0
 51
134.9999999999952
  0
LINE
  5
45C4
330
1D9
100
AcDbEntity
  8
0
100
AcDbLine
 10
1776.121320343565
 20
539.121320343559
 30
0.0
 11
1771.378679656443
 21
534.3786796564399
 31
0.0
  0
LINE
  5
45C5
330
1D9
100
AcDbEntity
  8
0
100
AcDbLine
 10
330.6115260635086
 20
324.5599088583638
 30
0.0
 11
348.499999999999
 21
327.999999999999
 31
0.0
  0
LINE
  5
45C7
330
1D9
100
AcDbEntity
  8
0
100
AcDbLine
 10
302.4999999999991
 20
308.999999999999
 30
0.0
 11
302.4999999999991
 21
400.0
 31
0.0
  0
LINE
  5
45C8
330
1D9
100
AcDbEntity
  8
0
100
AcDbLine
 10
304.4999999999991
 20
275.0
 30
0.0
 11
304.4999999999991
 21
400.0
 31
0.0
  0
LINE
  5
45C9
330
1D9
100
AcDbEntity
  8
0
100
AcDbLine
 10
322.499999999999
 20
278.0
 30
0.0
 11
322.499999999999
 21
400.0
 31
0.0
  0
ARC
  5
45CA
330
1D9
100
AcDbEntity
  8
0
100
AcDbCircle
 10
319.5000000000063
 20
278.0
 30
0.0
 40
3.0
100
AcDbArc
 50
270.0
 51
0.0
  0
ARC
  5
45CB
330
1D9
100
AcDbEntity
  8
0
100
AcDbCircle
 10
332.5000000000073
 20
314.7398443885577
 30
0.0
 40
10.0
100
AcDbArc
 50
100.8855270546862
 51
180.0
  0
LINE
  5
45CC
330
1D9
100
AcDbEntity
  8
0
100
AcDbLine
 10
302.4999999999991
 20
308.999999999999
 30
0.0
 11
304.4999999999991
 21
308.999999999999
 31
0.0
  0
LINE
  5
45CD
330
1D9
100
AcDbEntity
  8
0
100
AcDbLine
 10
304.4999999999991
 20
275.0
 30
0.0
 11
319.5000000000063
 21
275.0
 31
0.0
  0
ARC
  5
45CE
330
1D9
100
AcDbEntity
  8
0
100
AcDbCircle
 10
450.4760000000096
 20
240.5999999999976
 30
0.0
 40
3.975619999999998
100
AcDbArc
 50
119.7969999999761
 51
240.2020000000284
  0
LINE
  5
45CF
330
1D9
100
AcDbEntity
  8
0
100
AcDbLine
 10
446.5010000000074
 20
261.3999999999995
 30
0.0
 11
446.5010000000074
 21
240.5999999999976
 31
0.0
  0
LINE
  5
45D0
330
1D9
100
AcDbEntity
  8
0
100
AcDbLine
 10
482.5000000000064
 20
233.4999999999991
 30
0.0
 11
482.5000000000064
 21
400.0
 31
0.0
  0
LINE
  5
45D1
330
1D9
100
AcDbEntity
  8
0
100
AcDbLine
 10
477.499999999999
 20
233.4999999999991
 30
0.0
 11
477.499999999999
 21
400.0
 31
0.0
  0
LINE
  5
45D2
330
1D9
100
AcDbEntity
  8
0
100
AcDbLine
 10
456.5000000000008
 20
236.5
 30
0.0
 11
456.5000000000008
 21
400.0
 31
0.0
  0
LINE
  5
45D3
330
1D9
100
AcDbEntity
  8
0
100
AcDbLine
 10
467.499999999999
 20
223.499999999999
 30
0.0
 11
467.499999999999
 21
400.0
 31
0.0
  0
LINE
  5
45D4
330
1D9
100
AcDbEntity
  8
0
100
AcDbLine
 10
448.5010000000074
 20
237.1499999999995
 30
0.0
 11
456.5000000000008
 21
237.1499999999995
 31
0.0
  0
LINE
  5
45D5
330
1D9
100
AcDbEntity
  8
0
100
AcDbLine
 10
477.499999999999
 20
233.4999999999991
 30
0.0
 11
459.499999999999
 21
233.4999999999991
 31
0.0
  0
ARC
  5
45D6
330
1D9
100
AcDbEntity
  8
0
100
AcDbCircle
 10
459.5000000000071
 20
236.4999999999971
 30
0.0
 40
3.0
100
AcDbArc
 50
179.9999999999739
 51
270.0
  0
ARC
  5
45D7
330
1D9
100
AcDbEntity
  8
0
100
AcDbCircle
 10
467.499999999999
 20
400.0
 30
0.0
 40
125.0
100
AcDbArc
 50
218.4205315395022
 51
255.0793427037993
  0
LINE
  5
45D8
330
1D9
100
AcDbEntity
  8
0
100
AcDbLine
 10
365.3187884197905
 20
325.9876642672216
 30
0.0
 11
365.3187884197905
 21
400.0
 31
0.0
  0
LINE
  5
45D9
330
1D9
100
AcDbEntity
  8
0
100
AcDbLine
 10
348.499999999999
 20
327.999999999999
 30
0.0
 11
348.499999999999
 21
400.0
 31
0.0
  0
LINE
  5
45DA
330
1D9
100
AcDbEntity
  8
0
100
AcDbLine
 10
357.8140847692774
 20
327.999999999999
 30
0.0
 11
348.499999999999
 21
327.999999999999
 31
0.0
  0
ARC
  5
45DB
330
1D9
100
AcDbEntity
  8
0
100
AcDbCircle
 10
357.8140847692774
 20
312.9999999999991
 30
0.0
 40
15.0
100
AcDbArc
 50
38.42053153950232
 51
90.0
  0
LINE
  5
45DC
330
1D9
100
AcDbEntity
  8
0
100
AcDbLine
 10
435.3148510533592
 20
279.2145861981552
 30
0.0
 11
435.3148510533592
 21
400.0
 31
0.0
  0
LINE
  5
45DD
330
1D9
100
AcDbEntity
  8
0
100
AcDbLine
 10
448.5010000000074
 20
244.0499999999983
 30
0.0
 11
456.5010000000074
 21
244.0499999999983
 31
0.0
  0
LINE
  5
45DE
330
1D9
100
AcDbEntity
  8
0
100
AcDbLine
 10
448.5010000000074
 20
264.8499999999984
 30
0.0
 11
455.3164399366487
 21
264.8499999999984
 31
0.0
  0
LINE
  5
45DF
330
1D9
100
AcDbEntity
  8
0
100
AcDbLine
 10
448.5010000000074
 20
257.9499999999998
 30
0.0
 11
456.5010000000074
 21
257.9499999999998
 31
0.0
  0
LINE
  5
45E0
330
1D9
100
AcDbEntity
  8
0
100
AcDbLine
 10
435.3148510533592
 20
279.2145861981552
 30
0.0
 11
456.5000000000008
 21
258.0294372515244
 31
0.0
  0
LINE
  5
45E1
330
1D9
100
AcDbEntity
  8
0
100
AcDbLine
 10
456.5000000000008
 20
263.999999999999
 30
0.0
 11
435.3148510533592
 21
279.2145861981552
 31
0.0
  0
ARC
  5
45E2
330
1D9
100
AcDbEntity
  8
0
100
AcDbCircle
 10
450.4760000000096
 20
261.3999999999995
 30
0.0
 40
3.975619999999998
100
AcDbArc
 50
119.7969999999761
 51
240.2020000000284
  0
ARC
  5
45E3
330
1D9
100
AcDbEntity
  8
0
100
AcDbCircle
 10
459.5760000000099
 20
251.0
 30
0.0
 40
13.0756
100
AcDbArc
 50
147.8910000000072
 51
212.1079999999746
  0
LINE
  5
45E4
330
1D9
100
AcDbEntity
  8
0
100
AcDbLine
 10
477.499999999999
 20
243.0
 30
0.0
 11
482.5000000000064
 21
243.0
 31
0.0
  0
LINE
  5
45E5
330
1D9
100
AcDbEntity
  8
0
100
AcDbLine
 10
477.499999999999
 20
259.0
 30
0.0
 11
482.5000000000064
 21
259.0
 31
0.0
  0
LINE
  5
45E6
330
1D9
100
AcDbEntity
  8
0
100
AcDbLine
 10
477.499999999999
 20
271.0
 30
0.0
 11
482.5000000000064
 21
271.0
 31
0.0
  0
LINE
  5
45E7
330
1D9
100
AcDbEntity
  8
0
100
AcDbLine
 10
330.6115260635086
 20
475.4400911416341
 30
0.0
 11
348.499999999999
 21
472.0
 31
0.0
  0
ARC
  5
45EC
330
1D9
100
AcDbEntity
  8
0
100
AcDbCircle
 10
332.5000000000073
 20
485.2601556114414
 30
0.0
 40
10.0
100
AcDbArc
 50
180.0
 51
259.1144729453137
  0
LINE
  5
45ED
330
1D9
100
AcDbEntity
  8
0
100
AcDbLine
 10
302.4999999999991
 20
490.9999999999991
 30
0.0
 11
304.4999999999991
 21
490.9999999999991
 31
0.0
  0
ARC
  5
45EE
330
1D9
100
AcDbEntity
  8
0
100
AcDbCircle
 10
319.5000000000063
 20
522.0
 30
0.0
 40
3.0
100
AcDbArc
 50
0.0
 51
90.0
  0
LINE
  5
45EF
330
1D9
100
AcDbEntity
  8
0
100
AcDbLine
 10
304.4999999999991
 20
525.0
 30
0.0
 11
319.5000000000063
 21
525.0
 31
0.0
  0
ARC
  5
45F0
330
1D9
100
AcDbEntity
  8
0
100
AcDbCircle
 10
467.499999999999
 20
400.0
 30
0.0
 40
125.0
100
AcDbArc
 50
104.9206572962005
 51
141.5794684604976
  0
ARC
  5
45F1
330
1D9
100
AcDbEntity
  8
0
100
AcDbCircle
 10
357.8140847692774
 20
487.0
 30
0.0
 40
15.0
100
AcDbArc
 50
270.0
 51
321.5794684604976
  0
LINE
  5
45F2
330
1D9
100
AcDbEntity
  8
0
100
AcDbLine
 10
357.8140847692774
 20
472.0
 30
0.0
 11
348.499999999999
 21
472.0
 31
0.0
  0
LINE
  5
45F3
330
1D9
100
AcDbEntity
  8
0
100
AcDbLine
 10
456.5000000000008
 20
535.9999999999992
 30
0.0
 11
435.3148510533592
 21
520.7854138018436
 31
0.0
  0
LINE
  5
45F4
330
1D9
100
AcDbEntity
  8
0
100
AcDbLine
 10
435.3148510533592
 20
520.7854138018436
 30
0.0
 11
456.5000000000008
 21
541.9705627484753
 31
0.0
  0
LINE
  5
45F5
330
1D9
100
AcDbEntity
  8
0
100
AcDbLine
 10
448.5010000000074
 20
542.0500000000002
 30
0.0
 11
456.5010000000074
 21
542.0500000000002
 31
0.0
  0
LINE
  5
45F6
330
1D9
100
AcDbEntity
  8
0
100
AcDbLine
 10
448.5010000000074
 20
535.1499999999987
 30
0.0
 11
455.380000000001
 21
535.1499999999987
 31
0.0
  0
LINE
  5
45F7
330
1D9
100
AcDbEntity
  8
0
100
AcDbLine
 10
448.5010000000074
 20
562.8500000000013
 30
0.0
 11
456.5010000000074
 21
562.8500000000013
 31
0.0
  0
LINE
  5
45F8
330
1D9
100
AcDbEntity
  8
0
100
AcDbLine
 10
448.5010000000074
 20
555.9500000000016
 30
0.0
 11
456.5010000000074
 21
555.9500000000016
 31
0.0
  0
ARC
  5
45F9
330
1D9
100
AcDbEntity
  8
0
100
AcDbCircle
 10
450.4760000000096
 20
538.5999999999984
 30
0.0
 40
3.975619999999998
100
AcDbArc
 50
119.7969999999761
 51
240.2020000000284
  0
ARC
  5
45FA
330
1D9
100
AcDbEntity
  8
0
100
AcDbCircle
 10
450.4760000000096
 20
559.4000000000005
 30
0.0
 40
3.975619999999998
100
AcDbArc
 50
119.7969999999761
 51
240.2020000000284
  0
LINE
  5
45FB
330
1D9
100
AcDbEntity
  8
0
100
AcDbLine
 10
446.5010000000074
 20
559.4000000000005
 30
0.0
 11
446.5010000000074
 21
538.5999999999984
 31
0.0
  0
ARC
  5
45FC
330
1D9
100
AcDbEntity
  8
0
100
AcDbCircle
 10
459.5760000000099
 20
549.0
 30
0.0
 40
13.0756
100
AcDbArc
 50
147.8910000000072
 51
212.1079999999746
  0
LINE
  5
45FD
330
1D9
100
AcDbEntity
  8
0
100
AcDbLine
 10
477.499999999999
 20
541.0
 30
0.0
 11
482.5000000000064
 21
541.0
 31
0.0
  0
LINE
  5
45FE
330
1D9
100
AcDbEntity
  8
0
100
AcDbLine
 10
477.499999999999
 20
557.0
 30
0.0
 11
482.5000000000064
 21
557.0
 31
0.0
  0
LINE
  5
45FF
330
1D9
100
AcDbEntity
  8
0
100
AcDbLine
 10
477.499999999999
 20
529.0
 30
0.0
 11
482.5000000000064
 21
529.0
 31
0.0
  0
ARC
  5
4600
330
1D9
100
AcDbEntity
  8
0
100
AcDbCircle
 10
459.5000000000071
 20
563.4999999999998
 30
0.0
 40
3.0
100
AcDbArc
 50
90.0
 51
180.000000000026
  0
LINE
  5
4601
330
1D9
100
AcDbEntity
  8
0
100
AcDbLine
 10
477.499999999999
 20
566.5
 30
0.0
 11
459.499999999999
 21
566.5
 31
0.0
  0
LINE
  5
4602
330
1D9
100
AcDbEntity
  8
0
100
AcDbLine
 10
3144.999999999992
 20
1684.955334987591
 30
0.0
 11
3128.961000000002
 21
1688.29533498759
 31
0.0
  0
LINE
  5
4603
330
1D9
100
AcDbEntity
  8
0
100
AcDbLine
 10
3144.999999999992
 20
1566.95533498759
 30
0.0
 11
3128.961000000002
 21
1563.61533498759
 31
0.0
  0
LINE
  5
4604
330
1D9
100
AcDbEntity
  8
0
100
AcDbLine
 10
3103.0
 20
1701.45533498759
 30
0.0
 11
3103.0
 21
1550.45533498759
 31
0.0
  0
LINE
  5
4605
330
1D9
100
AcDbEntity
  8
0
100
AcDbLine
 10
3104.999999999992
 20
1625.955334987593
 30
0.0
 11
3104.999999999992
 21
1520.955334987591
 31
0.0
  0
LINE
  5
4606
330
1D9
100
AcDbEntity
  8
0
100
AcDbLine
 10
3121.0
 20
1625.955334987593
 30
0.0
 11
3121.0
 21
1523.95533498759
 31
0.0
  0
LINE
  5
4608
330
1D9
100
AcDbEntity
  8
0
100
AcDbLine
 10
3103.0
 20
1550.45533498759
 30
0.0
 11
3104.999999999992
 21
1550.45533498759
 31
0.0
  0
LINE
  5
4609
330
1D9
100
AcDbEntity
  8
0
100
AcDbLine
 10
3104.999999999992
 20
1520.955334987591
 30
0.0
 11
3117.999999999993
 21
1520.955334987591
 31
0.0
  0
ARC
  5
460A
330
1D9
100
AcDbEntity
  8
0
100
AcDbCircle
 10
3117.999999999993
 20
1523.95533498759
 30
0.0
 40
3.0
100
AcDbArc
 50
270.0
 51
0.0
  0
ARC
  5
460B
330
1D9
100
AcDbEntity
  8
0
100
AcDbCircle
 10
3130.999999999992
 20
1553.82533498759
 30
0.0
 40
10.0
100
AcDbArc
 50
101.7680000000132
 51
179.9990000000035
  0
LINE
  5
460C
330
1D9
100
AcDbEntity
  8
0
100
AcDbLine
 10
3121.0
 20
1625.955334987593
 30
0.0
 11
3121.0
 21
1727.955334987591
 31
0.0
  0
LINE
  5
460D
330
1D9
100
AcDbEntity
  8
0
100
AcDbLine
 10
3104.999999999992
 20
1625.955334987593
 30
0.0
 11
3104.999999999992
 21
1730.955334987591
 31
0.0
  0
LINE
  5
460E
330
1D9
100
AcDbEntity
  8
0
100
AcDbLine
 10
3121.0
 20
1698.085334987589
 30
0.0
 11
3121.0
 21
1727.955334987591
 31
0.0
  0
ARC
  5
460F
330
1D9
100
AcDbEntity
  8
0
100
AcDbCircle
 10
3130.999999999992
 20
1698.085334987589
 30
0.0
 40
10.0
100
AcDbArc
 50
180.0
 51
258.230999999977
  0
LINE
  5
4610
330
1D9
100
AcDbEntity
  8
0
100
AcDbLine
 10
3104.999999999992
 20
1730.955334987591
 30
0.0
 11
3117.999999999993
 21
1730.955334987591
 31
0.0
  0
ARC
  5
4611
330
1D9
100
AcDbEntity
  8
0
100
AcDbCircle
 10
3117.999999999993
 20
1727.955334987591
 30
0.0
 40
3.0
100
AcDbArc
 50
0.0
 51
90.0
  0
LINE
  5
4612
330
1D9
100
AcDbEntity
  8
0
100
AcDbLine
 10
3103.0
 20
1701.45533498759
 30
0.0
 11
3104.999999999992
 21
1701.45533498759
 31
0.0
  0
LINE
  5
4614
330
1D9
100
AcDbEntity
  8
0
100
AcDbLine
 10
3252.99899999999
 20
1625.955334987593
 30
0.0
 11
3252.99899999999
 21
1504.955334987591
 31
0.0
  0
LINE
  5
4615
330
1D9
100
AcDbEntity
  8
0
100
AcDbLine
 10
3229.919999999998
 20
1527.115334987591
 30
0.0
 11
3229.919999999998
 21
1625.955334987593
 31
0.0
  0
LINE
  5
4616
330
1D9
100
AcDbEntity
  8
0
100
AcDbLine
 10
3144.999999999992
 20
1566.95533498759
 30
0.0
 11
3144.999999999992
 21
1625.955334987593
 31
0.0
  0
LINE
  5
4617
330
1D9
100
AcDbEntity
  8
0
100
AcDbLine
 10
3173.500521586702
 20
1625.955334987593
 30
0.0
 11
3173.500521586702
 21
1565.103662183817
 31
0.0
  0
ARC
  5
4618
330
1D9
100
AcDbEntity
  8
0
100
AcDbCircle
 10
3253.047828264992
 20
1626.00930051394
 30
0.0
 40
99.0714128503108
100
AcDbArc
 50
220.480454340009
 51
252.3605031236801
  0
ARC
  5
4619
330
1D9
100
AcDbEntity
  8
0
100
AcDbCircle
 10
3166.281000000003
 20
1551.955334987593
 30
0.0
 40
15.0
100
AcDbArc
 50
40.47470000000095
 51
89.99989999998993
  0
LINE
  5
461A
330
1D9
100
AcDbEntity
  8
0
100
AcDbLine
 10
3144.999999999992
 20
1566.95533498759
 30
0.0
 11
3166.281026179943
 21
1566.95533498759
 31
0.0
  0
ARC
  5
461B
330
1D9
100
AcDbEntity
  8
0
100
AcDbCircle
 10
3255.998999999992
 20
1517.955334987591
 30
0.0
 40
3.000000000000336
100
AcDbArc
 50
199.4710000000303
 51
270.0
  0
LINE
  5
461C
330
1D9
100
AcDbEntity
  8
0
100
AcDbLine
 10
3234.879999999994
 20
1518.955334987591
 30
0.0
 11
3250.341999999993
 21
1518.955334987591
 31
0.0
  0
ARC
  5
461D
330
1D9
100
AcDbEntity
  8
0
100
AcDbCircle
 10
3250.341880986143
 20
1515.954960538659
 30
0.0
 40
3.000374451290227
100
AcDbArc
 50
19.47649751768552
 51
89.99772728654875
  0
ARC
  5
461E
330
1D9
100
AcDbEntity
  8
0
100
AcDbCircle
 10
3234.879999999994
 20
1523.95533498759
 30
0.0
 40
5.0
100
AcDbArc
 50
187.2169999999898
 51
270.0
  0
ARC
  5
461F
330
1D9
100
AcDbEntity
  8
0
100
AcDbCircle
 10
3219.998999999992
 20
1522.06533498759
 30
0.0
 40
10.0
100
AcDbArc
 50
7.217009999983016
 51
72.37700000002675
  0
ARC
  5
4620
330
1D9
100
AcDbEntity
  8
0
100
AcDbCircle
 10
3252.961288423993
 20
1625.997887534664
 30
0.0
 40
98.94369183813283
100
AcDbArc
 50
107.6105324107558
 51
139.5285683707528
  0
ARC
  5
4621
330
1D9
100
AcDbEntity
  8
0
100
AcDbCircle
 10
3166.280939636692
 20
1699.955609964667
 30
0.0
 40
15.00027497719885
100
AcDbArc
 50
270.0002305666174
 51
319.5273314488983
  0
LINE
  5
4622
330
1D9
100
AcDbEntity
  8
0
100
AcDbLine
 10
3173.500521586702
 20
1625.955334987593
 30
0.0
 11
3173.500521586702
 21
1686.807002211044
 31
0.0
  0
LINE
  5
4623
330
1D9
100
AcDbEntity
  8
0
100
AcDbLine
 10
3144.999999999992
 20
1684.955334987591
 30
0.0
 11
3144.999999999992
 21
1625.955334987593
 31
0.0
  0
LINE
  5
4624
330
1D9
100
AcDbEntity
  8
0
100
AcDbLine
 10
3144.999999999992
 20
1684.955334987591
 30
0.0
 11
3166.281000000003
 21
1684.955334987591
 31
0.0
  0
LINE
  5
4625
330
1D9
100
AcDbEntity
  8
0
100
AcDbLine
 10
3229.919999999998
 20
1728.586524341111
 30
0.0
 11
3229.919999999998
 21
1625.955334987593
 31
0.0
  0
LINE
  5
4626
330
1D9
100
AcDbEntity
  8
0
100
AcDbLine
 10
3252.99899999999
 20
1625.955334987593
 30
0.0
 11
3252.99899999999
 21
1746.95533498759
 31
0.0
  0
ARC
  5
4627
330
1D9
100
AcDbEntity
  8
0
100
AcDbCircle
 10
3255.998999999992
 20
1733.955334987592
 30
0.0
 40
3.0
100
AcDbArc
 50
89.99989999998993
 51
160.5280000000135
  0
LINE
  5
4628
330
1D9
100
AcDbEntity
  8
0
100
AcDbLine
 10
3234.879999999994
 20
1732.955334987591
 30
0.0
 11
3250.341947640123
 21
1732.955334988047
 31
0.0
  0
ARC
  5
4629
330
1D9
100
AcDbEntity
  8
0
100
AcDbCircle
 10
3250.341881000322
 20
1735.95570941342
 30
0.0
 40
3.000374426111881
100
AcDbArc
 50
270.0012725675457
 51
340.5245026831396
  0
ARC
  5
462A
330
1D9
100
AcDbEntity
  8
0
100
AcDbCircle
 10
3234.879999999994
 20
1727.955334987591
 30
0.0
 40
5.0
100
AcDbArc
 50
89.99989999998993
 51
172.7820000000056
  0
ARC
  5
462B
330
1D9
100
AcDbEntity
  8
0
100
AcDbCircle
 10
3220.00031745806
 20
1729.833375289888
 30
0.0
 40
9.997733442233792
100
AcDbArc
 50
287.6182040683151
 51
352.8186719429246
  0
LINE
  5
462C
330
1D9
100
AcDbEntity
  8
0
100
AcDbLine
 10
1029.68514894664
 20
520.7854138018436
 30
0.0
 11
1029.68514894664
 21
400.0
 31
0.0
  0
LINE
  5
462D
330
1D9
100
AcDbEntity
  8
0
100
AcDbLine
 10
907.9359116196592
 20
524.69437736927
 30
0.0
 11
907.9359116196592
 21
400.0
 31
0.0
  0
LINE
  5
4630
330
1D9
100
AcDbEntity
  8
0
100
AcDbLine
 10
987.5000000000008
 20
566.5
 30
0.0
 11
987.5000000000008
 21
400.0
 31
0.0
  0
LINE
  5
4631
330
1D9
100
AcDbEntity
  8
0
100
AcDbLine
 10
1008.500000000007
 20
563.4999999999998
 30
0.0
 11
1008.500000000007
 21
400.0
 31
0.0
  0
LINE
  5
4632
330
1D9
100
AcDbEntity
  8
0
100
AcDbLine
 10
997.499999999999
 20
576.4999999999998
 30
0.0
 11
997.499999999999
 21
400.0
 31
0.0
  0
LINE
  5
4633
330
1D9
100
AcDbEntity
  8
0
100
AcDbLine
 10
961.4999999999993
 20
563.4999999999998
 30
0.0
 11
961.4999999999993
 21
400.0
 31
0.0
  0
LINE
  5
4634
330
1D9
100
AcDbEntity
  8
0
100
AcDbLine
 10
982.499999999999
 20
566.5
 30
0.0
 11
982.499999999999
 21
400.0
 31
0.0
  0
LINE
  5
4635
330
1D9
100
AcDbEntity
  8
0
100
AcDbLine
 10
1099.68121158022
 20
474.0123357327767
 30
0.0
 11
1099.68121158022
 21
400.0
 31
0.0
  0
LINE
  5
4636
330
1D9
100
AcDbEntity
  8
0
100
AcDbLine
 10
1116.500000000007
 20
472.0
 30
0.0
 11
1116.500000000007
 21
400.0
 31
0.0
  0
LINE
  5
4639
330
1D9
100
AcDbEntity
  8
0
100
AcDbLine
 10
557.0640883803507
 20
524.69437736927
 30
0.0
 11
557.0640883803507
 21
400.0
 31
0.0
  0
LINE
  5
463A
330
1D9
100
AcDbEntity
  8
0
100
AcDbLine
 10
849.0093479255211
 20
436.0037594610166
 30
0.0
 11
849.0093479255211
 21
425.0037594610167
 31
0.0
  0
LINE
  5
463B
330
1D9
100
AcDbEntity
  8
0
100
AcDbLine
 10
842.1093479255205
 20
436.0037594610166
 30
0.0
 11
842.1093479255205
 21
425.0037594610167
 31
0.0
  0
LINE
  5
463C
330
1D9
100
AcDbEntity
  8
0
100
AcDbLine
 10
828.2093479255271
 20
436.0037594610166
 30
0.0
 11
828.2093479255271
 21
425.0037594610167
 31
0.0
  0
LINE
  5
463D
330
1D9
100
AcDbEntity
  8
0
100
AcDbLine
 10
821.3093479255203
 20
436.0037594610166
 30
0.0
 11
821.3093479255203
 21
425.0037594610167
 31
0.0
  0
LINE
  5
463E
330
1D9
100
AcDbEntity
  8
0
100
AcDbLine
 10
569.5000000000073
 20
400.0
 30
0.0
 11
569.5000000000073
 21
485.6298693588113
 31
0.0
  0
LINE
  5
463F
330
1D9
100
AcDbEntity
  8
0
100
AcDbLine
 10
587.4999999999992
 20
400.0
 30
0.0
 11
587.4999999999992
 21
497.0525979808926
 31
0.0
  0
LINE
  5
4640
330
1D9
100
AcDbEntity
  8
0
100
AcDbLine
 10
696.5000000000072
 20
400.0
 30
0.0
 11
696.5000000000072
 21
501.5583468058166
 31
0.0
  0
LINE
  5
4641
330
1D9
100
AcDbEntity
  8
0
100
AcDbLine
 10
687.4999999999991
 20
400.0
 30
0.0
 11
687.4999999999991
 21
498.2416531941806
 31
0.0
  0
LINE
  5
4642
330
1D9
100
AcDbEntity
  8
0
100
AcDbLine
 10
738.5000000000072
 20
400.0
 30
0.0
 11
738.5000000000072
 21
498.4123472280743
 31
0.0
  0
LINE
  5
4643
330
1D9
100
AcDbEntity
  8
0
100
AcDbLine
 10
731.3000000000073
 20
400.0
 30
0.0
 11
731.3000000000073
 21
501.3876527719258
 31
0.0
  0
LINE
  5
4644
330
1D9
100
AcDbEntity
  8
0
100
AcDbLine
 10
815.1593479255208
 20
502.403759461019
 30
0.0
 11
815.1593479255208
 21
400.0037594610167
 31
0.0
  0
LINE
  5
4645
330
1D9
100
AcDbEntity
  8
0
100
AcDbLine
 10
855.1593479255206
 20
502.403759461019
 30
0.0
 11
855.1593479255206
 21
400.0037594610167
 31
0.0
  0
LINE
  5
4646
330
1D9
100
AcDbEntity
  8
0
100
AcDbLine
 10
503.4999999999991
 20
563.4999999999998
 30
0.0
 11
503.4999999999991
 21
400.0
 31
0.0
  0
ARC
  5
4647
330
1D9
100
AcDbEntity
  8
0
100
AcDbCircle
 10
818.1593479255209
 20
421.9999999999989
 30
0.0
 40
3.0
100
AcDbArc
 50
90.0
 51
180.0
  0
ARC
  5
4648
330
1D9
100
AcDbEntity
  8
0
100
AcDbCircle
 10
818.1593479255209
 20
378.0075189220378
 30
0.0
 40
3.0
100
AcDbArc
 50
180.0
 51
270.0
  0
ARC
  5
4649
330
1D9
100
AcDbEntity
  8
0
100
AcDbCircle
 10
825.1593479255298
 20
297.6037594610179
 30
0.0
 40
10.0
100
AcDbArc
 50
180.0
 51
270.0
  0
ARC
  5
464A
330
1D9
100
AcDbEntity
  8
0
100
AcDbCircle
 10
2138.159347925527
 20
366.0837594610192
 30
0.0
 40
22.0833
100
AcDbArc
 50
248.7600000000119
 51
291.2389999999053
  0
ARC
  5
464B
330
1D9
100
AcDbEntity
  8
0
100
AcDbCircle
 10
2138.159347925527
 20
375.0737594610191
 30
0.0
 40
13.0756
100
AcDbArc
 50
237.8910000000052
 51
302.1069999999916
  0
LINE
  5
464C
330
1D9
100
AcDbEntity
  8
0
100
AcDbLine
 10
2127.759347925517
 20
362.0037594610185
 30
0.0
 11
2148.559347925524
 21
362.0037594610185
 31
0.0
  0
LINE
  5
464D
330
1D9
100
AcDbEntity
  8
0
100
AcDbLine
 10
2127.759347925517
 20
438.0037594610183
 30
0.0
 11
2148.559347925524
 21
438.0037594610183
 31
0.0
  0
ARC
  5
464E
330
1D9
100
AcDbEntity
  8
0
100
AcDbCircle
 10
2138.159347925527
 20
424.9337594610206
 30
0.0
 40
13.0756
100
AcDbArc
 50
57.89300000000825
 51
122.1089999999946
  0
LINE
  5
464F
330
1D9
100
AcDbEntity
  8
0
100
AcDbLine
 10
2121.159347925527
 20
375.0075189220388
 30
0.0
 11
2155.159347925518
 21
375.0075189220388
 31
0.0
  0
LINE
  5
4650
330
1D9
100
AcDbEntity
  8
0
100
AcDbLine
 10
2121.159347925527
 20
425.0
 30
0.0
 11
2155.159347925518
 21
425.0
 31
0.0
  0
LINE
  5
4651
330
1D9
100
AcDbEntity
  8
0
100
AcDbLine
 10
2128.159347925517
 20
512.403759461019
 30
0.0
 11
2148.159347925518
 21
512.403759461019
 31
0.0
  0
LINE
  5
4652
330
1D9
100
AcDbEntity
  8
0
100
AcDbLine
 10
855.1593479255206
 20
400.0037594610167
 30
0.0
 11
815.1593479255208
 21
400.0037594610167
 31
0.0
  0
LINE
  5
4653
330
1D9
100
AcDbEntity
  8
0
100
AcDbLine
 10
2118.159347925526
 20
400.0037594610184
 30
0.0
 11
2158.159347925527
 21
400.0037594610184
 31
0.0
  0
LINE
  5
4654
330
1D9
100
AcDbEntity
  8
0
100
AcDbLine
 10
1987.316783243255
 20
497.9000000000014
 30
0.0
 11
1895.470308882883
 21
497.9000000000014
 31
0.0
  0
LINE
  5
4655
330
1D9
100
AcDbEntity
  8
0
100
AcDbLine
 10
1843.938619803387
 20
538.3782400000008
 30
0.0
 11
1843.938619803387
 21
400.0
 31
0.0
  0
LINE
  5
4656
330
1D9
100
AcDbEntity
  8
0
100
AcDbLine
 10
1862.808379803386
 20
510.0736000000015
 30
0.0
 11
1862.808379803386
 21
400.0
 31
0.0
  0
LINE
  5
4657
330
1D9
100
AcDbEntity
  8
0
100
AcDbLine
 10
1840.500000000003
 20
400.0
 30
0.0
 11
1840.500000000003
 21
536.9999999999992
 31
0.0
  0
ARC
  5
4658
330
1D9
100
AcDbEntity
  8
0
100
AcDbCircle
 10
1895.470308882883
 20
482.8999999999987
 30
0.0
 40
15.0
100
AcDbArc
 50
90.0
 51
126.6656354826309
  0
LINE
  5
4659
330
1D9
100
AcDbEntity
  8
0
100
AcDbLine
 10
1869.098299803385
 20
400.0
 30
0.0
 11
1869.098299803385
 21
488.4982243843113
 31
0.0
  0
LINE
  5
465A
330
1D9
100
AcDbEntity
  8
0
100
AcDbLine
 10
1890.499999999996
 20
400.0
 30
0.0
 11
1890.499999999996
 21
497.0525979808908
 31
0.0
  0
LINE
  5
465B
330
1D9
100
AcDbEntity
  8
0
100
AcDbLine
 10
1872.499999999996
 20
400.0
 30
0.0
 11
1872.499999999996
 21
485.6298693588096
 31
0.0
  0
ARC
  5
465C
330
1D9
100
AcDbEntity
  8
0
100
AcDbCircle
 10
1865.324347803386
 20
491.0141923843111
 30
0.0
 40
2.515967999999999
100
AcDbArc
 50
180.0
 51
270.0
  0
LINE
  5
465D
330
1D9
100
AcDbEntity
  8
0
100
AcDbLine
 10
1865.324347803386
 20
488.4982243843113
 30
0.0
 11
1869.098299803385
 21
488.4982243843113
 31
0.0
  0
LINE
  5
465E
330
1D9
100
AcDbEntity
  8
0
100
AcDbLine
 10
1877.815804596465
 20
488.4573211995848
 30
0.0
 11
1886.513146552656
 21
494.9320091003081
 31
0.0
  0
ARC
  5
465F
330
1D9
100
AcDbEntity
  8
0
100
AcDbCircle
 10
1865.872921489495
 20
504.4999999999971
 30
0.0
 40
20.0
100
AcDbArc
 50
279.2805562927759
 51
306.6656354826308
  0
ARC
  5
4660
330
1D9
100
AcDbEntity
  8
0
100
AcDbCircle
 10
1850.228539803385
 20
510.0736000000015
 30
0.0
 40
12.57983999999999
100
AcDbArc
 50
0.0
 51
90.0
  0
ARC
  5
4661
330
1D9
100
AcDbEntity
  8
0
100
AcDbCircle
 10
1850.228539803385
 20
528.9433600000001
 30
0.0
 40
6.289919999999998
100
AcDbArc
 50
180.0
 51
270.0
  0
LINE
  5
4662
330
1D9
100
AcDbEntity
  8
0
100
AcDbLine
 10
1840.164667803382
 20
538.3782400000008
 30
0.0
 11
1843.938619803387
 21
538.3782400000008
 31
0.0
  0
ARC
  5
4663
330
1D9
100
AcDbEntity
  8
0
100
AcDbCircle
 10
1837.499999999996
 20
536.9999999999992
 30
0.0
 40
3.0
100
AcDbArc
 50
0.0000000000260551
 51
90.0
  0
ARC
  5
4664
330
1D9
100
AcDbEntity
  8
0
100
AcDbCircle
 10
2128.159347925517
 20
502.4037594610208
 30
0.0
 40
10.0
100
AcDbArc
 50
90.0
 51
180.0
  0
LINE
  5
4665
330
1D9
100
AcDbEntity
  8
0
100
AcDbLine
 10
2118.159347925526
 20
497.9000000000014
 30
0.0
 11
2045.386890422966
 21
497.9000000000014
 31
0.0
  0
LINE
  5
4666
330
1D9
100
AcDbEntity
  8
0
100
AcDbLine
 10
2041.500000000004
 20
400.0
 30
0.0
 11
2041.500000000004
 21
498.4123472280753
 31
0.0
  0
LINE
  5
4667
330
1D9
100
AcDbEntity
  8
0
100
AcDbLine
 10
2034.299999999997
 20
400.0
 30
0.0
 11
2034.299999999997
 21
501.3876527719258
 31
0.0
  0
LINE
  5
4668
330
1D9
100
AcDbEntity
  8
0
100
AcDbLine
 10
1999.499999999996
 20
400.0
 30
0.0
 11
1999.499999999996
 21
501.5583468058184
 31
0.0
  0
LINE
  5
4669
330
1D9
100
AcDbEntity
  8
0
100
AcDbLine
 10
1990.499999999996
 20
400.0
 30
0.0
 11
1990.499999999996
 21
498.2416531941816
 31
0.0
  0
LINE
  5
466A
330
1D9
100
AcDbEntity
  8
0
100
AcDbLine
 10
2030.413109577048
 20
501.9000000000014
 30
0.0
 11
2002.683216756734
 21
501.9000000000014
 31
0.0
  0
LINE
  5
466B
330
1D9
100
AcDbEntity
  8
0
100
AcDbLine
 10
1996.591139765936
 20
500.6071732293039
 30
0.0
 11
1993.408860234067
 21
499.1928267706962
 31
0.0
  0
ARC
  5
466C
330
1D9
100
AcDbEntity
  8
0
100
AcDbCircle
 10
1987.316783243255
 20
512.9000000000013
 30
0.0
 40
15.0
100
AcDbArc
 50
270.0
 51
293.9624889745311
  0
ARC
  5
466D
330
1D9
100
AcDbEntity
  8
0
100
AcDbCircle
 10
2002.683216756734
 20
486.8999999999987
 30
0.0
 40
15.0
100
AcDbArc
 50
90.0
 51
113.9624889745312
  0
LINE
  5
466E
330
1D9
100
AcDbEntity
  8
0
100
AcDbLine
 10
2037.697753544726
 20
500.012359141824
 30
0.0
 11
2038.102246455275
 21
499.7876408581759
 31
0.0
  0
ARC
  5
466F
330
1D9
100
AcDbEntity
  8
0
100
AcDbCircle
 10
2030.413109577048
 20
486.8999999999987
 30
0.0
 40
15.0
100
AcDbArc
 50
60.94539590091968
 51
90.0
  0
ARC
  5
4670
330
1D9
100
AcDbEntity
  8
0
100
AcDbCircle
 10
2045.386890422966
 20
512.9000000000013
 30
0.0
 40
15.0
100
AcDbArc
 50
240.9453959009197
 51
270.0
  0
LINE
  5
4671
330
1D9
100
AcDbEntity
  8
0
100
AcDbLine
 10
2118.159347925526
 20
502.4037594610208
 30
0.0
 11
2118.159347925526
 21
400.0037594610184
 31
0.0
  0
LINE
  5
4672
330
1D9
100
AcDbEntity
  8
0
100
AcDbLine
 10
2131.209347925516
 20
364.0037594610185
 30
0.0
 11
2131.209347925516
 21
375.0037594610184
 31
0.0
  0
LINE
  5
4673
330
1D9
100
AcDbEntity
  8
0
100
AcDbLine
 10
2130.159347925518
 20
362.0037594610185
 30
0.0
 11
2130.159347925518
 21
345.5037594610185
 31
0.0
  0
LINE
  5
4674
330
1D9
100
AcDbEntity
  8
0
100
AcDbLine
 10
2124.309347925517
 20
364.0037594610185
 30
0.0
 11
2124.309347925517
 21
375.0037594610184
 31
0.0
  0
ARC
  5
4675
330
1D9
100
AcDbEntity
  8
0
100
AcDbCircle
 10
2127.759347925517
 20
365.9737594610195
 30
0.0
 40
3.975619999999998
100
AcDbArc
 50
209.797000000014
 51
330.2019999999993
  0
ARC
  5
4676
330
1D9
100
AcDbEntity
  8
0
100
AcDbCircle
 10
2121.159347925527
 20
378.0075189220386
 30
0.0
 40
3.0
100
AcDbArc
 50
180.0
 51
270.0
  0
ARC
  5
4677
330
1D9
100
AcDbEntity
  8
0
100
AcDbCircle
 10
2127.759347925517
 20
434.0337594610191
 30
0.0
 40
3.975619999999998
100
AcDbArc
 50
29.79800000000052
 51
150.2029999999859
  0
LINE
  5
4678
330
1D9
100
AcDbEntity
  8
0
100
AcDbLine
 10
2124.309347925517
 20
436.0037594610185
 30
0.0
 11
2124.309347925517
 21
425.0037594610184
 31
0.0
  0
LINE
  5
4679
330
1D9
100
AcDbEntity
  8
0
100
AcDbLine
 10
2131.209347925516
 20
436.0037594610185
 30
0.0
 11
2131.209347925516
 21
425.0037594610184
 31
0.0
  0
ARC
  5
467A
330
1D9
100
AcDbEntity
  8
0
100
AcDbCircle
 10
2121.159347925527
 20
422.0
 30
0.0
 40
3.0
100
AcDbArc
 50
90.0
 51
180.0
  0
LINE
  5
467C
330
1D9
100
AcDbEntity
  8
0
100
AcDbLine
 10
684.3167832432664
 20
302.0999999999984
 30
0.0
 11
592.4703088828855
 21
302.0999999999984
 31
0.0
  0
ARC
  5
467D
330
1D9
100
AcDbEntity
  8
0
100
AcDbCircle
 10
512.5239999999994
 20
240.5999999999976
 30
0.0
 40
3.975619999999998
100
AcDbArc
 50
299.7969999999761
 51
60.20289999998767
  0
LINE
  5
467E
330
1D9
100
AcDbEntity
  8
0
100
AcDbLine
 10
516.5000000000071
 20
261.3999999999995
 30
0.0
 11
516.5000000000071
 21
240.5999999999976
 31
0.0
  0
LINE
  5
467F
330
1D9
100
AcDbEntity
  8
0
100
AcDbLine
 10
503.4999999999991
 20
236.5
 30
0.0
 11
503.4999999999991
 21
400.0
 31
0.0
  0
LINE
  5
4680
330
1D9
100
AcDbEntity
  8
0
100
AcDbLine
 10
514.4999999999989
 20
237.1499999999995
 30
0.0
 11
503.4999999999991
 21
237.1499999999995
 31
0.0
  0
ARC
  5
4681
330
1D9
100
AcDbEntity
  8
0
100
AcDbCircle
 10
500.4999999999991
 20
236.5
 30
0.0
 40
3.0
100
AcDbArc
 50
270.0
 51
359.9999999999738
  0
ARC
  5
4682
330
1D9
100
AcDbEntity
  8
0
100
AcDbCircle
 10
562.8729214894982
 20
295.5
 30
0.0
 40
20.0
100
AcDbArc
 50
53.33436451736909
 51
84.09275331243472
  0
LINE
  5
4685
330
1D9
100
AcDbEntity
  8
0
100
AcDbLine
 10
557.0640883803507
 20
275.3056226307271
 30
0.0
 11
557.0640883803507
 21
400.0
 31
0.0
  0
LINE
  5
4686
330
1D9
100
AcDbEntity
  8
0
100
AcDbLine
 10
569.5000000000073
 20
400.0
 30
0.0
 11
569.5000000000073
 21
314.3701306411876
 31
0.0
  0
LINE
  5
4687
330
1D9
100
AcDbEntity
  8
0
100
AcDbLine
 10
516.5000000000071
 20
259.0
 30
0.0
 11
535.0000500013066
 21
259.0
 31
0.0
  0
LINE
  5
4688
330
1D9
100
AcDbEntity
  8
0
100
AcDbLine
 10
516.5000000000071
 20
243.0
 30
0.0
 11
534.9999451401981
 21
243.0
 31
0.0
  0
LINE
  5
4689
330
1D9
100
AcDbEntity
  8
0
100
AcDbLine
 10
514.4999999999989
 20
244.0499999999983
 30
0.0
 11
503.4999999999991
 21
244.0499999999983
 31
0.0
  0
LINE
  5
468A
330
1D9
100
AcDbEntity
  8
0
100
AcDbLine
 10
514.4999999999989
 20
264.8499999999984
 30
0.0
 11
503.4999999999991
 21
264.8499999999984
 31
0.0
  0
LINE
  5
468B
330
1D9
100
AcDbEntity
  8
0
100
AcDbLine
 10
514.4999999999989
 20
257.9499999999998
 30
0.0
 11
503.4999999999991
 21
257.9499999999998
 31
0.0
  0
ARC
  5
468C
330
1D9
100
AcDbEntity
  8
0
100
AcDbCircle
 10
512.5239999999994
 20
261.3999999999995
 30
0.0
 40
3.975619999999998
100
AcDbArc
 50
299.7969999999761
 51
60.20289999998767
  0
ARC
  5
468D
330
1D9
100
AcDbEntity
  8
0
100
AcDbCircle
 10
503.4240000000008
 20
251.0
 30
0.0
 40
13.0756
100
AcDbArc
 50
327.8910000000073
 51
32.10849999999879
  0
LINE
  5
468E
330
1D9
100
AcDbEntity
  8
0
100
AcDbLine
 10
508.4999999999991
 20
271.0
 30
0.0
 11
529.1832883803489
 21
271.0
 31
0.0
  0
ARC
  5
468F
330
1D9
100
AcDbEntity
  8
0
100
AcDbCircle
 10
508.4999999999991
 20
266.0
 30
0.0
 40
5.0
100
AcDbArc
 50
90.0
 51
180.0
  0
ARC
  5
4690
330
1D9
100
AcDbEntity
  8
0
100
AcDbCircle
 10
514.4167000004198
 20
251.0001348992026
 30
0.0
 40
22.0833
100
AcDbArc
 50
338.7599999999973
 51
21.23929999999877
  0
ARC
  5
4691
330
1D9
100
AcDbEntity
  8
0
100
AcDbCircle
 10
549.3156883803493
 20
275.3056226307271
 30
0.0
 40
7.748099999999997
100
AcDbArc
 50
270.0
 51
0.0
  0
ARC
  5
4692
330
1D9
100
AcDbEntity
  8
0
100
AcDbCircle
 10
563.2872883803393
 20
303.1072226307287
 30
0.0
 40
4.5
100
AcDbArc
 50
89.99950000005389
 51
139.6050000000047
  0
LINE
  5
4693
330
1D9
100
AcDbEntity
  8
0
100
AcDbLine
 10
557.0640883803507
 20
302.7364226307263
 30
0.0
 11
559.8600883803465
 21
306.0232226307271
 31
0.0
  0
LINE
  5
4694
330
1D9
100
AcDbEntity
  8
0
100
AcDbLine
 10
587.4999999999992
 20
400.0
 30
0.0
 11
587.4999999999992
 21
302.9474020191073
 31
0.0
  0
ARC
  5
4695
330
1D9
100
AcDbEntity
  8
0
100
AcDbCircle
 10
592.4703088828855
 20
317.0999999999985
 30
0.0
 40
15.0
100
AcDbArc
 50
233.334364517369
 51
270.0
  0
LINE
  5
4696
330
1D9
100
AcDbEntity
  8
0
100
AcDbLine
 10
574.8158045964682
 20
311.5426788004106
 30
0.0
 11
583.5131465526592
 21
305.0679908996889
 31
0.0
  0
ARC
  5
4697
330
1D9
100
AcDbEntity
  8
0
100
AcDbCircle
 10
742.3868904229684
 20
287.0999999999976
 30
0.0
 40
15.0
100
AcDbArc
 50
90.0
 51
119.0546040990801
  0
LINE
  5
4698
330
1D9
100
AcDbEntity
  8
0
100
AcDbLine
 10
696.5000000000072
 20
400.0
 30
0.0
 11
696.5000000000072
 21
298.4416531941806
 31
0.0
  0
LINE
  5
4699
330
1D9
100
AcDbEntity
  8
0
100
AcDbLine
 10
687.4999999999991
 20
400.0
 30
0.0
 11
687.4999999999991
 21
301.7583468058173
 31
0.0
  0
LINE
  5
469A
330
1D9
100
AcDbEntity
  8
0
100
AcDbLine
 10
731.3000000000073
 20
400.0
 30
0.0
 11
731.3000000000073
 21
298.6123472280742
 31
0.0
  0
ARC
  5
469B
330
1D9
100
AcDbEntity
  8
0
100
AcDbCircle
 10
699.6832167567381
 20
313.1000000000011
 30
0.0
 40
15.0
100
AcDbArc
 50
246.0375110254687
 51
270.0
  0
ARC
  5
469C
330
1D9
100
AcDbEntity
  8
0
100
AcDbCircle
 10
684.3167832432664
 20
287.0999999999976
 30
0.0
 40
15.0
100
AcDbArc
 50
66.03751102546877
 51
90.0
  0
LINE
  5
469D
330
1D9
100
AcDbEntity
  8
0
100
AcDbLine
 10
693.5911397659412
 20
299.3928267706951
 30
0.0
 11
690.4088602340707
 21
300.8071732293037
 31
0.0
  0
LINE
  5
469E
330
1D9
100
AcDbEntity
  8
0
100
AcDbLine
 10
727.4131095770508
 20
298.0999999999984
 30
0.0
 11
699.6832167567381
 21
298.0999999999984
 31
0.0
  0
LINE
  5
469F
330
1D9
100
AcDbEntity
  8
0
100
AcDbLine
 10
734.6977535447202
 20
299.9876408581758
 30
0.0
 11
735.1022464552916
 21
300.2123591418211
 31
0.0
  0
ARC
  5
46A0
330
1D9
100
AcDbEntity
  8
0
100
AcDbCircle
 10
727.4131095770508
 20
313.1000000000011
 30
0.0
 40
15.0
100
AcDbArc
 50
270.0
 51
299.0546040990802
  0
LINE
  5
46A1
330
1D9
100
AcDbEntity
  8
0
100
AcDbLine
 10
738.5000000000072
 20
400.0
 30
0.0
 11
738.5000000000072
 21
301.5876527719256
 31
0.0
  0
LINE
  5
46A2
330
1D9
100
AcDbEntity
  8
0
100
AcDbLine
 10
815.1593479255208
 20
297.6037594610179
 30
0.0
 11
815.1593479255208
 21
400.0037594610167
 31
0.0
  0
LINE
  5
46A3
330
1D9
100
AcDbEntity
  8
0
100
AcDbLine
 10
815.1593479255208
 20
302.0999999999984
 30
0.0
 11
742.3868904229684
 21
302.0999999999984
 31
0.0
  0
LINE
  5
46A4
330
1D9
100
AcDbEntity
  8
0
100
AcDbLine
 10
2294.878679656442
 20
539.121320343559
 30
0.0
 11
2299.621320343566
 21
534.3786796564399
 31
0.0
  0
ARC
  5
46A5
330
1D9
100
AcDbEntity
  8
0
100
AcDbCircle
 10
2179.159347925527
 20
507.499999999998
 30
0.0
 40
3.0
100
AcDbArc
 50
0.0
 51
90.0
  0
ARC
  5
46A6
330
1D9
100
AcDbEntity
  8
0
100
AcDbCircle
 10
2148.159347925527
 20
502.4037594610208
 30
0.0
 40
10.0
100
AcDbArc
 50
0.0
 51
90.0
  0
LINE
  5
46A7
330
1D9
100
AcDbEntity
  8
0
100
AcDbLine
 10
2227.061380196615
 20
538.3782400000008
 30
0.0
 11
2227.061380196615
 21
400.0
 31
0.0
  0
LINE
  5
46A8
330
1D9
100
AcDbEntity
  8
0
100
AcDbLine
 10
2208.191620196616
 20
510.0736000000015
 30
0.0
 11
2208.191620196616
 21
400.0
 31
0.0
  0
LINE
  5
46A9
330
1D9
100
AcDbEntity
  8
0
100
AcDbLine
 10
2293.999999999996
 20
539.7305391633726
 30
0.0
 11
2293.999999999996
 21
400.0
 31
0.0
  0
LINE
  5
46AA
330
1D9
100
AcDbEntity
  8
0
100
AcDbLine
 10
2230.499999999996
 20
400.0
 30
0.0
 11
2230.499999999996
 21
536.9999999999992
 31
0.0
  0
LINE
  5
46AB
330
1D9
100
AcDbEntity
  8
0
100
AcDbLine
 10
2158.159347925527
 20
502.4037594610208
 30
0.0
 11
2158.159347925527
 21
400.0037594610184
 31
0.0
  0
LINE
  5
46AC
330
1D9
100
AcDbEntity
  8
0
100
AcDbLine
 10
2201.901700196616
 20
400.0
 30
0.0
 11
2201.901700196616
 21
488.4982243843113
 31
0.0
  0
LINE
  5
46AD
330
1D9
100
AcDbEntity
  8
0
100
AcDbLine
 10
2152.009347925516
 20
364.0037594610185
 30
0.0
 11
2152.009347925516
 21
375.0037594610184
 31
0.0
  0
LINE
  5
46AE
330
1D9
100
AcDbEntity
  8
0
100
AcDbLine
 10
2145.109347925516
 20
364.0037594610185
 30
0.0
 11
2145.109347925516
 21
375.0037594610184
 31
0.0
  0
ARC
  5
46AF
330
1D9
100
AcDbEntity
  8
0
100
AcDbCircle
 10
2148.559347925524
 20
365.9737594610195
 30
0.0
 40
3.975619999999998
100
AcDbArc
 50
209.797000000014
 51
330.2019999999993
  0
LINE
  5
46B0
330
1D9
100
AcDbEntity
  8
0
100
AcDbLine
 10
2146.159347925518
 20
362.0037594610185
 30
0.0
 11
2146.159347925518
 21
345.5037594610185
 31
0.0
  0
ARC
  5
46B1
330
1D9
100
AcDbEntity
  8
0
100
AcDbCircle
 10
2155.159347925518
 20
378.0075189220386
 30
0.0
 40
3.0
100
AcDbArc
 50
270.0
 51
0.0
  0
LINE
  5
46B2
330
1D9
100
AcDbEntity
  8
0
100
AcDbLine
 10
2159.159347925526
 20
489.5000000000008
 30
0.0
 11
2175.159347925518
 21
489.5000000000008
 31
0.0
  0
LINE
  5
46B3
330
1D9
100
AcDbEntity
  8
0
100
AcDbLine
 10
2175.159347925518
 20
493.499999999999
 30
0.0
 11
2169.159347925517
 21
489.5000000000008
 31
0.0
  0
LINE
  5
46B4
330
1D9
100
AcDbEntity
  8
0
100
AcDbLine
 10
2179.159347925527
 20
494.4999999999991
 30
0.0
 11
2159.159347925526
 21
494.4999999999991
 31
0.0
  0
LINE
  5
46B5
330
1D9
100
AcDbEntity
  8
0
100
AcDbLine
 10
2158.159347925527
 20
484.499999999999
 30
0.0
 11
2201.901700196616
 21
484.499999999999
 31
0.0
  0
ARC
  5
46B6
330
1D9
100
AcDbEntity
  8
0
100
AcDbCircle
 10
2148.559347925524
 20
434.0337594610191
 30
0.0
 40
3.975619999999998
100
AcDbArc
 50
29.79800000000052
 51
150.2029999999859
  0
LINE
  5
46B7
330
1D9
100
AcDbEntity
  8
0
100
AcDbLine
 10
2145.109347925516
 20
436.0037594610185
 30
0.0
 11
2145.109347925516
 21
425.0037594610184
 31
0.0
  0
LINE
  5
46B8
330
1D9
100
AcDbEntity
  8
0
100
AcDbLine
 10
2152.009347925516
 20
436.0037594610185
 30
0.0
 11
2152.009347925516
 21
425.0037594610184
 31
0.0
  0
ARC
  5
46B9
330
1D9
100
AcDbEntity
  8
0
100
AcDbCircle
 10
2155.159347925518
 20
422.0
 30
0.0
 40
3.0
100
AcDbArc
 50
0.0
 51
90.0
  0
LINE
  5
46BA
330
1D9
100
AcDbEntity
  8
0
100
AcDbLine
 10
2159.159347925526
 20
484.499999999999
 30
0.0
 11
2159.159347925526
 21
489.5000000000008
 31
0.0
  0
ARC
  5
46BB
330
1D9
100
AcDbEntity
  8
0
100
AcDbCircle
 10
2161.159347925527
 20
491.4999999999982
 30
0.0
 40
3.0
100
AcDbArc
 50
131.8100000000022
 51
180.0
  0
LINE
  5
46BC
330
1D9
100
AcDbEntity
  8
0
100
AcDbLine
 10
2159.159347925526
 20
493.499999999999
 30
0.0
 11
2159.159347925526
 21
494.4999999999991
 31
0.0
  0
LINE
  5
46BD
330
1D9
100
AcDbEntity
  8
0
100
AcDbLine
 10
2165.159347925527
 20
489.5000000000008
 30
0.0
 11
2159.159347925526
 21
493.499999999999
 31
0.0
  0
LINE
  5
46BE
330
1D9
100
AcDbEntity
  8
0
100
AcDbLine
 10
2175.159347925518
 20
489.5000000000008
 30
0.0
 11
2175.159347925526
 21
484.499999999999
 31
0.0
  0
LINE
  5
46BF
330
1D9
100
AcDbEntity
  8
0
100
AcDbLine
 10
2182.159347925527
 20
507.499999999998
 30
0.0
 11
2182.159347925527
 21
497.5000000000008
 31
0.0
  0
LINE
  5
46C0
330
1D9
100
AcDbEntity
  8
0
100
AcDbLine
 10
2175.159347925518
 20
494.4999999999991
 30
0.0
 11
2175.159347925518
 21
493.499999999999
 31
0.0
  0
ARC
  5
46C1
330
1D9
100
AcDbEntity
  8
0
100
AcDbCircle
 10
2179.159347925527
 20
497.5000000000008
 30
0.0
 40
3.0
100
AcDbArc
 50
270.0
 51
0.0
  0
ARC
  5
46C2
330
1D9
100
AcDbEntity
  8
0
100
AcDbCircle
 10
2205.675652196615
 20
491.0141923843111
 30
0.0
 40
2.515967999999999
100
AcDbArc
 50
270.0
 51
0.0
  0
LINE
  5
46C3
330
1D9
100
AcDbEntity
  8
0
100
AcDbLine
 10
2205.675652196615
 20
488.4982243843113
 30
0.0
 11
2201.901700196616
 21
488.4982243843113
 31
0.0
  0
ARC
  5
46C4
330
1D9
100
AcDbEntity
  8
0
100
AcDbCircle
 10
2220.771460196615
 20
510.0736000000015
 30
0.0
 40
12.57983999999999
100
AcDbArc
 50
90.0
 51
180.0
  0
LINE
  5
46C5
330
1D9
100
AcDbEntity
  8
0
100
AcDbLine
 10
2179.159347925527
 20
510.499999999999
 30
0.0
 11
2159.159347925526
 21
510.499999999999
 31
0.0
  0
LINE
  5
46C6
330
1D9
100
AcDbEntity
  8
0
100
AcDbLine
 10
2174.159347925518
 20
516.4999999999992
 30
0.0
 11
2175.159347925518
 21
515.499999999998
 31
0.0
  0
LINE
  5
46C7
330
1D9
100
AcDbEntity
  8
0
100
AcDbLine
 10
2159.159347925526
 20
510.499999999999
 30
0.0
 11
2154.028835904465
 21
510.499999999999
 31
0.0
  0
LINE
  5
46C8
330
1D9
100
AcDbEntity
  8
0
100
AcDbLine
 10
2159.159347925526
 20
510.499999999999
 30
0.0
 11
2159.159347925526
 21
515.499999999998
 31
0.0
  0
LINE
  5
46C9
330
1D9
100
AcDbEntity
  8
0
100
AcDbLine
 10
2159.159347925526
 20
515.499999999998
 30
0.0
 11
2160.159347925527
 21
516.4999999999992
 31
0.0
  0
LINE
  5
46CA
330
1D9
100
AcDbEntity
  8
0
100
AcDbLine
 10
2160.159347925527
 20
516.4999999999992
 30
0.0
 11
2174.159347925518
 21
516.4999999999992
 31
0.0
  0
LINE
  5
46CB
330
1D9
100
AcDbEntity
  8
0
100
AcDbLine
 10
2175.159347925518
 20
515.499999999998
 30
0.0
 11
2175.159347925518
 21
510.499999999999
 31
0.0
  0
LINE
  5
46CC
330
1D9
100
AcDbEntity
  8
0
100
AcDbLine
 10
2292.757359312886
 20
539.9999999999989
 30
0.0
 11
2233.499999999995
 21
539.9999999999989
 31
0.0
  0
ARC
  5
46CD
330
1D9
100
AcDbEntity
  8
0
100
AcDbCircle
 10
2220.771460196615
 20
528.9433600000001
 30
0.0
 40
6.289919999999998
100
AcDbArc
 50
270.0
 51
0.0
  0
LINE
  5
46CE
330
1D9
100
AcDbEntity
  8
0
100
AcDbLine
 10
2230.835332196616
 20
538.3782400000008
 30
0.0
 11
2227.061380196615
 21
538.3782400000008
 31
0.0
  0
ARC
  5
46CF
330
1D9
100
AcDbEntity
  8
0
100
AcDbCircle
 10
2233.500000000003
 20
536.9999999999992
 30
0.0
 40
3.0
100
AcDbArc
 50
90.0
 51
180.0
  0
ARC
  5
46D0
330
1D9
100
AcDbEntity
  8
0
100
AcDbCircle
 10
2292.757359312886
 20
536.9999999999992
 30
0.0
 40
3.0
100
AcDbArc
 50
45.0000000000046
 51
90.0
  0
LINE
  5
46D1
330
1D9
100
AcDbEntity
  8
0
100
AcDbLine
 10
2300.499999999995
 20
555.989907640246
 30
0.0
 11
2300.499999999995
 21
400.0
 31
0.0
  0
ARC
  5
46D2
330
1D9
100
AcDbEntity
  8
0
100
AcDbCircle
 10
2300.499999999995
 20
400.0
 30
0.0
 40
125.0
100
AcDbArc
 50
46.03059979306348
 51
75.93953562785227
  0
LINE
  5
46D3
330
1D9
100
AcDbEntity
  8
0
100
AcDbLine
 10
2447.500000000005
 20
539.9999999999989
 30
0.0
 11
2447.500000000005
 21
400.0
 31
0.0
  0
LINE
  5
46D4
330
1D9
100
AcDbEntity
  8
0
100
AcDbLine
 10
2428.499999999996
 20
537.9999999999982
 30
0.0
 11
2428.499999999996
 21
400.0
 31
0.0
  0
LINE
  5
46D5
330
1D9
100
AcDbEntity
  8
0
100
AcDbLine
 10
2323.500000000004
 20
528.499999999998
 30
0.0
 11
2323.500000000004
 21
400.0
 31
0.0
  0
LINE
  5
46D7
330
1D9
100
AcDbEntity
  8
0
100
AcDbLine
 10
2392.612702707066
 20
400.0
 30
0.0
 11
2392.612702707066
 21
486.6479429645386
 31
0.0
  0
LINE
  5
46D8
330
1D9
100
AcDbEntity
  8
0
100
AcDbLine
 10
2450.500000000003
 20
505.999999999998
 30
0.0
 11
2450.500000000003
 21
400.0
 31
0.0
  0
LINE
  5
46D9
330
1D9
100
AcDbEntity
  8
0
100
AcDbLine
 10
2420.396400519874
 20
489.8662801292885
 30
0.0
 11
2400.542974172165
 21
486.0316916585325
 31
0.0
  0
ARC
  5
46DA
330
1D9
100
AcDbEntity
  8
0
100
AcDbCircle
 10
2397.698373392349
 20
500.7594968719168
 30
0.0
 40
15.0
100
AcDbArc
 50
226.0305997930633
 51
280.9317787955046
  0
LINE
  5
46DB
330
1D9
100
AcDbEntity
  8
0
100
AcDbLine
 10
2450.500000000003
 20
505.999999999998
 30
0.0
 11
2447.500000000005
 21
505.999999999998
 31
0.0
  0
ARC
  5
46DC
330
1D9
100
AcDbEntity
  8
0
100
AcDbCircle
 10
2418.499999999996
 20
499.6848169382118
 30
0.0
 40
10.0
100
AcDbArc
 50
280.9317787955046
 51
0.0
  0
ARC
  5
46DD
330
1D9
100
AcDbEntity
  8
0
100
AcDbCircle
 10
2301.742640687125
 20
536.499999999998
 30
0.0
 40
3.0
100
AcDbArc
 50
225.0000000000045
 51
270.0
  0
ARC
  5
46DE
330
1D9
100
AcDbEntity
  8
0
100
AcDbCircle
 10
2333.297671671366
 20
530.9553845129593
 30
0.0
 40
10.0
100
AcDbArc
 50
189.4212759932042
 51
255.9395356278521
  0
ARC
  5
46DF
330
1D9
100
AcDbEntity
  8
0
100
AcDbCircle
 10
2318.499999999996
 20
528.499999999998
 30
0.0
 40
5.0
100
AcDbArc
 50
9.421275993204263
 51
90.0
  0
LINE
  5
46E0
330
1D9
100
AcDbEntity
  8
0
100
AcDbLine
 10
2301.742640687125
 20
533.5000000000007
 30
0.0
 11
2318.499999999996
 21
533.5000000000007
 31
0.0
  0
ARC
  5
46E2
330
1D9
100
AcDbEntity
  8
0
100
AcDbCircle
 10
2430.499999999996
 20
537.9999999999982
 30
0.0
 40
2.0
100
AcDbArc
 50
90.0
 51
180.0
  0
LINE
  5
46E3
330
1D9
100
AcDbEntity
  8
0
100
AcDbLine
 10
2447.500000000005
 20
539.9999999999989
 30
0.0
 11
2430.499999999996
 21
539.9999999999989
 31
0.0
  0
LINE
  5
46E5
330
1D9
100
AcDbEntity
  8
0
100
AcDbLine
 10
982.499999999999
 20
233.4999999999991
 30
0.0
 11
964.5000000000072
 21
233.4999999999991
 31
0.0
  0
ARC
  5
46E6
330
1D9
100
AcDbEntity
  8
0
100
AcDbCircle
 10
952.4800000000068
 20
239.7499999999999
 30
0.0
 40
3.975619999999998
100
AcDbArc
 50
119.7969999999761
 51
240.2020000000284
  0
LINE
  5
46E7
330
1D9
100
AcDbEntity
  8
0
100
AcDbLine
 10
948.499999999999
 20
260.5499999999983
 30
0.0
 11
948.499999999999
 21
239.7499999999999
 31
0.0
  0
LINE
  5
46E8
330
1D9
100
AcDbEntity
  8
0
100
AcDbLine
 10
961.4999999999993
 20
236.5
 30
0.0
 11
961.4999999999993
 21
400.0
 31
0.0
  0
LINE
  5
46E9
330
1D9
100
AcDbEntity
  8
0
100
AcDbLine
 10
950.4999999999991
 20
236.2999999999983
 30
0.0
 11
961.4999999999993
 21
236.2999999999983
 31
0.0
  0
ARC
  5
46EA
330
1D9
100
AcDbEntity
  8
0
100
AcDbCircle
 10
964.5000000000072
 20
236.5
 30
0.0
 40
3.0
100
AcDbArc
 50
180.000000000026
 51
270.0
  0
LINE
  5
46EB
330
1D9
100
AcDbEntity
  8
0
100
AcDbLine
 10
855.1593479255206
 20
315.4999999999982
 30
0.0
 11
900.0687116196585
 21
315.5
 31
0.0
  0
LINE
  5
46EC
330
1D9
100
AcDbEntity
  8
0
100
AcDbLine
 10
855.1593479255206
 20
297.6037594610179
 30
0.0
 11
855.1593479255206
 21
400.0037594610167
 31
0.0
  0
LINE
  5
46ED
330
1D9
100
AcDbEntity
  8
0
100
AcDbLine
 10
862.1593479255297
 20
310.5075189220379
 30
0.0
 11
856.1593479255206
 21
306.5075189220379
 31
0.0
  0
LINE
  5
46EE
330
1D9
100
AcDbEntity
  8
0
100
AcDbLine
 10
856.1593479255206
 20
310.5075189220379
 30
0.0
 11
872.1593479255206
 21
310.5075189220379
 31
0.0
  0
LINE
  5
46EF
330
1D9
100
AcDbEntity
  8
0
100
AcDbLine
 10
876.1593479255209
 20
305.5075189220378
 30
0.0
 11
856.1593479255206
 21
305.5075189220378
 31
0.0
  0
LINE
  5
46F0
330
1D9
100
AcDbEntity
  8
0
100
AcDbLine
 10
856.1593479255206
 20
284.5075189220379
 30
0.0
 11
857.1593479255207
 21
283.5075189220388
 31
0.0
  0
LINE
  5
46F1
330
1D9
100
AcDbEntity
  8
0
100
AcDbLine
 10
876.1593479255209
 20
289.5075189220378
 30
0.0
 11
856.1593479255206
 21
289.5075189220378
 31
0.0
  0
ARC
  5
46F2
330
1D9
100
AcDbEntity
  8
0
100
AcDbCircle
 10
845.1593479255297
 20
297.6037594610179
 30
0.0
 40
10.0
100
AcDbArc
 50
270.0
 51
0.0000000000260551
  0
ARC
  5
46F3
330
1D9
100
AcDbEntity
  8
0
100
AcDbCircle
 10
858.1593479255207
 20
308.5075189220379
 30
0.0
 40
3.0
100
AcDbArc
 50
180.0
 51
228.1899999999976
  0
LINE
  5
46F4
330
1D9
100
AcDbEntity
  8
0
100
AcDbLine
 10
856.1593479255206
 20
306.5075189220379
 30
0.0
 11
856.1593479255206
 21
305.507518922036
 31
0.0
  0
LINE
  5
46F5
330
1D9
100
AcDbEntity
  8
0
100
AcDbLine
 10
856.1593479255206
 20
315.5
 30
0.0
 11
856.1593479255206
 21
310.5075189220379
 31
0.0
  0
LINE
  5
46F6
330
1D9
100
AcDbEntity
  8
0
100
AcDbLine
 10
856.1593479255206
 20
289.5075189220378
 30
0.0
 11
850.4193479255301
 21
289.5075189220378
 31
0.0
  0
LINE
  5
46F7
330
1D9
100
AcDbEntity
  8
0
100
AcDbLine
 10
856.1593479255206
 20
289.507518922036
 30
0.0
 11
856.1593479255206
 21
284.5075189220379
 31
0.0
  0
LINE
  5
46F8
330
1D9
100
AcDbEntity
  8
0
100
AcDbLine
 10
825.1593479255298
 20
287.6037594610196
 30
0.0
 11
845.1593479255297
 21
287.6037594610196
 31
0.0
  0
LINE
  5
46F9
330
1D9
100
AcDbEntity
  8
0
100
AcDbLine
 10
872.1593479255206
 20
306.5075189220379
 30
0.0
 11
866.1593479255298
 21
310.5075189220379
 31
0.0
  0
LINE
  5
46FA
330
1D9
100
AcDbEntity
  8
0
100
AcDbLine
 10
872.1593479255206
 20
305.5075189220378
 30
0.0
 11
872.1593479255206
 21
306.5075189220379
 31
0.0
  0
ARC
  5
46FB
330
1D9
100
AcDbEntity
  8
0
100
AcDbCircle
 10
876.1593479255209
 20
302.5075189220379
 30
0.0
 40
3.0
100
AcDbArc
 50
0.0
 51
90.0
  0
LINE
  5
46FC
330
1D9
100
AcDbEntity
  8
0
100
AcDbLine
 10
872.1593479255206
 20
310.5075189220379
 30
0.0
 11
872.1593479255298
 21
315.5
 31
0.0
  0
LINE
  5
46FD
330
1D9
100
AcDbEntity
  8
0
100
AcDbLine
 10
872.1593479255206
 20
284.5075189220379
 30
0.0
 11
872.1593479255206
 21
289.5075189220378
 31
0.0
  0
ARC
  5
46FE
330
1D9
100
AcDbEntity
  8
0
100
AcDbCircle
 10
876.1593479255209
 20
292.5075189220379
 30
0.0
 40
3.0
100
AcDbArc
 50
270.0
 51
0.0
  0
LINE
  5
46FF
330
1D9
100
AcDbEntity
  8
0
100
AcDbLine
 10
871.1593479255206
 20
283.5075189220388
 30
0.0
 11
872.1593479255206
 21
284.5075189220379
 31
0.0
  0
LINE
  5
4700
330
1D9
100
AcDbEntity
  8
0
100
AcDbLine
 10
857.1593479255207
 20
283.5075189220388
 30
0.0
 11
871.1593479255206
 21
283.5075189220388
 31
0.0
  0
LINE
  5
4701
330
1D9
100
AcDbEntity
  8
0
100
AcDbLine
 10
879.1593479255297
 20
292.5075189220379
 30
0.0
 11
879.1593479255297
 21
302.5075189220379
 31
0.0
  0
ARC
  5
4702
330
1D9
100
AcDbEntity
  8
0
100
AcDbCircle
 10
852.1593479255209
 20
421.9999999999989
 30
0.0
 40
3.0
100
AcDbArc
 50
0.0
 51
90.0
  0
ARC
  5
4703
330
1D9
100
AcDbEntity
  8
0
100
AcDbCircle
 10
852.1593479255209
 20
378.0075189220378
 30
0.0
 40
3.0
100
AcDbArc
 50
270.0
 51
0.0
  0
LINE
  5
4704
330
1D9
100
AcDbEntity
  8
0
100
AcDbLine
 10
843.1593479255298
 20
362.0037594610166
 30
0.0
 11
843.1593479255298
 21
345.5037594610185
 31
0.0
  0
ARC
  5
4705
330
1D9
100
AcDbEntity
  8
0
100
AcDbCircle
 10
845.5593479255202
 20
365.9737594610178
 30
0.0
 40
3.975619999999998
100
AcDbArc
 50
209.797000000014
 51
330.2019999999993
  0
LINE
  5
4706
330
1D9
100
AcDbEntity
  8
0
100
AcDbLine
 10
842.1093479255205
 20
364.0037594610166
 30
0.0
 11
842.1093479255205
 21
375.0037594610166
 31
0.0
  0
LINE
  5
4707
330
1D9
100
AcDbEntity
  8
0
100
AcDbLine
 10
849.0093479255211
 20
364.0037594610166
 30
0.0
 11
849.0093479255211
 21
375.0037594610166
 31
0.0
  0
ARC
  5
4708
330
1D9
100
AcDbEntity
  8
0
100
AcDbCircle
 10
824.7593479255211
 20
365.9737594610178
 30
0.0
 40
3.975619999999998
100
AcDbArc
 50
209.797000000014
 51
330.2019999999993
  0
LINE
  5
4709
330
1D9
100
AcDbEntity
  8
0
100
AcDbLine
 10
827.1593479255297
 20
362.0037594610166
 30
0.0
 11
827.1593479255297
 21
345.5037594610185
 31
0.0
  0
LINE
  5
470A
330
1D9
100
AcDbEntity
  8
0
100
AcDbLine
 10
821.3093479255203
 20
364.0037594610166
 30
0.0
 11
821.3093479255203
 21
375.0037594610166
 31
0.0
  0
LINE
  5
470B
330
1D9
100
AcDbEntity
  8
0
100
AcDbLine
 10
828.2093479255271
 20
364.0037594610166
 30
0.0
 11
828.2093479255271
 21
375.0037594610166
 31
0.0
  0
LINE
  5
470C
330
1D9
100
AcDbEntity
  8
0
100
AcDbLine
 10
818.1593479255209
 20
424.9999999999991
 30
0.0
 11
852.1593479255209
 21
424.9999999999991
 31
0.0
  0
LINE
  5
470D
330
1D9
100
AcDbEntity
  8
0
100
AcDbLine
 10
818.1593479255209
 20
375.0075189220378
 30
0.0
 11
852.1593479255209
 21
375.0075189220378
 31
0.0
  0
LINE
  5
470E
330
1D9
100
AcDbEntity
  8
0
100
AcDbLine
 10
824.7593479255211
 20
362.0037594610166
 30
0.0
 11
845.5593479255202
 21
362.0037594610166
 31
0.0
  0
ARC
  5
470F
330
1D9
100
AcDbEntity
  8
0
100
AcDbCircle
 10
835.1593479255209
 20
375.0737594610181
 30
0.0
 40
13.0756
100
AcDbArc
 50
237.8910000000052
 51
302.1069999999916
  0
ARC
  5
4710
330
1D9
100
AcDbEntity
  8
0
100
AcDbCircle
 10
835.1593479255209
 20
366.0837594610192
 30
0.0
 40
22.0833
100
AcDbArc
 50
248.7600000000119
 51
291.2389999999053
  0
LINE
  5
4711
330
1D9
100
AcDbEntity
  8
0
100
AcDbLine
 10
907.9359116196592
 20
275.3056226307271
 30
0.0
 11
907.9359116196592
 21
400.0
 31
0.0
  0
LINE
  5
4714
330
1D9
100
AcDbEntity
  8
0
100
AcDbLine
 10
948.499999999999
 20
258.1499999999987
 30
0.0
 11
929.4999999999992
 21
258.1499999999987
 31
0.0
  0
LINE
  5
4715
330
1D9
100
AcDbEntity
  8
0
100
AcDbLine
 10
948.499999999999
 20
242.1499999999987
 30
0.0
 11
929.4999999999992
 21
242.1499999999987
 31
0.0
  0
LINE
  5
4716
330
1D9
100
AcDbEntity
  8
0
100
AcDbLine
 10
956.500000000001
 20
271.0
 30
0.0
 11
935.8167116196593
 21
271.0
 31
0.0
  0
ARC
  5
4717
330
1D9
100
AcDbEntity
  8
0
100
AcDbCircle
 10
950.0800000000072
 20
250.1499999999996
 30
0.0
 40
22.0833
100
AcDbArc
 50
158.7599999999974
 51
201.2389999999861
  0
LINE
  5
4718
330
1D9
100
AcDbEntity
  8
0
100
AcDbLine
 10
907.9359116196592
 20
302.7364226307263
 30
0.0
 11
905.139911619659
 21
306.0232226307271
 31
0.0
  0
ARC
  5
4719
330
1D9
100
AcDbEntity
  8
0
100
AcDbCircle
 10
901.7127116196588
 20
303.1072226307287
 30
0.0
 40
4.5
100
AcDbArc
 50
40.39499999999527
 51
90.0004999999461
  0
ARC
  5
471A
330
1D9
100
AcDbEntity
  8
0
100
AcDbCircle
 10
915.6843116196576
 20
275.3056226307271
 30
0.0
 40
7.748099999999997
100
AcDbArc
 50
180.0
 51
270.0
  0
ARC
  5
471B
330
1D9
100
AcDbEntity
  8
0
100
AcDbCircle
 10
952.4800000000068
 20
260.5499999999983
 30
0.0
 40
3.975619999999998
100
AcDbArc
 50
119.7969999999761
 51
240.2020000000284
  0
ARC
  5
471C
330
1D9
100
AcDbEntity
  8
0
100
AcDbCircle
 10
961.5800000000072
 20
250.1499999999996
 30
0.0
 40
13.0756
100
AcDbArc
 50
147.8910000000072
 51
212.1080000000038
  0
LINE
  5
471D
330
1D9
100
AcDbEntity
  8
0
100
AcDbLine
 10
950.4999999999991
 20
243.1999999999998
 30
0.0
 11
961.4999999999993
 21
243.1999999999998
 31
0.0
  0
LINE
  5
471E
330
1D9
100
AcDbEntity
  8
0
100
AcDbLine
 10
950.4999999999991
 20
263.999999999999
 30
0.0
 11
961.4999999999993
 21
263.999999999999
 31
0.0
  0
LINE
  5
471F
330
1D9
100
AcDbEntity
  8
0
100
AcDbLine
 10
950.4999999999991
 20
257.0999999999985
 30
0.0
 11
961.4999999999993
 21
257.0999999999985
 31
0.0
  0
ARC
  5
4720
330
1D9
100
AcDbEntity
  8
0
100
AcDbCircle
 10
956.500000000001
 20
266.0
 30
0.0
 40
5.0
100
AcDbArc
 50
0.0
 51
90.0
  0
ARC
  5
4721
330
1D9
100
AcDbEntity
  8
0
100
AcDbCircle
 10
1014.52
 20
239.7499999999999
 30
0.0
 40
3.975619999999998
100
AcDbArc
 50
299.7969999999761
 51
60.20289999998767
  0
LINE
  5
4722
330
1D9
100
AcDbEntity
  8
0
100
AcDbLine
 10
1018.500000000007
 20
260.5499999999983
 30
0.0
 11
1018.500000000007
 21
239.7499999999999
 31
0.0
  0
LINE
  5
4723
330
1D9
100
AcDbEntity
  8
0
100
AcDbLine
 10
997.499999999999
 20
223.499999999999
 30
0.0
 11
997.499999999999
 21
400.0
 31
0.0
  0
LINE
  5
4724
330
1D9
100
AcDbEntity
  8
0
100
AcDbLine
 10
1008.500000000007
 20
236.5
 30
0.0
 11
1008.500000000007
 21
400.0
 31
0.0
  0
LINE
  5
4725
330
1D9
100
AcDbEntity
  8
0
100
AcDbLine
 10
987.5000000000008
 20
233.4999999999991
 30
0.0
 11
987.5000000000008
 21
400.0
 31
0.0
  0
LINE
  5
4726
330
1D9
100
AcDbEntity
  8
0
100
AcDbLine
 10
982.499999999999
 20
233.4999999999991
 30
0.0
 11
982.499999999999
 21
400.0
 31
0.0
  0
LINE
  5
4727
330
1D9
100
AcDbEntity
  8
0
100
AcDbLine
 10
1016.500000000007
 20
236.2999999999983
 30
0.0
 11
1008.493325909419
 21
236.2999999999983
 31
0.0
  0
ARC
  5
4728
330
1D9
100
AcDbEntity
  8
0
100
AcDbCircle
 10
1005.500000000007
 20
236.4999999999971
 30
0.0
 40
3.0
100
AcDbArc
 50
270.0
 51
0.0000000000260551
  0
LINE
  5
4729
330
1D9
100
AcDbEntity
  8
0
100
AcDbLine
 10
987.5000000000008
 20
233.4999999999991
 30
0.0
 11
1005.500000000007
 21
233.4999999999991
 31
0.0
  0
ARC
  5
472A
330
1D9
100
AcDbEntity
  8
0
100
AcDbCircle
 10
997.499999999999
 20
400.0
 30
0.0
 40
125.0
100
AcDbArc
 50
284.9206572962005
 51
321.5794684604976
  0
LINE
  5
472B
330
1D9
100
AcDbEntity
  8
0
100
AcDbLine
 10
1029.68514894664
 20
279.2145861981552
 30
0.0
 11
1029.68514894664
 21
400.0
 31
0.0
  0
ARC
  5
472C
330
1D9
100
AcDbEntity
  8
0
100
AcDbCircle
 10
1014.52
 20
260.5499999999983
 30
0.0
 40
3.975619999999998
100
AcDbArc
 50
299.7969999999761
 51
60.20289999998767
  0
ARC
  5
472D
330
1D9
100
AcDbEntity
  8
0
100
AcDbCircle
 10
1005.419999999999
 20
250.1499999999996
 30
0.0
 40
13.0756
100
AcDbArc
 50
327.8910000000073
 51
32.10849999999879
  0
LINE
  5
472E
330
1D9
100
AcDbEntity
  8
0
100
AcDbLine
 10
1008.500000000007
 20
263.999999999999
 30
0.0
 11
1029.68514894664
 21
279.2145861981552
 31
0.0
  0
LINE
  5
472F
330
1D9
100
AcDbEntity
  8
0
100
AcDbLine
 10
1029.68514894664
 20
279.2145861981552
 30
0.0
 11
1008.500000000007
 21
258.0294372515244
 31
0.0
  0
LINE
  5
4730
330
1D9
100
AcDbEntity
  8
0
100
AcDbLine
 10
1016.500000000007
 20
263.999999999999
 30
0.0
 11
1008.500000000007
 21
263.999999999999
 31
0.0
  0
LINE
  5
4731
330
1D9
100
AcDbEntity
  8
0
100
AcDbLine
 10
1016.500000000007
 20
257.0999999999985
 30
0.0
 11
1008.500000000007
 21
257.0999999999985
 31
0.0
  0
LINE
  5
4732
330
1D9
100
AcDbEntity
  8
0
100
AcDbLine
 10
1016.500000000007
 20
243.1999999999998
 30
0.0
 11
1008.500000000007
 21
243.1999999999998
 31
0.0
  0
LINE
  5
4733
330
1D9
100
AcDbEntity
  8
0
100
AcDbLine
 10
982.499999999999
 20
243.0
 30
0.0
 11
987.5000000000008
 21
243.0
 31
0.0
  0
LINE
  5
4734
330
1D9
100
AcDbEntity
  8
0
100
AcDbLine
 10
982.499999999999
 20
259.0
 30
0.0
 11
987.5000000000008
 21
259.0
 31
0.0
  0
LINE
  5
4735
330
1D9
100
AcDbEntity
  8
0
100
AcDbLine
 10
987.5000000000008
 20
271.0
 30
0.0
 11
982.499999999999
 21
271.0
 31
0.0
  0
LINE
  5
4736
330
1D9
100
AcDbEntity
  8
0
100
AcDbLine
 10
1116.500000000007
 20
327.999999999999
 30
0.0
 11
1116.500000000007
 21
400.0
 31
0.0
  0
LINE
  5
4737
330
1D9
100
AcDbEntity
  8
0
100
AcDbLine
 10
1099.68121158022
 20
325.9876642672216
 30
0.0
 11
1099.68121158022
 21
400.0
 31
0.0
  0
ARC
  5
4738
330
1D9
100
AcDbEntity
  8
0
100
AcDbCircle
 10
1107.185915230719
 20
312.9999999999991
 30
0.0
 40
15.0
100
AcDbArc
 50
90.0
 51
141.5794684604976
  0
LINE
  5
4739
330
1D9
100
AcDbEntity
  8
0
100
AcDbLine
 10
1107.185915230719
 20
327.999999999999
 30
0.0
 11
1116.500000000007
 21
327.999999999999
 31
0.0
  0
LINE
  5
473A
330
1D9
100
AcDbEntity
  8
0
100
AcDbLine
 10
1134.388473936498
 20
324.5599088583638
 30
0.0
 11
1116.500000000007
 21
327.999999999999
 31
0.0
  0
ARC
  5
473B
330
1D9
100
AcDbEntity
  8
0
100
AcDbCircle
 10
825.1593479255298
 20
502.403759461019
 30
0.0
 40
10.0
100
AcDbArc
 50
90.0
 51
180.0
  0
ARC
  5
473C
330
1D9
100
AcDbEntity
  8
0
100
AcDbCircle
 10
3613.997999999998
 20
1702.455334987591
 30
0.0
 40
10.0
100
AcDbArc
 50
0.0
 51
90.0
  0
LINE
  5
473D
330
1D9
100
AcDbEntity
  8
0
100
AcDbLine
 10
3621.997999999993
 20
1650.95533498759
 30
0.0
 11
3585.998
 21
1650.95533498759
 31
0.0
  0
LINE
  5
473E
330
1D9
100
AcDbEntity
  8
0
100
AcDbLine
 10
3621.997999999993
 20
1600.955334987593
 30
0.0
 11
3585.998
 21
1600.955334987593
 31
0.0
  0
ARC
  5
473F
330
1D9
100
AcDbEntity
  8
0
100
AcDbCircle
 10
3613.997999999998
 20
1549.45533498759
 30
0.0
 40
10.0
100
AcDbArc
 50
270.0
 51
359.9990000000035
  0
LINE
  5
4740
330
1D9
100
AcDbEntity
  8
0
100
AcDbLine
 10
3583.997999999999
 20
1625.955334987593
 30
0.0
 11
3623.997999999998
 21
1625.955334987593
 31
0.0
  0
LINE
  5
4741
330
1D9
100
AcDbEntity
  8
0
100
AcDbLine
 10
684.3167832432664
 20
497.9000000000005
 30
0.0
 11
592.4703088828855
 21
497.9000000000005
 31
0.0
  0
ARC
  5
4742
330
1D9
100
AcDbEntity
  8
0
100
AcDbCircle
 10
562.8729214894982
 20
504.4999999999982
 30
0.0
 40
20.0
100
AcDbArc
 50
275.9072466875652
 51
306.6656354826308
  0
LINE
  5
4743
330
1D9
100
AcDbEntity
  8
0
100
AcDbLine
 10
557.0640883803507
 20
497.2635773692718
 30
0.0
 11
559.8600883803465
 21
493.976777369271
 31
0.0
  0
ARC
  5
4744
330
1D9
100
AcDbEntity
  8
0
100
AcDbCircle
 10
563.2872883803393
 20
496.8927773692694
 30
0.0
 40
4.5
100
AcDbArc
 50
220.3949999999952
 51
270.0004999999459
  0
LINE
  5
4745
330
1D9
100
AcDbEntity
  8
0
100
AcDbLine
 10
516.5000000000071
 20
557.0
 30
0.0
 11
535.0000500013066
 21
557.0
 31
0.0
  0
LINE
  5
4746
330
1D9
100
AcDbEntity
  8
0
100
AcDbLine
 10
516.5000000000071
 20
541.0
 30
0.0
 11
534.9999451401981
 21
541.0
 31
0.0
  0
LINE
  5
4747
330
1D9
100
AcDbEntity
  8
0
100
AcDbLine
 10
514.4999999999989
 20
535.1499999999987
 30
0.0
 11
503.4999999999991
 21
535.1499999999987
 31
0.0
  0
LINE
  5
4748
330
1D9
100
AcDbEntity
  8
0
100
AcDbLine
 10
514.4999999999989
 20
542.0500000000002
 30
0.0
 11
503.4999999999991
 21
542.0500000000002
 31
0.0
  0
ARC
  5
4749
330
1D9
100
AcDbEntity
  8
0
100
AcDbCircle
 10
512.5239999999994
 20
538.5999999999984
 30
0.0
 40
3.975619999999998
100
AcDbArc
 50
299.7969999999761
 51
60.20289999998767
  0
LINE
  5
474A
330
1D9
100
AcDbEntity
  8
0
100
AcDbLine
 10
514.4999999999989
 20
562.8500000000013
 30
0.0
 11
503.4999999999991
 21
562.8500000000013
 31
0.0
  0
LINE
  5
474B
330
1D9
100
AcDbEntity
  8
0
100
AcDbLine
 10
514.4999999999989
 20
555.9500000000016
 30
0.0
 11
503.4999999999991
 21
555.9500000000016
 31
0.0
  0
ARC
  5
474C
330
1D9
100
AcDbEntity
  8
0
100
AcDbCircle
 10
512.5239999999994
 20
559.4000000000005
 30
0.0
 40
3.975619999999998
100
AcDbArc
 50
299.7969999999761
 51
60.20289999998767
  0
LINE
  5
474D
330
1D9
100
AcDbEntity
  8
0
100
AcDbLine
 10
516.5000000000071
 20
559.4000000000005
 30
0.0
 11
516.5000000000071
 21
538.5999999999984
 31
0.0
  0
ARC
  5
474E
330
1D9
100
AcDbEntity
  8
0
100
AcDbCircle
 10
503.4240000000008
 20
549.0
 30
0.0
 40
13.0756
100
AcDbArc
 50
327.8910000000073
 51
32.10849999999879
  0
ARC
  5
474F
330
1D9
100
AcDbEntity
  8
0
100
AcDbCircle
 10
500.4999999999991
 20
563.4999999999998
 30
0.0
 40
3.0
100
AcDbArc
 50
0.0
 51
90.0
  0
LINE
  5
4750
330
1D9
100
AcDbEntity
  8
0
100
AcDbLine
 10
508.4999999999991
 20
529.0
 30
0.0
 11
529.1832883803489
 21
529.0
 31
0.0
  0
ARC
  5
4751
330
1D9
100
AcDbEntity
  8
0
100
AcDbCircle
 10
508.4999999999991
 20
533.999999999999
 30
0.0
 40
5.0
100
AcDbArc
 50
180.0
 51
270.0
  0
ARC
  5
4752
330
1D9
100
AcDbEntity
  8
0
100
AcDbCircle
 10
514.4167000004198
 20
549.0001348992018
 30
0.0
 40
22.0833
100
AcDbArc
 50
338.7599999999973
 51
21.23929999999877
  0
ARC
  5
4753
330
1D9
100
AcDbEntity
  8
0
100
AcDbCircle
 10
549.3156883803493
 20
524.69437736927
 30
0.0
 40
7.748099999999997
100
AcDbArc
 50
0.0
 51
90.0
  0
LINE
  5
4754
330
1D9
100
AcDbEntity
  8
0
100
AcDbLine
 10
574.8158045964682
 20
488.4573211995884
 30
0.0
 11
583.5131465526592
 21
494.9320091003081
 31
0.0
  0
ARC
  5
4755
330
1D9
100
AcDbEntity
  8
0
100
AcDbCircle
 10
592.4703088828855
 20
482.8999999999996
 30
0.0
 40
15.0
100
AcDbArc
 50
90.0
 51
126.6656354826309
  0
ARC
  5
4756
330
1D9
100
AcDbEntity
  8
0
100
AcDbCircle
 10
742.3868904229684
 20
512.8999999999987
 30
0.0
 40
15.0
100
AcDbArc
 50
240.9453959009197
 51
270.0
  0
ARC
  5
4757
330
1D9
100
AcDbEntity
  8
0
100
AcDbCircle
 10
699.6832167567381
 20
486.8999999999996
 30
0.0
 40
15.0
100
AcDbArc
 50
90.0
 51
113.9624889745312
  0
ARC
  5
4758
330
1D9
100
AcDbEntity
  8
0
100
AcDbCircle
 10
684.3167832432664
 20
512.8999999999987
 30
0.0
 40
15.0
100
AcDbArc
 50
270.0
 51
293.9624889745311
  0
LINE
  5
4759
330
1D9
100
AcDbEntity
  8
0
100
AcDbLine
 10
693.5911397659412
 20
500.607173229303
 30
0.0
 11
690.4088602340707
 21
499.1928267706962
 31
0.0
  0
LINE
  5
475A
330
1D9
100
AcDbEntity
  8
0
100
AcDbLine
 10
727.4131095770508
 20
501.8999999999996
 30
0.0
 11
699.6832167567381
 21
501.8999999999996
 31
0.0
  0
LINE
  5
475B
330
1D9
100
AcDbEntity
  8
0
100
AcDbLine
 10
734.6977535447202
 20
500.0123591418214
 30
0.0
 11
735.1022464552916
 21
499.7876408581769
 31
0.0
  0
ARC
  5
475C
330
1D9
100
AcDbEntity
  8
0
100
AcDbCircle
 10
727.4131095770508
 20
486.8999999999996
 30
0.0
 40
15.0
100
AcDbArc
 50
60.94539590091968
 51
90.0
  0
LINE
  5
475D
330
1D9
100
AcDbEntity
  8
0
100
AcDbLine
 10
815.1593479255208
 20
497.9000000000005
 30
0.0
 11
742.3868904229684
 21
497.8999999999996
 31
0.0
  0
ARC
  5
475F
330
1D9
100
AcDbEntity
  8
0
100
AcDbCircle
 10
3448.904128450283
 20
1710.496984748984
 30
0.0
 40
15.04165133097508
100
AcDbArc
 50
270.0261747066468
 51
307.3853095754893
  0
ARC
  5
4760
330
1D9
100
AcDbEntity
  8
0
100
AcDbCircle
 10
3448.910999999999
 20
1541.455334987591
 30
0.0
 40
14.99999999999887
100
AcDbArc
 50
52.52349999996636
 51
90.0
  0
LINE
  5
4761
330
1D9
100
AcDbEntity
  8
0
100
AcDbLine
 10
3313.99899999999
 20
1625.955334987593
 30
0.0
 11
3313.99899999999
 21
1517.955334987591
 31
0.0
  0
LINE
  5
4762
330
1D9
100
AcDbEntity
  8
0
100
AcDbLine
 10
3316.998999999992
 20
1515.95533498759
 30
0.0
 11
3316.998999999992
 21
1625.955334987593
 31
0.0
  0
LINE
  5
4763
330
1D9
100
AcDbEntity
  8
0
100
AcDbLine
 10
3331.998999999999
 20
1538.455334987593
 30
0.0
 11
3331.998999999999
 21
1625.955334987593
 31
0.0
  0
LINE
  5
4764
330
1D9
100
AcDbEntity
  8
0
100
AcDbLine
 10
3340.998999999992
 20
1563.57533498759
 30
0.0
 11
3340.998999999992
 21
1625.955334987593
 31
0.0
  0
LINE
  5
4765
330
1D9
100
AcDbEntity
  8
0
100
AcDbLine
 10
3336.999
 20
1625.955334987593
 30
0.0
 11
3336.999
 21
1562.955334987591
 31
0.0
  0
LINE
  5
4766
330
1D9
100
AcDbEntity
  8
0
100
AcDbLine
 10
3353.998999999999
 20
1557.186122471246
 30
0.0
 11
3353.998999999999
 21
1625.955334987593
 31
0.0
  0
LINE
  5
4767
330
1D9
100
AcDbEntity
  8
0
100
AcDbLine
 10
3453.998999999999
 20
1555.566049214728
 30
0.0
 11
3453.998999999999
 21
1625.955334987593
 31
0.0
  0
LINE
  5
4768
330
1D9
100
AcDbEntity
  8
0
100
AcDbLine
 10
3359.354999999998
 20
1556.455334987591
 30
0.0
 11
3448.910999999999
 21
1556.455334987591
 31
0.0
  0
LINE
  5
4769
330
1D9
100
AcDbEntity
  8
0
100
AcDbLine
 10
3333.999
 20
1562.955334987591
 30
0.0
 11
3336.999
 21
1562.955334987591
 31
0.0
  0
ARC
  5
476A
330
1D9
100
AcDbEntity
  8
0
100
AcDbCircle
 10
3333.999
 20
1560.955334987593
 30
0.0
 40
2.0
100
AcDbArc
 50
90.0
 51
180.0
  0
ARC
  5
476B
330
1D9
100
AcDbEntity
  8
0
100
AcDbCircle
 10
3310.999000000001
 20
1517.955334987591
 30
0.0
 40
3.0
100
AcDbArc
 50
270.0
 51
0.0
  0
LINE
  5
476C
330
1D9
100
AcDbEntity
  8
0
100
AcDbLine
 10
3313.99899999999
 20
1515.95533498759
 30
0.0
 11
3316.998999999992
 21
1515.95533498759
 31
0.0
  0
ARC
  5
476D
330
1D9
100
AcDbEntity
  8
0
100
AcDbCircle
 10
3321.998999999992
 20
1538.455334987593
 30
0.0
 40
10.0
100
AcDbArc
 50
270.0
 51
0.0
  0
ARC
  5
476E
330
1D9
100
AcDbEntity
  8
0
100
AcDbCircle
 10
3321.998999999992
 20
1523.45533498759
 30
0.0
 40
5.0
100
AcDbArc
 50
90.0
 51
180.0
  0
ARC
  5
476F
330
1D9
100
AcDbEntity
  8
0
100
AcDbCircle
 10
3359.355999999992
 20
1576.45533498759
 30
0.0
 40
20.0
100
AcDbArc
 50
240.0170000000203
 51
269.9990000000034
  0
ARC
  5
4770
330
1D9
100
AcDbEntity
  8
0
100
AcDbCircle
 10
3335.642999999992
 20
1543.95533498759
 30
0.0
 40
20.0
100
AcDbArc
 50
60.01770000000663
 51
86.11236378689341
  0
LINE
  5
4771
330
1D9
100
AcDbEntity
  8
0
100
AcDbLine
 10
3345.637999999993
 20
1561.27533498759
 30
0.0
 11
3349.360000000003
 21
1559.13533498759
 31
0.0
  0
LINE
  5
4772
330
1D9
100
AcDbEntity
  8
0
100
AcDbLine
 10
3359.355965093412
 20
1695.45533498759
 30
0.0
 11
3448.910999999999
 21
1695.45533498759
 31
0.0
  0
LINE
  5
4773
330
1D9
100
AcDbEntity
  8
0
100
AcDbLine
 10
3316.998999999992
 20
1735.955334987591
 30
0.0
 11
3316.998999999992
 21
1625.955334987593
 31
0.0
  0
LINE
  5
4774
330
1D9
100
AcDbEntity
  8
0
100
AcDbLine
 10
3331.998999999999
 20
1713.455334987591
 30
0.0
 11
3331.998999999999
 21
1625.955334987593
 31
0.0
  0
LINE
  5
4775
330
1D9
100
AcDbEntity
  8
0
100
AcDbLine
 10
3313.998999999999
 20
1625.955334987593
 30
0.0
 11
3313.99899999999
 21
1733.955334987592
 31
0.0
  0
LINE
  5
4776
330
1D9
100
AcDbEntity
  8
0
100
AcDbLine
 10
3333.999
 20
1690.95533498759
 30
0.0
 11
3336.999
 21
1690.95533498759
 31
0.0
  0
ARC
  5
4777
330
1D9
100
AcDbEntity
  8
0
100
AcDbCircle
 10
3333.999
 20
1692.955334987592
 30
0.0
 40
2.0
100
AcDbArc
 50
180.0
 51
270.0
  0
LINE
  5
4778
330
1D9
100
AcDbEntity
  8
0
100
AcDbLine
 10
3353.998999999999
 20
1694.075334987589
 30
0.0
 11
3353.998999999999
 21
1625.955334987593
 31
0.0
  0
LINE
  5
4779
330
1D9
100
AcDbEntity
  8
0
100
AcDbLine
 10
3340.998999999992
 20
1688.335334987589
 30
0.0
 11
3340.998999999992
 21
1625.955334987593
 31
0.0
  0
ARC
  5
477A
330
1D9
100
AcDbEntity
  8
0
100
AcDbCircle
 10
3336.984
 20
1702.95533498759
 30
0.0
 40
15.0
100
AcDbArc
 50
269.9980000000067
 51
299.9799999999478
  0
LINE
  5
477B
330
1D9
100
AcDbEntity
  8
0
100
AcDbLine
 10
3336.999
 20
1625.955334987593
 30
0.0
 11
3336.999
 21
1690.95533498759
 31
0.0
  0
LINE
  5
477C
330
1D9
100
AcDbEntity
  8
0
100
AcDbLine
 10
3344.478999999994
 20
1689.96533498759
 30
0.0
 11
3349.360000000003
 21
1692.775334987591
 31
0.0
  0
ARC
  5
477D
330
1D9
100
AcDbEntity
  8
0
100
AcDbCircle
 10
3359.355999999992
 20
1675.45533498759
 30
0.0
 40
20.0
100
AcDbArc
 50
90.00010000001006
 51
119.9820000000187
  0
ARC
  5
477E
330
1D9
100
AcDbEntity
  8
0
100
AcDbCircle
 10
3321.998999999992
 20
1728.455334987589
 30
0.0
 40
5.0
100
AcDbArc
 50
180.0
 51
270.0
  0
LINE
  5
477F
330
1D9
100
AcDbEntity
  8
0
100
AcDbLine
 10
3313.99899999999
 20
1735.955334987591
 30
0.0
 11
3316.998999999992
 21
1735.955334987591
 31
0.0
  0
ARC
  5
4780
330
1D9
100
AcDbEntity
  8
0
100
AcDbCircle
 10
3310.999000000001
 20
1733.955334987592
 30
0.0
 40
3.0
100
AcDbArc
 50
0.0
 51
90.0
  0
ARC
  5
4781
330
1D9
100
AcDbEntity
  8
0
100
AcDbCircle
 10
3321.998999999992
 20
1713.455334987591
 30
0.0
 40
10.0
100
AcDbArc
 50
0.0
 51
90.0
  0
LINE
  5
4782
330
1D9
100
AcDbEntity
  8
0
100
AcDbLine
 10
3453.998999999999
 20
1696.344474065202
 30
0.0
 11
3453.998999999999
 21
1625.955334987593
 31
0.0
  0
LINE
  5
4783
330
1D9
100
AcDbEntity
  8
0
100
AcDbLine
 10
3497.798999999993
 20
1550.16117163319
 30
0.0
 11
3497.799000000002
 21
1625.955334987593
 31
0.0
  0
LINE
  5
4784
330
1D9
100
AcDbEntity
  8
0
100
AcDbLine
 10
3462.998999999992
 20
1550.444981378555
 30
0.0
 11
3462.998999999992
 21
1625.955334987593
 31
0.0
  0
LINE
  5
4785
330
1D9
100
AcDbEntity
  8
0
100
AcDbLine
 10
3504.999
 20
1553.348900077589
 30
0.0
 11
3504.999
 21
1625.955334987593
 31
0.0
  0
LINE
  5
4786
330
1D9
100
AcDbEntity
  8
0
100
AcDbLine
 10
3583.997999999999
 20
1625.955334987593
 30
0.0
 11
3583.997999999999
 21
1549.45533498759
 31
0.0
  0
LINE
  5
4787
330
1D9
100
AcDbEntity
  8
0
100
AcDbLine
 10
3509.220999999999
 20
1553.95533498759
 30
0.0
 11
3583.997999999999
 21
1553.95533498759
 31
0.0
  0
ARC
  5
4788
330
1D9
100
AcDbEntity
  8
0
100
AcDbCircle
 10
3493.57801017673
 20
1564.562509183462
 30
0.0
 40
15.00717422851407
100
AcDbArc
 50
270.0037790389497
 51
301.4161071165546
  0
LINE
  5
4789
330
1D9
100
AcDbEntity
  8
0
100
AcDbLine
 10
3468.086999999992
 20
1549.555334987591
 30
0.0
 11
3493.57899999999
 21
1549.555334987591
 31
0.0
  0
LINE
  5
478A
330
1D9
100
AcDbEntity
  8
0
100
AcDbLine
 10
3458.037539730861
 20
1553.359379365071
 30
0.0
 11
3458.961356387105
 21
1552.651370254647
 31
0.0
  0
ARC
  5
478B
330
1D9
100
AcDbEntity
  8
0
100
AcDbCircle
 10
3468.08800015018
 20
1564.555335268767
 30
0.0
 40
15.00000031452021
100
AcDbArc
 50
232.523000198233
 51
269.9961797077954
  0
ARC
  5
478C
330
1D9
100
AcDbEntity
  8
0
100
AcDbCircle
 10
3509.220999999999
 20
1538.955334987591
 30
0.0
 40
14.99999999999976
100
AcDbArc
 50
90.0
 51
121.4239999999938
  0
ARC
  5
478D
330
1D9
100
AcDbEntity
  8
0
100
AcDbCircle
 10
3614.398000000001
 20
1591.92533498759
 30
0.0
 40
3.975619999999998
100
AcDbArc
 50
209.7970000000204
 51
330.2019999999993
  0
LINE
  5
478E
330
1D9
100
AcDbEntity
  8
0
100
AcDbLine
 10
3610.948000000001
 20
1589.95533498759
 30
0.0
 11
3610.948000000001
 21
1600.955334987593
 31
0.0
  0
LINE
  5
478F
330
1D9
100
AcDbEntity
  8
0
100
AcDbLine
 10
3617.848
 20
1589.95533498759
 30
0.0
 11
3617.848
 21
1600.955334987593
 31
0.0
  0
ARC
  5
4790
330
1D9
100
AcDbEntity
  8
0
100
AcDbCircle
 10
3593.597999999992
 20
1591.92533498759
 30
0.0
 40
3.975619999999998
100
AcDbArc
 50
209.7970000000204
 51
330.2019999999993
  0
LINE
  5
4791
330
1D9
100
AcDbEntity
  8
0
100
AcDbLine
 10
3590.147999999993
 20
1589.95533498759
 30
0.0
 11
3590.147999999993
 21
1600.955334987593
 31
0.0
  0
ARC
  5
4792
330
1D9
100
AcDbEntity
  8
0
100
AcDbCircle
 10
3585.998
 20
1602.955334987591
 30
0.0
 40
2.0
100
AcDbArc
 50
180.0
 51
270.0
  0
LINE
  5
4793
330
1D9
100
AcDbEntity
  8
0
100
AcDbLine
 10
3597.048000000003
 20
1589.95533498759
 30
0.0
 11
3597.048000000003
 21
1600.955334987593
 31
0.0
  0
LINE
  5
4794
330
1D9
100
AcDbEntity
  8
0
100
AcDbLine
 10
3593.597999999992
 20
1587.95533498759
 30
0.0
 11
3614.398000000001
 21
1587.95533498759
 31
0.0
  0
ARC
  5
4795
330
1D9
100
AcDbEntity
  8
0
100
AcDbCircle
 10
3603.998
 20
1601.02533498759
 30
0.0
 40
13.0756
100
AcDbArc
 50
237.8909999999804
 51
302.1069999999916
  0
ARC
  5
4796
330
1D9
100
AcDbEntity
  8
0
100
AcDbCircle
 10
3603.998
 20
1592.035334987589
 30
0.0
 40
22.0833
100
AcDbArc
 50
248.760000000024
 51
291.2390000000152
  0
LINE
  5
4797
330
1D9
100
AcDbEntity
  8
0
100
AcDbLine
 10
3595.997999999998
 20
1587.95533498759
 30
0.0
 11
3595.997999999998
 21
1571.45533498759
 31
0.0
  0
LINE
  5
4798
330
1D9
100
AcDbEntity
  8
0
100
AcDbLine
 10
3611.997999999993
 20
1587.95533498759
 30
0.0
 11
3611.997999999993
 21
1571.45533498759
 31
0.0
  0
ARC
  5
4799
330
1D9
100
AcDbEntity
  8
0
100
AcDbCircle
 10
3593.998
 20
1549.45533498759
 30
0.0
 40
10.0
100
AcDbArc
 50
180.0
 51
270.0
  0
LINE
  5
479A
330
1D9
100
AcDbEntity
  8
0
100
AcDbLine
 10
3613.997999999998
 20
1539.45533498759
 30
0.0
 11
3593.998
 21
1539.45533498759
 31
0.0
  0
LINE
  5
479B
330
1D9
100
AcDbEntity
  8
0
100
AcDbLine
 10
3509.220999999999
 20
1697.955334987589
 30
0.0
 11
3583.997999999999
 21
1697.955334987589
 31
0.0
  0
LINE
  5
479C
330
1D9
100
AcDbEntity
  8
0
100
AcDbLine
 10
3462.998999999992
 20
1701.465590712297
 30
0.0
 11
3462.998999999992
 21
1625.955334987593
 31
0.0
  0
LINE
  5
479D
330
1D9
100
AcDbEntity
  8
0
100
AcDbLine
 10
3497.799000000002
 20
1701.749486577733
 30
0.0
 11
3497.799000000002
 21
1625.955334987593
 31
0.0
  0
ARC
  5
479E
330
1D9
100
AcDbEntity
  8
0
100
AcDbCircle
 10
3493.57899999999
 20
1687.355334987591
 30
0.0
 40
15.0
100
AcDbArc
 50
58.57640000003009
 51
90.0004999999461
  0
ARC
  5
479F
330
1D9
100
AcDbEntity
  8
0
100
AcDbCircle
 10
3468.083452775852
 20
1687.382895599127
 30
0.0
 40
14.97244007102134
100
AcDbArc
 50
89.98269909544717
 51
127.5376751695812
  0
LINE
  5
47A0
330
1D9
100
AcDbEntity
  8
0
100
AcDbLine
 10
3458.037
 20
1698.54533498759
 30
0.0
 11
3458.960999999995
 21
1699.25533498759
 31
0.0
  0
LINE
  5
47A1
330
1D9
100
AcDbEntity
  8
0
100
AcDbLine
 10
3504.999
 20
1698.561758005396
 30
0.0
 11
3504.999
 21
1625.955334987593
 31
0.0
  0
ARC
  5
47A2
330
1D9
100
AcDbEntity
  8
0
100
AcDbCircle
 10
3509.221989985821
 20
1712.962509667965
 30
0.0
 40
15.00717471302786
100
AcDbArc
 50
238.5834935092489
 51
269.996220340626
  0
LINE
  5
47A3
330
1D9
100
AcDbEntity
  8
0
100
AcDbLine
 10
3468.087973820061
 20
1702.355334987567
 30
0.0
 11
3493.578869100313
 21
1702.355334987019
 31
0.0
  0
LINE
  5
47A4
330
1D9
100
AcDbEntity
  8
0
100
AcDbLine
 10
3583.997999999999
 20
1625.955334987593
 30
0.0
 11
3583.997999999999
 21
1702.455334987591
 31
0.0
  0
ARC
  5
47A5
330
1D9
100
AcDbEntity
  8
0
100
AcDbCircle
 10
3603.998
 20
1650.88533498759
 30
0.0
 40
13.0756
100
AcDbArc
 50
57.89300000000825
 51
122.1090000000194
  0
LINE
  5
47A6
330
1D9
100
AcDbEntity
  8
0
100
AcDbLine
 10
3597.047999999993
 20
1661.955334987591
 30
0.0
 11
3597.047999999993
 21
1650.95533498759
 31
0.0
  0
LINE
  5
47A7
330
1D9
100
AcDbEntity
  8
0
100
AcDbLine
 10
3617.847999999993
 20
1661.955334987591
 30
0.0
 11
3617.847999999993
 21
1650.95533498759
 31
0.0
  0
LINE
  5
47A8
330
1D9
100
AcDbEntity
  8
0
100
AcDbLine
 10
3610.948000000001
 20
1661.955334987591
 30
0.0
 11
3610.948000000001
 21
1650.95533498759
 31
0.0
  0
ARC
  5
47A9
330
1D9
100
AcDbEntity
  8
0
100
AcDbCircle
 10
3614.398000000001
 20
1659.985334987591
 30
0.0
 40
3.975619999999998
100
AcDbArc
 50
29.79800000000052
 51
150.2029999999793
  0
ARC
  5
47AA
330
1D9
100
AcDbEntity
  8
0
100
AcDbCircle
 10
3585.998
 20
1648.95533498759
 30
0.0
 40
2.0
100
AcDbArc
 50
90.0
 51
180.0
  0
LINE
  5
47AB
330
1D9
100
AcDbEntity
  8
0
100
AcDbLine
 10
3590.147999999993
 20
1661.955334987591
 30
0.0
 11
3590.147999999993
 21
1650.95533498759
 31
0.0
  0
LINE
  5
47AC
330
1D9
100
AcDbEntity
  8
0
100
AcDbLine
 10
3593.597999999992
 20
1663.955334987591
 30
0.0
 11
3614.398000000001
 21
1663.955334987591
 31
0.0
  0
ARC
  5
47AD
330
1D9
100
AcDbEntity
  8
0
100
AcDbCircle
 10
3593.597999999992
 20
1659.985334987591
 30
0.0
 40
3.975619999999998
100
AcDbArc
 50
29.79800000000052
 51
150.2029999999793
  0
ARC
  5
47AE
330
1D9
100
AcDbEntity
  8
0
100
AcDbCircle
 10
3593.998
 20
1702.455334987591
 30
0.0
 40
10.0
100
AcDbArc
 50
90.0
 51
180.0
  0
LINE
  5
47AF
330
1D9
100
AcDbEntity
  8
0
100
AcDbLine
 10
3613.997999999998
 20
1712.455334987589
 30
0.0
 11
3593.998
 21
1712.455334987589
 31
0.0
  0
LINE
  5
47B0
330
1D9
100
AcDbEntity
  8
0
100
AcDbLine
 10
982.499999999999
 20
566.5
 30
0.0
 11
964.5000000000072
 21
566.5
 31
0.0
  0
LINE
  5
47B1
330
1D9
100
AcDbEntity
  8
0
100
AcDbLine
 10
855.1593479255206
 20
484.499999999999
 30
0.0
 11
900.0687116196585
 21
484.499999999999
 31
0.0
  0
ARC
  5
47B2
330
1D9
100
AcDbEntity
  8
0
100
AcDbCircle
 10
845.1593479255297
 20
502.403759461019
 30
0.0
 40
10.0
100
AcDbArc
 50
359.9999999999738
 51
90.0
  0
LINE
  5
47B3
330
1D9
100
AcDbEntity
  8
0
100
AcDbLine
 10
876.1593479255209
 20
510.5
 30
0.0
 11
856.1593479255206
 21
510.5
 31
0.0
  0
LINE
  5
47B4
330
1D9
100
AcDbEntity
  8
0
100
AcDbLine
 10
856.1593479255206
 20
515.4999999999992
 30
0.0
 11
857.1593479255207
 21
516.4999999999992
 31
0.0
  0
LINE
  5
47B5
330
1D9
100
AcDbEntity
  8
0
100
AcDbLine
 10
876.1593479255209
 20
494.5
 30
0.0
 11
856.1593479255206
 21
494.5
 31
0.0
  0
LINE
  5
47B6
330
1D9
100
AcDbEntity
  8
0
100
AcDbLine
 10
856.1593479255206
 20
489.499999999999
 30
0.0
 11
872.1593479255206
 21
489.499999999999
 31
0.0
  0
LINE
  5
47B7
330
1D9
100
AcDbEntity
  8
0
100
AcDbLine
 10
862.1593479255297
 20
489.499999999999
 30
0.0
 11
856.1593479255206
 21
493.499999999999
 31
0.0
  0
LINE
  5
47B8
330
1D9
100
AcDbEntity
  8
0
100
AcDbLine
 10
856.1593479255206
 20
510.5
 30
0.0
 11
856.1593479255206
 21
515.4999999999992
 31
0.0
  0
LINE
  5
47B9
330
1D9
100
AcDbEntity
  8
0
100
AcDbLine
 10
856.1593479255206
 20
510.5
 30
0.0
 11
851.0288359044697
 21
510.5
 31
0.0
  0
LINE
  5
47BA
330
1D9
100
AcDbEntity
  8
0
100
AcDbLine
 10
825.1593479255298
 20
512.4037594610171
 30
0.0
 11
845.1593479255297
 21
512.4037594610171
 31
0.0
  0
LINE
  5
47BB
330
1D9
100
AcDbEntity
  8
0
100
AcDbLine
 10
856.1593479255206
 20
493.499999999999
 30
0.0
 11
856.1593479255206
 21
494.5
 31
0.0
  0
ARC
  5
47BC
330
1D9
100
AcDbEntity
  8
0
100
AcDbCircle
 10
858.1593479255207
 20
491.4999999999991
 30
0.0
 40
3.0
100
AcDbArc
 50
131.8100000000022
 51
180.0
  0
LINE
  5
47BD
330
1D9
100
AcDbEntity
  8
0
100
AcDbLine
 10
856.1593479255206
 20
484.499999999999
 30
0.0
 11
856.1593479255206
 21
489.499999999999
 31
0.0
  0
ARC
  5
47BE
330
1D9
100
AcDbEntity
  8
0
100
AcDbCircle
 10
845.5593479255202
 20
434.0337594610182
 30
0.0
 40
3.975619999999998
100
AcDbArc
 50
29.79800000000052
 51
150.2029999999859
  0
ARC
  5
47BF
330
1D9
100
AcDbEntity
  8
0
100
AcDbCircle
 10
824.7593479255211
 20
434.0337594610182
 30
0.0
 40
3.975619999999998
100
AcDbArc
 50
29.79800000000052
 51
150.2029999999859
  0
ARC
  5
47C0
330
1D9
100
AcDbEntity
  8
0
100
AcDbCircle
 10
835.1593479255209
 20
424.9337594610178
 30
0.0
 40
13.0756
100
AcDbArc
 50
57.89300000000825
 51
122.1089999999946
  0
LINE
  5
47C1
330
1D9
100
AcDbEntity
  8
0
100
AcDbLine
 10
824.7593479255211
 20
438.0037594610167
 30
0.0
 11
845.5593479255202
 21
438.0037594610167
 31
0.0
  0
ARC
  5
47C2
330
1D9
100
AcDbEntity
  8
0
100
AcDbCircle
 10
876.1593479255209
 20
507.4999999999991
 30
0.0
 40
3.0
100
AcDbArc
 50
0.0
 51
90.0
  0
LINE
  5
47C3
330
1D9
100
AcDbEntity
  8
0
100
AcDbLine
 10
879.1593479255297
 20
507.4999999999991
 30
0.0
 11
879.1593479255297
 21
497.5
 31
0.0
  0
LINE
  5
47C4
330
1D9
100
AcDbEntity
  8
0
100
AcDbLine
 10
857.1593479255207
 20
516.4999999999992
 30
0.0
 11
871.1593479255206
 21
516.4999999999992
 31
0.0
  0
LINE
  5
47C5
330
1D9
100
AcDbEntity
  8
0
100
AcDbLine
 10
871.1593479255206
 20
516.4999999999992
 30
0.0
 11
872.1593479255206
 21
515.4999999999992
 31
0.0
  0
LINE
  5
47C6
330
1D9
100
AcDbEntity
  8
0
100
AcDbLine
 10
872.1593479255206
 20
515.4999999999992
 30
0.0
 11
872.1593479255206
 21
510.5
 31
0.0
  0
LINE
  5
47C7
330
1D9
100
AcDbEntity
  8
0
100
AcDbLine
 10
872.1593479255206
 20
494.5
 30
0.0
 11
872.1593479255206
 21
493.499999999999
 31
0.0
  0
LINE
  5
47C8
330
1D9
100
AcDbEntity
  8
0
100
AcDbLine
 10
872.1593479255206
 20
493.499999999999
 30
0.0
 11
866.1593479255298
 21
489.499999999999
 31
0.0
  0
LINE
  5
47C9
330
1D9
100
AcDbEntity
  8
0
100
AcDbLine
 10
872.1593479255206
 20
489.499999999999
 30
0.0
 11
872.1593479255298
 21
484.499999999999
 31
0.0
  0
ARC
  5
47CA
330
1D9
100
AcDbEntity
  8
0
100
AcDbCircle
 10
876.1593479255209
 20
497.5
 30
0.0
 40
3.0
100
AcDbArc
 50
270.0
 51
0.0
  0
ARC
  5
47CB
330
1D9
100
AcDbEntity
  8
0
100
AcDbCircle
 10
901.7127116196588
 20
496.8927773692694
 30
0.0
 40
4.5
100
AcDbArc
 50
269.9994999999497
 51
319.6050000000046
  0
LINE
  5
47CC
330
1D9
100
AcDbEntity
  8
0
100
AcDbLine
 10
907.9359116196592
 20
497.2635773692718
 30
0.0
 11
905.139911619659
 21
493.976777369271
 31
0.0
  0
LINE
  5
47CD
330
1D9
100
AcDbEntity
  8
0
100
AcDbLine
 10
948.499999999999
 20
557.8499999999993
 30
0.0
 11
930.0000024283193
 21
557.8499999999993
 31
0.0
  0
LINE
  5
47CE
330
1D9
100
AcDbEntity
  8
0
100
AcDbLine
 10
948.499999999999
 20
541.8499999999984
 30
0.0
 11
930.0000024283193
 21
541.8499999999984
 31
0.0
  0
LINE
  5
47CF
330
1D9
100
AcDbEntity
  8
0
100
AcDbLine
 10
956.500000000001
 20
529.0
 30
0.0
 11
935.8167116196593
 21
529.0
 31
0.0
  0
ARC
  5
47D0
330
1D9
100
AcDbEntity
  8
0
100
AcDbCircle
 10
950.5832999991707
 20
549.8499999999984
 30
0.0
 40
22.0833
100
AcDbArc
 50
158.7599999999974
 51
201.239344165642
  0
ARC
  5
47D1
330
1D9
100
AcDbEntity
  8
0
100
AcDbCircle
 10
915.6843116196576
 20
524.69437736927
 30
0.0
 40
7.748099999999997
100
AcDbArc
 50
90.0
 51
180.0
  0
ARC
  5
47D2
330
1D9
100
AcDbEntity
  8
0
100
AcDbCircle
 10
952.4800000000068
 20
560.25
 30
0.0
 40
3.975619999999998
100
AcDbArc
 50
119.7969999999761
 51
240.2020000000284
  0
ARC
  5
47D3
330
1D9
100
AcDbEntity
  8
0
100
AcDbCircle
 10
952.4800000000068
 20
539.4500000000006
 30
0.0
 40
3.975619999999998
100
AcDbArc
 50
119.7969999999761
 51
240.2020000000284
  0
LINE
  5
47D4
330
1D9
100
AcDbEntity
  8
0
100
AcDbLine
 10
948.499999999999
 20
560.25
 30
0.0
 11
948.499999999999
 21
539.4500000000006
 31
0.0
  0
ARC
  5
47D5
330
1D9
100
AcDbEntity
  8
0
100
AcDbCircle
 10
961.5800000000072
 20
549.8499999999984
 30
0.0
 40
13.0756
100
AcDbArc
 50
147.8910000000072
 51
212.1079999999746
  0
LINE
  5
47D6
330
1D9
100
AcDbEntity
  8
0
100
AcDbLine
 10
950.4999999999991
 20
542.8999999999996
 30
0.0
 11
961.4999999999993
 21
542.8999999999996
 31
0.0
  0
LINE
  5
47D7
330
1D9
100
AcDbEntity
  8
0
100
AcDbLine
 10
950.4999999999991
 20
563.7000000000007
 30
0.0
 11
961.4999999999993
 21
563.7000000000007
 31
0.0
  0
LINE
  5
47D8
330
1D9
100
AcDbEntity
  8
0
100
AcDbLine
 10
950.4999999999991
 20
556.7999999999991
 30
0.0
 11
961.4999999999993
 21
556.7999999999991
 31
0.0
  0
LINE
  5
47D9
330
1D9
100
AcDbEntity
  8
0
100
AcDbLine
 10
950.4999999999991
 20
535.9999999999992
 30
0.0
 11
961.4999999999993
 21
535.9999999999992
 31
0.0
  0
ARC
  5
47DA
330
1D9
100
AcDbEntity
  8
0
100
AcDbCircle
 10
964.5000000000072
 20
563.4999999999998
 30
0.0
 40
3.0
100
AcDbArc
 50
90.0
 51
180.0
  0
ARC
  5
47DB
330
1D9
100
AcDbEntity
  8
0
100
AcDbCircle
 10
956.500000000001
 20
533.999999999999
 30
0.0
 40
5.0
100
AcDbArc
 50
270.0
 51
0.0
  0
ARC
  5
47DC
330
1D9
100
AcDbEntity
  8
0
100
AcDbCircle
 10
997.499999999999
 20
400.0
 30
0.0
 40
125.0
100
AcDbArc
 50
38.42053153950232
 51
75.07934270379941
  0
LINE
  5
47DD
330
1D9
100
AcDbEntity
  8
0
100
AcDbLine
 10
1029.68514894664
 20
520.7854138018436
 30
0.0
 11
1008.500000000007
 21
541.9705627484753
 31
0.0
  0
LINE
  5
47DE
330
1D9
100
AcDbEntity
  8
0
100
AcDbLine
 10
1008.500000000007
 20
535.9999999999992
 30
0.0
 11
1029.68514894664
 21
520.7854138018436
 31
0.0
  0
ARC
  5
47DF
330
1D9
100
AcDbEntity
  8
0
100
AcDbCircle
 10
1014.52
 20
560.25
 30
0.0
 40
3.975619999999998
100
AcDbArc
 50
299.7969999999761
 51
60.20289999998767
  0
ARC
  5
47E0
330
1D9
100
AcDbEntity
  8
0
100
AcDbCircle
 10
1014.52
 20
539.4500000000006
 30
0.0
 40
3.975619999999998
100
AcDbArc
 50
299.7969999999761
 51
60.20289999998767
  0
ARC
  5
47E1
330
1D9
100
AcDbEntity
  8
0
100
AcDbCircle
 10
1005.419999999999
 20
549.8499999999984
 30
0.0
 40
13.0756
100
AcDbArc
 50
327.8910000000073
 51
32.10849999999879
  0
LINE
  5
47E2
330
1D9
100
AcDbEntity
  8
0
100
AcDbLine
 10
1016.500000000007
 20
535.9999999999992
 30
0.0
 11
1008.500000000007
 21
535.9999999999992
 31
0.0
  0
LINE
  5
47E3
330
1D9
100
AcDbEntity
  8
0
100
AcDbLine
 10
1016.500000000007
 20
563.7000000000007
 30
0.0
 11
1008.500000000007
 21
563.7000000000007
 31
0.0
  0
LINE
  5
47E4
330
1D9
100
AcDbEntity
  8
0
100
AcDbLine
 10
1016.500000000007
 20
556.7999999999991
 30
0.0
 11
1008.500000000007
 21
556.7999999999991
 31
0.0
  0
LINE
  5
47E5
330
1D9
100
AcDbEntity
  8
0
100
AcDbLine
 10
1016.500000000007
 20
542.8999999999996
 30
0.0
 11
1008.500000000007
 21
542.8999999999996
 31
0.0
  0
LINE
  5
47E6
330
1D9
100
AcDbEntity
  8
0
100
AcDbLine
 10
982.499999999999
 20
541.0
 30
0.0
 11
987.5000000000008
 21
541.0
 31
0.0
  0
LINE
  5
47E7
330
1D9
100
AcDbEntity
  8
0
100
AcDbLine
 10
982.499999999999
 20
557.0
 30
0.0
 11
987.5000000000008
 21
557.0
 31
0.0
  0
LINE
  5
47E8
330
1D9
100
AcDbEntity
  8
0
100
AcDbLine
 10
987.5000000000008
 20
566.5
 30
0.0
 11
1005.500000000007
 21
566.5
 31
0.0
  0
ARC
  5
47E9
330
1D9
100
AcDbEntity
  8
0
100
AcDbCircle
 10
1005.500000000007
 20
563.4999999999998
 30
0.0
 40
3.0
100
AcDbArc
 50
359.9999999999738
 51
90.0
  0
LINE
  5
47EA
330
1D9
100
AcDbEntity
  8
0
100
AcDbLine
 10
987.5000000000008
 20
529.0
 30
0.0
 11
982.499999999999
 21
529.0
 31
0.0
  0
LINE
  5
47EB
330
1D9
100
AcDbEntity
  8
0
100
AcDbLine
 10
1018.500000000007
 20
560.25
 30
0.0
 11
1018.500000000007
 21
539.4500000000006
 31
0.0
  0
ARC
  5
47EC
330
1D9
100
AcDbEntity
  8
0
100
AcDbCircle
 10
1107.185915230719
 20
487.0
 30
0.0
 40
15.0
100
AcDbArc
 50
218.4205315395022
 51
270.0
  0
LINE
  5
47ED
330
1D9
100
AcDbEntity
  8
0
100
AcDbLine
 10
1134.388473936498
 20
475.4400911416341
 30
0.0
 11
1116.500000000007
 21
472.0
 31
0.0
  0
LINE
  5
47EE
330
1D9
100
AcDbEntity
  8
0
100
AcDbLine
 10
1107.185915230719
 20
472.0
 30
0.0
 11
1116.500000000007
 21
472.0
 31
0.0
  0
ARC
  5
47EF
330
1D9
100
AcDbEntity
  8
0
100
AcDbCircle
 10
3786.001987123051
 20
1729.852166191608
 30
0.0
 40
10.01230521591661
100
AcDbArc
 50
187.2795084519528
 51
252.378674475539
  0
ARC
  5
47F0
330
1D9
100
AcDbEntity
  8
0
100
AcDbCircle
 10
3786.033412937102
 20
1522.032289991374
 30
0.0
 40
10.04682324213062
100
AcDbArc
 50
107.7380098797876
 51
172.5952046575649
  0
LINE
  5
47F1
330
1D9
100
AcDbEntity
  8
0
100
AcDbLine
 10
3752.999999999992
 20
1625.955334987593
 30
0.0
 11
3752.999999999992
 21
1504.955334987593
 31
0.0
  0
LINE
  5
47F2
330
1D9
100
AcDbEntity
  8
0
100
AcDbLine
 10
3623.997999999998
 20
1549.45533498759
 30
0.0
 11
3623.997999999998
 21
1625.955334987593
 31
0.0
  0
LINE
  5
47F3
330
1D9
100
AcDbEntity
  8
0
100
AcDbLine
 10
3691.999999999992
 20
1625.955334987593
 30
0.0
 11
3691.999999999992
 21
1517.955334987593
 31
0.0
  0
LINE
  5
47F4
330
1D9
100
AcDbEntity
  8
0
100
AcDbLine
 10
3688.999999999992
 20
1515.955334987591
 30
0.0
 11
3688.999999999992
 21
1625.955334987593
 31
0.0
  0
LINE
  5
47F5
330
1D9
100
AcDbEntity
  8
0
100
AcDbLine
 10
3674.0
 20
1538.455334987593
 30
0.0
 11
3674.0
 21
1625.955334987593
 31
0.0
  0
LINE
  5
47F6
330
1D9
100
AcDbEntity
  8
0
100
AcDbLine
 10
3668.000000000001
 20
1625.955334987593
 30
0.0
 11
3668.000000000001
 21
1565.994942793027
 31
0.0
  0
LINE
  5
47F7
330
1D9
100
AcDbEntity
  8
0
100
AcDbLine
 10
3668.999999999992
 20
1625.955334987593
 30
0.0
 11
3668.999999999992
 21
1562.955334987593
 31
0.0
  0
LINE
  5
47F8
330
1D9
100
AcDbEntity
  8
0
100
AcDbLine
 10
3776.069999999992
 20
1523.324145634068
 30
0.0
 11
3776.069999999992
 21
1625.955334987593
 31
0.0
  0
LINE
  5
47F9
330
1D9
100
AcDbEntity
  8
0
100
AcDbLine
 10
3694.999999999994
 20
1514.955334987593
 30
0.0
 11
3749.999999999992
 21
1514.955334987593
 31
0.0
  0
LINE
  5
47FA
330
1D9
100
AcDbEntity
  8
0
100
AcDbLine
 10
3623.997999999998
 20
1566.95533498759
 30
0.0
 11
3665.788999999993
 21
1566.95533498759
 31
0.0
  0
LINE
  5
47FB
330
1D9
100
AcDbEntity
  8
0
100
AcDbLine
 10
3647.997999999999
 20
1543.95533498759
 30
0.0
 11
3647.997999999999
 21
1553.95533498759
 31
0.0
  0
ARC
  5
47FC
330
1D9
100
AcDbEntity
  8
0
100
AcDbCircle
 10
3621.997999999993
 20
1602.955334987591
 30
0.0
 40
2.0
100
AcDbArc
 50
270.0
 51
0.0
  0
LINE
  5
47FD
330
1D9
100
AcDbEntity
  8
0
100
AcDbLine
 10
3640.997999999993
 20
1557.95533498759
 30
0.0
 11
3634.997999999999
 21
1561.95533498759
 31
0.0
  0
LINE
  5
47FE
330
1D9
100
AcDbEntity
  8
0
100
AcDbLine
 10
3624.997999999998
 20
1561.95533498759
 30
0.0
 11
3640.997999999993
 21
1561.95533498759
 31
0.0
  0
LINE
  5
47FF
330
1D9
100
AcDbEntity
  8
0
100
AcDbLine
 10
3644.997999999993
 20
1556.95533498759
 30
0.0
 11
3626.997999999999
 21
1556.95533498759
 31
0.0
  0
ARC
  5
4800
330
1D9
100
AcDbEntity
  8
0
100
AcDbCircle
 10
3626.997999999999
 20
1559.95533498759
 30
0.0
 40
3.0
100
AcDbArc
 50
180.0
 51
270.0
  0
LINE
  5
4801
330
1D9
100
AcDbEntity
  8
0
100
AcDbLine
 10
3630.997999999993
 20
1561.95533498759
 30
0.0
 11
3624.997999999998
 21
1557.95533498759
 31
0.0
  0
LINE
  5
4802
330
1D9
100
AcDbEntity
  8
0
100
AcDbLine
 10
3624.997999999998
 20
1566.95533498759
 30
0.0
 11
3624.997999999998
 21
1561.95533498759
 31
0.0
  0
LINE
  5
4803
330
1D9
100
AcDbEntity
  8
0
100
AcDbLine
 10
3624.997999999998
 20
1557.95533498759
 30
0.0
 11
3624.997999999998
 21
1557.719267010091
 31
0.0
  0
LINE
  5
4804
330
1D9
100
AcDbEntity
  8
0
100
AcDbLine
 10
3640.997999999993
 20
1561.95533498759
 30
0.0
 11
3640.997999999993
 21
1566.95533498759
 31
0.0
  0
LINE
  5
4805
330
1D9
100
AcDbEntity
  8
0
100
AcDbLine
 10
3640.997999999993
 20
1556.95533498759
 30
0.0
 11
3640.997999999993
 21
1557.95533498759
 31
0.0
  0
LINE
  5
4806
330
1D9
100
AcDbEntity
  8
0
100
AcDbLine
 10
3625.997999999993
 20
1534.955334987591
 30
0.0
 11
3639.997999999993
 21
1534.955334987591
 31
0.0
  0
LINE
  5
4807
330
1D9
100
AcDbEntity
  8
0
100
AcDbLine
 10
3644.997999999993
 20
1540.95533498759
 30
0.0
 11
3619.258
 21
1540.95533498759
 31
0.0
  0
LINE
  5
4808
330
1D9
100
AcDbEntity
  8
0
100
AcDbLine
 10
3624.997999999998
 20
1535.95533498759
 30
0.0
 11
3625.997999999993
 21
1534.955334987591
 31
0.0
  0
LINE
  5
4809
330
1D9
100
AcDbEntity
  8
0
100
AcDbLine
 10
3624.997999999998
 20
1540.95533498759
 30
0.0
 11
3624.997999999998
 21
1535.95533498759
 31
0.0
  0
LINE
  5
480A
330
1D9
100
AcDbEntity
  8
0
100
AcDbLine
 10
3640.997999999993
 20
1535.95533498759
 30
0.0
 11
3640.997999999993
 21
1540.95533498759
 31
0.0
  0
LINE
  5
480B
330
1D9
100
AcDbEntity
  8
0
100
AcDbLine
 10
3639.997999999993
 20
1534.955334987591
 30
0.0
 11
3640.997999999993
 21
1535.95533498759
 31
0.0
  0
ARC
  5
480C
330
1D9
100
AcDbEntity
  8
0
100
AcDbCircle
 10
3644.997999999993
 20
1543.95533498759
 30
0.0
 40
3.0
100
AcDbArc
 50
270.0
 51
0.0
  0
ARC
  5
480D
330
1D9
100
AcDbEntity
  8
0
100
AcDbCircle
 10
3644.997999999993
 20
1553.95533498759
 30
0.0
 40
3.0
100
AcDbArc
 50
0.0
 51
90.0
  0
ARC
  5
480E
330
1D9
100
AcDbEntity
  8
0
100
AcDbCircle
 10
3672.0
 20
1560.955334987593
 30
0.0
 40
2.0
100
AcDbArc
 50
0.0
 51
90.0
  0
ARC
  5
480F
330
1D9
100
AcDbEntity
  8
0
100
AcDbCircle
 10
3665.8
 20
1563.955334987591
 30
0.0
 40
3.0
100
AcDbArc
 50
30.0000000000038
 51
90.21008499577616
  0
ARC
  5
4810
330
1D9
100
AcDbEntity
  8
0
100
AcDbCircle
 10
3670.989999999992
 20
1566.955334987591
 30
0.0
 40
3.0
100
AcDbArc
 50
210.0000000000038
 51
228.4454100372122
  0
LINE
  5
4811
330
1D9
100
AcDbEntity
  8
0
100
AcDbLine
 10
3672.0
 20
1562.955334987593
 30
0.0
 11
3668.999999999992
 21
1562.955334987593
 31
0.0
  0
LINE
  5
4812
330
1D9
100
AcDbEntity
  8
0
100
AcDbLine
 10
3692.763932022503
 20
1515.955334987591
 30
0.0
 11
3688.999999999992
 21
1515.955334987591
 31
0.0
  0
ARC
  5
4813
330
1D9
100
AcDbEntity
  8
0
100
AcDbCircle
 10
3694.999999999994
 20
1517.955334987593
 30
0.0
 40
3.0
100
AcDbArc
 50
180.0
 51
270.0
  0
ARC
  5
4814
330
1D9
100
AcDbEntity
  8
0
100
AcDbCircle
 10
3683.999999999992
 20
1523.45533498759
 30
0.0
 40
5.0
100
AcDbArc
 50
0.0
 51
90.0
  0
ARC
  5
4815
330
1D9
100
AcDbEntity
  8
0
100
AcDbCircle
 10
3683.999999999992
 20
1538.455334987593
 30
0.0
 40
10.0
100
AcDbArc
 50
180.0
 51
270.0
  0
LINE
  5
4816
330
1D9
100
AcDbEntity
  8
0
100
AcDbLine
 10
3771.120000000002
 20
1518.955334987593
 30
0.0
 11
3755.65
 21
1518.955334987593
 31
0.0
  0
ARC
  5
4817
330
1D9
100
AcDbEntity
  8
0
100
AcDbCircle
 10
3749.999999999992
 20
1517.955334987593
 30
0.0
 40
3.0
100
AcDbArc
 50
270.0009999999963
 51
340.5280000000133
  0
ARC
  5
4818
330
1D9
100
AcDbEntity
  8
0
100
AcDbCircle
 10
3755.65
 20
1515.955334987591
 30
0.0
 40
3.0
100
AcDbArc
 50
89.99869999997326
 51
160.5280000000135
  0
ARC
  5
4819
330
1D9
100
AcDbEntity
  8
0
100
AcDbCircle
 10
3771.110000000003
 20
1523.955334987593
 30
0.0
 40
5.0
100
AcDbArc
 50
270.0
 51
352.7820000000056
  0
LINE
  5
481A
330
1D9
100
AcDbEntity
  8
0
100
AcDbLine
 10
3694.999999999994
 20
1736.955334987593
 30
0.0
 11
3749.999999999992
 21
1736.955334987593
 31
0.0
  0
LINE
  5
481B
330
1D9
100
AcDbEntity
  8
0
100
AcDbLine
 10
3688.999999999992
 20
1735.955334987592
 30
0.0
 11
3688.999999999992
 21
1625.955334987593
 31
0.0
  0
LINE
  5
481C
330
1D9
100
AcDbEntity
  8
0
100
AcDbLine
 10
3647.997999999999
 20
1707.95533498759
 30
0.0
 11
3647.997999999999
 21
1697.955334987589
 31
0.0
  0
LINE
  5
481D
330
1D9
100
AcDbEntity
  8
0
100
AcDbLine
 10
3674.0
 20
1713.455334987592
 30
0.0
 11
3674.0
 21
1625.955334987593
 31
0.0
  0
LINE
  5
481E
330
1D9
100
AcDbEntity
  8
0
100
AcDbLine
 10
3623.997999999998
 20
1702.455334987591
 30
0.0
 11
3623.997999999998
 21
1625.955334987593
 31
0.0
  0
LINE
  5
481F
330
1D9
100
AcDbEntity
  8
0
100
AcDbLine
 10
3692.000000000001
 20
1625.955334987593
 30
0.0
 11
3691.999999999992
 21
1733.955334987592
 31
0.0
  0
LINE
  5
4820
330
1D9
100
AcDbEntity
  8
0
100
AcDbLine
 10
3623.997999999998
 20
1684.955334987591
 30
0.0
 11
3665.789999999964
 21
1684.955334987591
 31
0.0
  0
LINE
  5
4821
330
1D9
100
AcDbEntity
  8
0
100
AcDbLine
 10
3640.997999999993
 20
1694.95533498759
 30
0.0
 11
3640.997999999993
 21
1693.955334987591
 31
0.0
  0
ARC
  5
4822
330
1D9
100
AcDbEntity
  8
0
100
AcDbCircle
 10
3621.997999999993
 20
1648.95533498759
 30
0.0
 40
2.0
100
AcDbArc
 50
0.0
 51
90.0
  0
LINE
  5
4823
330
1D9
100
AcDbEntity
  8
0
100
AcDbLine
 10
3624.997999999998
 20
1693.955334987591
 30
0.0
 11
3624.997999999998
 21
1694.95533498759
 31
0.0
  0
LINE
  5
4824
330
1D9
100
AcDbEntity
  8
0
100
AcDbLine
 10
3644.997999999993
 20
1694.95533498759
 30
0.0
 11
3624.997999999998
 21
1694.95533498759
 31
0.0
  0
LINE
  5
4825
330
1D9
100
AcDbEntity
  8
0
100
AcDbLine
 10
3624.997999999998
 20
1689.95533498759
 30
0.0
 11
3640.997999999993
 21
1689.95533498759
 31
0.0
  0
LINE
  5
4826
330
1D9
100
AcDbEntity
  8
0
100
AcDbLine
 10
3624.997999999998
 20
1684.955334987591
 30
0.0
 11
3624.997999999998
 21
1689.95533498759
 31
0.0
  0
LINE
  5
4827
330
1D9
100
AcDbEntity
  8
0
100
AcDbLine
 10
3640.997999999993
 20
1689.95533498759
 30
0.0
 11
3640.997999999993
 21
1684.955334987591
 31
0.0
  0
LINE
  5
4828
330
1D9
100
AcDbEntity
  8
0
100
AcDbLine
 10
3640.997999999993
 20
1693.955334987591
 30
0.0
 11
3634.997999999999
 21
1689.95533498759
 31
0.0
  0
LINE
  5
4829
330
1D9
100
AcDbEntity
  8
0
100
AcDbLine
 10
3630.997999999993
 20
1689.95533498759
 30
0.0
 11
3624.997999999998
 21
1693.955334987591
 31
0.0
  0
ARC
  5
482A
330
1D9
100
AcDbEntity
  8
0
100
AcDbCircle
 10
3626.997999999999
 20
1691.95533498759
 30
0.0
 40
3.0
100
AcDbArc
 50
131.8100000000022
 51
180.0
  0
ARC
  5
482B
330
1D9
100
AcDbEntity
  8
0
100
AcDbCircle
 10
3644.997999999993
 20
1697.955334987589
 30
0.0
 40
3.0
100
AcDbArc
 50
270.0
 51
0.0
  0
ARC
  5
482C
330
1D9
100
AcDbEntity
  8
0
100
AcDbCircle
 10
3672.0
 20
1692.955334987592
 30
0.0
 40
2.0
100
AcDbArc
 50
270.0
 51
0.0
  0
ARC
  5
482D
330
1D9
100
AcDbEntity
  8
0
100
AcDbCircle
 10
3665.805217590071
 20
1687.935607448483
 30
0.0
 40
2.980311311961078
100
AcDbArc
 50
269.7074441616071
 51
330.2191540623263
  0
LINE
  5
482E
330
1D9
100
AcDbEntity
  8
0
100
AcDbLine
 10
3668.999999999992
 20
1625.955334987593
 30
0.0
 11
3668.999999999992
 21
1690.955334987591
 31
0.0
  0
ARC
  5
482F
330
1D9
100
AcDbEntity
  8
0
100
AcDbCircle
 10
3670.990045123991
 20
1684.955289863044
 30
0.0
 40
3.000061640846268
100
AcDbArc
 50
131.5546980602992
 51
149.9996845548851
  0
LINE
  5
4830
330
1D9
100
AcDbEntity
  8
0
100
AcDbLine
 10
3672.0
 20
1690.955334987591
 30
0.0
 11
3668.999999999992
 21
1690.955334987591
 31
0.0
  0
LINE
  5
4831
330
1D9
100
AcDbEntity
  8
0
100
AcDbLine
 10
3624.997999999998
 20
1710.95533498759
 30
0.0
 11
3624.997999999998
 21
1715.955334987589
 31
0.0
  0
LINE
  5
4832
330
1D9
100
AcDbEntity
  8
0
100
AcDbLine
 10
3640.997999999993
 20
1715.955334987589
 30
0.0
 11
3640.997999999993
 21
1710.95533498759
 31
0.0
  0
LINE
  5
4833
330
1D9
100
AcDbEntity
  8
0
100
AcDbLine
 10
3625.997999999993
 20
1716.955334987591
 30
0.0
 11
3639.997999999993
 21
1716.955334987591
 31
0.0
  0
LINE
  5
4834
330
1D9
100
AcDbEntity
  8
0
100
AcDbLine
 10
3624.997999999998
 20
1715.955334987589
 30
0.0
 11
3625.997999999993
 21
1716.955334987591
 31
0.0
  0
LINE
  5
4835
330
1D9
100
AcDbEntity
  8
0
100
AcDbLine
 10
3624.997999999998
 20
1710.95533498759
 30
0.0
 11
3619.258
 21
1710.95533498759
 31
0.0
  0
LINE
  5
4836
330
1D9
100
AcDbEntity
  8
0
100
AcDbLine
 10
3639.997999999993
 20
1716.955334987591
 30
0.0
 11
3640.997999999993
 21
1715.955334987589
 31
0.0
  0
LINE
  5
4837
330
1D9
100
AcDbEntity
  8
0
100
AcDbLine
 10
3644.997999999993
 20
1710.95533498759
 30
0.0
 11
3624.997999999998
 21
1710.95533498759
 31
0.0
  0
ARC
  5
4838
330
1D9
100
AcDbEntity
  8
0
100
AcDbCircle
 10
3644.997999999993
 20
1707.95533498759
 30
0.0
 40
3.0
100
AcDbArc
 50
0.0
 51
90.0
  0
ARC
  5
4839
330
1D9
100
AcDbEntity
  8
0
100
AcDbCircle
 10
3683.999999999992
 20
1728.455334987591
 30
0.0
 40
5.0
100
AcDbArc
 50
270.0
 51
0.0
  0
LINE
  5
483A
330
1D9
100
AcDbEntity
  8
0
100
AcDbLine
 10
3692.763932022503
 20
1735.955334987592
 30
0.0
 11
3688.999999999992
 21
1735.955334987592
 31
0.0
  0
ARC
  5
483B
330
1D9
100
AcDbEntity
  8
0
100
AcDbCircle
 10
3694.999999999994
 20
1733.955334987592
 30
0.0
 40
3.0
100
AcDbArc
 50
90.0
 51
180.0
  0
ARC
  5
483C
330
1D9
100
AcDbEntity
  8
0
100
AcDbCircle
 10
3683.999999999992
 20
1713.455334987592
 30
0.0
 40
10.0
100
AcDbArc
 50
90.0
 51
180.0
  0
LINE
  5
483D
330
1D9
100
AcDbEntity
  8
0
100
AcDbLine
 10
3776.069999999992
 20
1728.586524341113
 30
0.0
 11
3776.069999999992
 21
1625.955334987593
 31
0.0
  0
LINE
  5
483E
330
1D9
100
AcDbEntity
  8
0
100
AcDbLine
 10
3752.999999999992
 20
1625.955334987593
 30
0.0
 11
3752.999999999992
 21
1746.955334987592
 31
0.0
  0
LINE
  5
483F
330
1D9
100
AcDbEntity
  8
0
100
AcDbLine
 10
3771.120000000002
 20
1732.955334987592
 30
0.0
 11
3755.65
 21
1732.955334987592
 31
0.0
  0
ARC
  5
4840
330
1D9
100
AcDbEntity
  8
0
100
AcDbCircle
 10
3755.65
 20
1735.955334987592
 30
0.0
 40
3.0
100
AcDbArc
 50
199.4710000000013
 51
269.9980000000067
  0
ARC
  5
4841
330
1D9
100
AcDbEntity
  8
0
100
AcDbCircle
 10
3749.999999999992
 20
1733.955334987592
 30
0.0
 40
3.0
100
AcDbArc
 50
19.47119999998723
 51
89.99879999998336
  0
ARC
  5
4842
330
1D9
100
AcDbEntity
  8
0
100
AcDbCircle
 10
3771.110000000003
 20
1727.955334987592
 30
0.0
 40
5.0
100
AcDbArc
 50
7.217410000006462
 51
89.99930000003374
  0
LINE
  5
4843
330
1D9
100
AcDbEntity
  8
0
100
AcDbLine
 10
3884.999999999992
 20
1625.955334987593
 30
0.0
 11
3884.999999999992
 21
1523.955334987593
 31
0.0
  0
LINE
  5
4844
330
1D9
100
AcDbEntity
  8
0
100
AcDbLine
 10
3832.487989836621
 20
1625.955334987593
 30
0.0
 11
3832.487989836621
 21
1565.102295442392
 31
0.0
  0
LINE
  5
4845
330
1D9
100
AcDbEntity
  8
0
100
AcDbLine
 10
3861.0
 20
1566.955334987591
 30
0.0
 11
3861.0
 21
1625.955334987593
 31
0.0
  0
LINE
  5
4846
330
1D9
100
AcDbEntity
  8
0
100
AcDbLine
 10
3903.0
 20
1701.455334987591
 30
0.0
 11
3903.0
 21
1550.455334987593
 31
0.0
  0
LINE
  5
4847
330
1D9
100
AcDbEntity
  8
0
100
AcDbLine
 10
3901.0
 20
1625.955334987593
 30
0.0
 11
3901.0
 21
1520.955334987593
 31
0.0
  0
LINE
  5
4848
330
1D9
100
AcDbEntity
  8
0
100
AcDbLine
 10
3861.0
 20
1566.955334987591
 30
0.0
 11
3877.030000000003
 21
1563.615334987591
 31
0.0
  0
ARC
  5
4849
330
1D9
100
AcDbEntity
  8
0
100
AcDbCircle
 10
3753.034174376721
 20
1625.884001969882
 30
0.0
 40
98.92166892771964
100
AcDbArc
 50
287.6166436485713
 51
319.5400237790786
  0
LINE
  5
484A
330
1D9
100
AcDbEntity
  8
0
100
AcDbLine
 10
3861.0
 20
1566.955334987591
 30
0.0
 11
3839.710000000001
 21
1566.955334987591
 31
0.0
  0
ARC
  5
484B
330
1D9
100
AcDbEntity
  8
0
100
AcDbCircle
 10
3839.710000000001
 20
1551.955334987593
 30
0.0
 40
15.0
100
AcDbArc
 50
89.99989999998993
 51
139.5249999999803
  0
LINE
  5
484C
330
1D9
100
AcDbEntity
  8
0
100
AcDbLine
 10
3903.0
 20
1550.455334987593
 30
0.0
 11
3901.0
 21
1550.455334987593
 31
0.0
  0
LINE
  5
484E
330
1D9
100
AcDbEntity
  8
0
100
AcDbLine
 10
3901.0
 20
1520.955334987593
 30
0.0
 11
3888.0
 21
1520.955334987593
 31
0.0
  0
ARC
  5
484F
330
1D9
100
AcDbEntity
  8
0
100
AcDbCircle
 10
3888.0
 20
1523.955334987593
 30
0.0
 40
3.0
100
AcDbArc
 50
180.0
 51
270.0
  0
ARC
  5
4850
330
1D9
100
AcDbEntity
  8
0
100
AcDbCircle
 10
3875.0
 20
1553.825334987591
 30
0.0
 40
10.0
100
AcDbArc
 50
0.0000400000040257
 51
78.23160000001606
  0
LINE
  5
4851
330
1D9
100
AcDbEntity
  8
0
100
AcDbLine
 10
3861.0
 20
1684.955334987592
 30
0.0
 11
3877.039493172921
 21
1688.295520505305
 31
0.0
  0
ARC
  5
4852
330
1D9
100
AcDbEntity
  8
0
100
AcDbCircle
 10
3752.999999999992
 20
1625.955334987593
 30
0.0
 40
99.0
100
AcDbArc
 50
40.47560000002699
 51
72.37789999994994
  0
LINE
  5
4853
330
1D9
100
AcDbEntity
  8
0
100
AcDbLine
 10
3861.0
 20
1684.955334987592
 30
0.0
 11
3861.0
 21
1625.955334987593
 31
0.0
  0
LINE
  5
4854
330
1D9
100
AcDbEntity
  8
0
100
AcDbLine
 10
3832.487989836621
 20
1625.955334987593
 30
0.0
 11
3832.487989836621
 21
1686.809043605986
 31
0.0
  0
LINE
  5
4855
330
1D9
100
AcDbEntity
  8
0
100
AcDbLine
 10
3861.0
 20
1684.955334987592
 30
0.0
 11
3839.710000000001
 21
1684.955334987592
 31
0.0
  0
ARC
  5
4856
330
1D9
100
AcDbEntity
  8
0
100
AcDbCircle
 10
3839.702802740578
 20
1699.922549502817
 30
0.0
 40
14.96721624569444
100
AcDbArc
 50
220.4169509008953
 51
270.0275517235234
  0
LINE
  5
4857
330
1D9
100
AcDbEntity
  8
0
100
AcDbLine
 10
3884.999999999992
 20
1625.955334987593
 30
0.0
 11
3884.999999999992
 21
1727.955334987592
 31
0.0
  0
LINE
  5
4858
330
1D9
100
AcDbEntity
  8
0
100
AcDbLine
 10
3901.0
 20
1625.955334987593
 30
0.0
 11
3901.0
 21
1730.955334987592
 31
0.0
  0
ARC
  5
4859
330
1D9
100
AcDbEntity
  8
0
100
AcDbCircle
 10
3875.0
 20
1698.08533498759
 30
0.0
 40
10.00000000000044
100
AcDbArc
 50
281.7680000000132
 51
0.0
  0
LINE
  5
485A
330
1D9
100
AcDbEntity
  8
0
100
AcDbLine
 10
3903.0
 20
1701.455334987591
 30
0.0
 11
3901.0
 21
1701.455334987591
 31
0.0
  0
LINE
  5
485C
330
1D9
100
AcDbEntity
  8
0
100
AcDbLine
 10
3901.0
 20
1730.955334987592
 30
0.0
 11
3888.0
 21
1730.955334987592
 31
0.0
  0
ARC
  5
485D
330
1D9
100
AcDbEntity
  8
0
100
AcDbCircle
 10
3888.0
 20
1727.955334987592
 30
0.0
 40
3.0
100
AcDbArc
 50
90.0
 51
180.0
  0
LINE
  5
485E
330
1D9
100
AcDbEntity
  8
0
100
AcDbLine
 10
3761.499999999998
 20
400.0
 30
0.0
 11
3761.499999999998
 21
562.9313072281096
 31
0.0
  0
LINE
  5
485F
330
1D9
100
AcDbEntity
  8
0
100
AcDbLine
 10
3781.500000000001
 20
400.0
 30
0.0
 11
3781.500000000001
 21
564.9313072281097
 31
0.0
  0
LINE
  5
4861
330
1D9
100
AcDbEntity
  8
0
100
AcDbLine
 10
3781.500000000001
 20
399.9313072281088
 30
0.0
 11
3781.500000000001
 21
234.9313072281097
 31
0.0
  0
LINE
  5
4862
330
1D9
100
AcDbEntity
  8
0
100
AcDbLine
 10
3761.499999999998
 20
399.9313072281088
 30
0.0
 11
3761.499999999998
 21
236.9313072281078
 31
0.0
  0
LINE
  5
4863
330
1D9
100
AcDbEntity
  8
0
100
AcDbLine
 10
3783.499999999998
 20
268.9313072281079
 30
0.0
 11
3783.499999999998
 21
530.9313072281096
 31
0.0
  0
LINE
  5
4865
330
1D9
100
AcDbEntity
  8
0
100
AcDbLine
 10
3781.500000000001
 20
234.9313072281097
 30
0.0
 11
3763.5
 21
234.9313072281097
 31
0.0
  0
ARC
  5
4866
330
1D9
100
AcDbEntity
  8
0
100
AcDbCircle
 10
3763.5
 20
236.9313072281078
 30
0.0
 40
2.0
100
AcDbArc
 50
180.0
 51
270.0
  0
ARC
  5
4867
330
1D9
100
AcDbEntity
  8
0
100
AcDbCircle
 10
3751.499999999998
 20
276.5079010422049
 30
0.0
 40
10.0
100
AcDbArc
 50
0.0
 51
80.21759296817943
  0
LINE
  5
4868
330
1D9
100
AcDbEntity
  8
0
100
AcDbLine
 10
3753.199069165078
 20
286.3625021996499
 30
0.0
 11
3737.559891244156
 21
289.0589121860134
 31
0.0
  0
LINE
  5
4869
330
1D9
100
AcDbEntity
  8
0
100
AcDbLine
 10
3783.499999999998
 20
268.9313072281079
 30
0.0
 11
3781.500000000001
 21
268.9313072281079
 31
0.0
  0
LINE
  5
486A
330
1D9
100
AcDbEntity
  8
0
100
AcDbLine
 10
3753.199069165078
 20
513.5001122565689
 30
0.0
 11
3737.559891244156
 21
510.8037022702052
 31
0.0
  0
ARC
  5
486B
330
1D9
100
AcDbEntity
  8
0
100
AcDbCircle
 10
3751.499999999998
 20
523.3547134140138
 30
0.0
 40
10.0
100
AcDbArc
 50
279.7824070318204
 51
0.0
  0
LINE
  5
486C
330
1D9
100
AcDbEntity
  8
0
100
AcDbLine
 10
3783.499999999998
 20
530.9313072281096
 30
0.0
 11
3781.500000000001
 21
530.9313072281096
 31
0.0
  0
LINE
  5
486D
330
1D9
100
AcDbEntity
  8
0
100
AcDbLine
 10
3781.500000000001
 20
564.9313072281097
 30
0.0
 11
3763.5
 21
564.9313072281097
 31
0.0
  0
ARC
  5
4871
330
1D9
100
AcDbEntity
  8
0
100
AcDbCircle
 10
3763.5
 20
562.9313072281096
 30
0.0
 40
2.0
100
AcDbArc
 50
90.0
 51
180.0
  0
LINE
  5
4872
330
1D9
100
AcDbEntity
  8
0
100
AcDbLine
 10
1162.5
 20
490.9999999999991
 30
0.0
 11
1162.5
 21
400.0
 31
0.0
  0
LINE
  5
4873
330
1D9
100
AcDbEntity
  8
0
100
AcDbLine
 10
1160.499999999998
 20
525.0
 30
0.0
 11
1160.499999999998
 21
400.0
 31
0.0
  0
LINE
  5
4874
330
1D9
100
AcDbEntity
  8
0
100
AcDbLine
 10
1142.5
 20
522.0
 30
0.0
 11
1142.5
 21
400.0
 31
0.0
  0
LINE
  5
4875
330
1D9
100
AcDbEntity
  8
0
100
AcDbLine
 10
1142.5
 20
278.0
 30
0.0
 11
1142.5
 21
400.0
 31
0.0
  0
LINE
  5
4876
330
1D9
100
AcDbEntity
  8
0
100
AcDbLine
 10
1160.499999999998
 20
275.0
 30
0.0
 11
1160.499999999998
 21
400.0
 31
0.0
  0
LINE
  5
4877
330
1D9
100
AcDbEntity
  8
0
100
AcDbLine
 10
1162.5
 20
308.999999999999
 30
0.0
 11
1162.5
 21
400.0
 31
0.0
  0
ARC
  5
4878
330
1D9
100
AcDbEntity
  8
0
100
AcDbCircle
 10
1145.500000000007
 20
278.0
 30
0.0
 40
3.0
100
AcDbArc
 50
180.0
 51
270.0
  0
LINE
  5
4879
330
1D9
100
AcDbEntity
  8
0
100
AcDbLine
 10
1162.5
 20
308.999999999999
 30
0.0
 11
1160.499999999998
 21
308.999999999999
 31
0.0
  0
LINE
  5
487A
330
1D9
100
AcDbEntity
  8
0
100
AcDbLine
 10
1160.499999999998
 20
275.0
 30
0.0
 11
1145.500000000007
 21
275.0
 31
0.0
  0
LINE
  5
487C
330
1D9
100
AcDbEntity
  8
0
100
AcDbLine
 10
1162.5
 20
490.9999999999991
 30
0.0
 11
1160.499999999998
 21
490.9999999999991
 31
0.0
  0
ARC
  5
487D
330
1D9
100
AcDbEntity
  8
0
100
AcDbCircle
 10
1145.500000000007
 20
522.0
 30
0.0
 40
3.0
100
AcDbArc
 50
90.0
 51
180.0
  0
LINE
  5
487E
330
1D9
100
AcDbEntity
  8
0
100
AcDbLine
 10
1160.499999999998
 20
525.0
 30
0.0
 11
1145.500000000007
 21
525.0
 31
0.0
  0
LINE
  5
4881
330
1D9
100
AcDbEntity
  8
0
100
AcDbLine
 10
2135.0
 20
1625.955334987593
 30
0.0
 11
2915.0
 21
1625.955334987593
 31
0.0
  0
LINE
  5
4882
330
1D9
100
AcDbEntity
  8
0
100
AcDbLine
 10
1359.000000000003
 20
1723.125334987592
 30
0.0
 11
1378.000000000003
 21
1723.125334987592
 31
0.0
  0
LINE
  5
4883
330
1D9
100
AcDbEntity
  8
0
100
AcDbLine
 10
1359.000000000003
 20
1739.125334987592
 30
0.0
 11
1378.000000000003
 21
1739.125334987592
 31
0.0
  0
LINE
  5
4885
330
1D9
100
AcDbEntity
  8
0
100
AcDbLine
 10
1359.000000000003
 20
1528.777334987591
 30
0.0
 11
1378.000000000003
 21
1528.777334987591
 31
0.0
  0
LINE
  5
4886
330
1D9
100
AcDbEntity
  8
0
100
AcDbLine
 10
1359.000000000003
 20
1512.777334987591
 30
0.0
 11
1378.000000000003
 21
1512.777334987591
 31
0.0
  0
LINE
  5
4888
330
1D9
100
AcDbEntity
  8
0
100
AcDbLine
 10
1161.999999999996
 20
1625.955334987593
 30
0.0
 11
1937.000000000004
 21
1625.955334987593
 31
0.0
  0
LINE
  5
488C
330
1D9
100
AcDbEntity
  8
0
100
AcDbLine
 10
2289.999999999999
 20
1520.126231858869
 30
0.0
 11
2289.999999999999
 21
1625.955334987593
 31
0.0
  0
LINE
  5
488E
330
1D9
100
AcDbEntity
  8
0
100
AcDbLine
 10
2180.017250068642
 20
1573.523225634044
 30
0.0
 11
2198.708671859422
 21
1579.364294943665
 31
0.0
  0
LINE
  5
488F
330
1D9
100
AcDbEntity
  8
0
100
AcDbLine
 10
2180.017250068642
 20
1678.387444341142
 30
0.0
 11
2198.708671859422
 21
1672.546375031523
 31
0.0
  0
LINE
  5
4890
330
1D9
100
AcDbEntity
  8
0
100
AcDbLine
 10
2173.0
 20
1625.955334987593
 30
0.0
 11
2173.0
 21
1716.455334987593
 31
0.0
  0
LINE
  5
4891
330
1D9
100
AcDbEntity
  8
0
100
AcDbLine
 10
2157.999999999999
 20
1625.955334987593
 30
0.0
 11
2157.999999999992
 21
1718.455334987593
 31
0.0
  0
LINE
  5
4892
330
1D9
100
AcDbEntity
  8
0
100
AcDbLine
 10
2173.0
 20
1687.932244121494
 30
0.0
 11
2173.0
 21
1716.455334987593
 31
0.0
  0
LINE
  5
4894
330
1D9
100
AcDbEntity
  8
0
100
AcDbLine
 10
2173.0
 20
1625.955334987593
 30
0.0
 11
2173.0
 21
1535.455334987593
 31
0.0
  0
LINE
  5
4895
330
1D9
100
AcDbEntity
  8
0
100
AcDbLine
 10
2157.999999999999
 20
1625.955334987593
 30
0.0
 11
2157.999999999992
 21
1533.455334987593
 31
0.0
  0
LINE
  5
4896
330
1D9
100
AcDbEntity
  8
0
100
AcDbLine
 10
2155.0
 20
1625.955334987593
 30
0.0
 11
2155.0
 21
1562.955334987593
 31
0.0
  0
ARC
  5
4897
330
1D9
100
AcDbEntity
  8
0
100
AcDbCircle
 10
2182.999999999992
 20
1563.978425853693
 30
0.0
 40
10.0
100
AcDbArc
 50
107.3540246362705
 51
180.0
  0
ARC
  5
4899
330
1D9
100
AcDbEntity
  8
0
100
AcDbCircle
 10
2171.0
 20
1535.455334987593
 30
0.0
 40
2.0
100
AcDbArc
 50
270.0
 51
0.0
  0
LINE
  5
489A
330
1D9
100
AcDbEntity
  8
0
100
AcDbLine
 10
2157.999999999992
 20
1533.455334987593
 30
0.0
 11
2171.0
 21
1533.455334987593
 31
0.0
  0
LINE
  5
489B
330
1D9
100
AcDbEntity
  8
0
100
AcDbLine
 10
2173.0
 20
1563.978425853693
 30
0.0
 11
2173.0
 21
1535.455334987593
 31
0.0
  0
LINE
  5
489C
330
1D9
100
AcDbEntity
  8
0
100
AcDbLine
 10
2155.0
 20
1562.955334987593
 30
0.0
 11
2157.999999999992
 21
1562.955334987593
 31
0.0
  0
LINE
  5
489E
330
1D9
100
AcDbEntity
  8
0
100
AcDbLine
 10
2155.0
 20
1688.955334987593
 30
0.0
 11
2157.999999999992
 21
1688.955334987593
 31
0.0
  0
LINE
  5
489F
330
1D9
100
AcDbEntity
  8
0
100
AcDbLine
 10
2155.0
 20
1625.955334987593
 30
0.0
 11
2155.0
 21
1688.955334987593
 31
0.0
  0
ARC
  5
48A0
330
1D9
100
AcDbEntity
  8
0
100
AcDbCircle
 10
2182.999999999992
 20
1687.932244121494
 30
0.0
 40
10.0
100
AcDbArc
 50
180.0
 51
252.6459753637293
  0
ARC
  5
48A1
330
1D9
100
AcDbEntity
  8
0
100
AcDbCircle
 10
2171.0
 20
1716.455334987593
 30
0.0
 40
2.0
100
AcDbArc
 50
0.0
 51
90.0
  0
LINE
  5
48A2
330
1D9
100
AcDbEntity
  8
0
100
AcDbLine
 10
2157.999999999992
 20
1718.455334987593
 30
0.0
 11
2171.0
 21
1718.455334987593
 31
0.0
  0
LINE
  5
48A5
330
1D9
100
AcDbEntity
  8
0
100
AcDbLine
 10
2269.499999999992
 20
1625.955334987593
 30
0.0
 11
2269.499999999992
 21
1710.455334987595
 31
0.0
  0
LINE
  5
48A6
330
1D9
100
AcDbEntity
  8
0
100
AcDbLine
 10
2269.499999999992
 20
1625.955334987593
 30
0.0
 11
2269.499999999992
 21
1710.455334987595
 31
0.0
  0
LINE
  5
48A7
330
1D9
100
AcDbEntity
  8
0
100
AcDbLine
 10
2294.5
 20
1719.955334987593
 30
0.0
 11
2294.5
 21
1625.955334987593
 31
0.0
  0
ARC
  5
48A8
330
1D9
100
AcDbEntity
  8
0
100
AcDbCircle
 10
2264.499999999999
 20
1709.65718681896
 30
0.0
 40
5.0
100
AcDbArc
 50
286.9435018790361
 51
0.0
  0
LINE
  5
48A9
330
1D9
100
AcDbEntity
  8
0
100
AcDbLine
 10
2340.999999999992
 20
1716.955334987592
 30
0.0
 11
2340.999999999992
 21
1625.955334987593
 31
0.0
  0
ARC
  5
48AA
330
1D9
100
AcDbEntity
  8
0
100
AcDbCircle
 10
2289.999999999999
 20
1625.955334987593
 30
0.0
 40
82.5
100
AcDbArc
 50
106.9435018790361
 51
142.3518470178103
  0
LINE
  5
48AB
330
1D9
100
AcDbEntity
  8
0
100
AcDbLine
 10
2289.999999999999
 20
1731.784438116317
 30
0.0
 11
2289.999999999999
 21
1625.955334987593
 31
0.0
  0
ARC
  5
48AC
330
1D9
100
AcDbEntity
  8
0
100
AcDbCircle
 10
2264.499999999999
 20
1542.253483156225
 30
0.0
 40
5.0
100
AcDbArc
 50
0.0
 51
73.05649812096381
  0
LINE
  5
48AD
330
1D9
100
AcDbEntity
  8
0
100
AcDbLine
 10
2199.0
 20
1579.431907684184
 30
0.0
 11
2199.0
 21
1626.005334987594
 31
0.0
  0
LINE
  5
48AE
330
1D9
100
AcDbEntity
  8
0
100
AcDbLine
 10
2221.85309985039
 20
1578.061560675536
 30
0.0
 11
2221.85309985039
 21
1626.005334987594
 31
0.0
  0
ARC
  5
48AF
330
1D9
100
AcDbEntity
  8
0
100
AcDbCircle
 10
2289.999999999999
 20
1625.955334987593
 30
0.0
 40
82.5
100
AcDbArc
 50
217.6481529821896
 51
253.0564981209638
  0
LINE
  5
48B0
330
1D9
100
AcDbEntity
  8
0
100
AcDbLine
 10
2216.76066630559
 20
1579.455334987593
 30
0.0
 11
2199.305221845689
 21
1579.455334987593
 31
0.0
  0
ARC
  5
48B1
330
1D9
100
AcDbEntity
  8
0
100
AcDbCircle
 10
2216.76066630559
 20
1569.455334987592
 30
0.0
 40
10.0
100
AcDbArc
 50
37.64815298218965
 51
90.0
  0
ARC
  5
48B2
330
1D9
100
AcDbEntity
  8
0
100
AcDbCircle
 10
2199.305221845689
 20
1577.455334987594
 30
0.0
 40
2.0
100
AcDbArc
 50
90.0
 51
107.3540246362705
  0
LINE
  5
48B3
330
1D9
100
AcDbEntity
  8
0
100
AcDbLine
 10
2221.85309985039
 20
1673.849109299651
 30
0.0
 11
2221.85309985039
 21
1625.905334987593
 31
0.0
  0
LINE
  5
48B4
330
1D9
100
AcDbEntity
  8
0
100
AcDbLine
 10
2199.0
 20
1672.478762291001
 30
0.0
 11
2199.0
 21
1625.905334987593
 31
0.0
  0
ARC
  5
48B5
330
1D9
100
AcDbEntity
  8
0
100
AcDbCircle
 10
2199.305221845689
 20
1674.455334987593
 30
0.0
 40
2.0
100
AcDbArc
 50
252.6459753637293
 51
270.0
  0
ARC
  5
48B6
330
1D9
100
AcDbEntity
  8
0
100
AcDbCircle
 10
2216.76066630559
 20
1682.455334987593
 30
0.0
 40
10.0
100
AcDbArc
 50
270.0
 51
322.3518470178103
  0
LINE
  5
48B7
330
1D9
100
AcDbEntity
  8
0
100
AcDbLine
 10
2216.76066630559
 20
1672.455334987593
 30
0.0
 11
2199.305221845689
 21
1672.455334987593
 31
0.0
  0
LINE
  5
48B8
330
1D9
100
AcDbEntity
  8
0
100
AcDbLine
 10
2294.5
 20
1531.955334987593
 30
0.0
 11
2294.5
 21
1625.955334987593
 31
0.0
  0
LINE
  5
48B9
330
1D9
100
AcDbEntity
  8
0
100
AcDbLine
 10
2269.499999999992
 20
1625.955334987593
 30
0.0
 11
2269.499999999992
 21
1541.455334987593
 31
0.0
  0
LINE
  5
48BA
330
1D9
100
AcDbEntity
  8
0
100
AcDbLine
 10
2269.499999999992
 20
1625.955334987593
 30
0.0
 11
2269.499999999992
 21
1541.455334987593
 31
0.0
  0
LINE
  5
48BB
330
1D9
100
AcDbEntity
  8
0
100
AcDbLine
 10
2340.999999999992
 20
1534.955334987593
 30
0.0
 11
2340.999999999992
 21
1625.955334987593
 31
0.0
  0
LINE
  5
48BC
330
1D9
100
AcDbEntity
  8
0
100
AcDbLine
 10
2337.999999999992
 20
1531.955334987593
 30
0.0
 11
2294.5
 21
1531.955334987593
 31
0.0
  0
ARC
  5
48BD
330
1D9
100
AcDbEntity
  8
0
100
AcDbCircle
 10
2274.499999999992
 20
1541.455334987593
 30
0.0
 40
5.0
100
AcDbArc
 50
180.0
 51
270.0
  0
LINE
  5
48BE
330
1D9
100
AcDbEntity
  8
0
100
AcDbLine
 10
2294.5
 20
1531.955334987593
 30
0.0
 11
2289.999999999999
 21
1536.455334987593
 31
0.0
  0
LINE
  5
48BF
330
1D9
100
AcDbEntity
  8
0
100
AcDbLine
 10
2274.499999999992
 20
1536.455334987593
 30
0.0
 11
2289.999999999999
 21
1536.455334987593
 31
0.0
  0
LINE
  5
48C0
330
1D9
100
AcDbEntity
  8
0
100
AcDbLine
 10
2269.499999999992
 20
1541.455334987593
 30
0.0
 11
2269.499999999992
 21
1553.48947189323
 31
0.0
  0
ARC
  5
48C1
330
1D9
100
AcDbEntity
  8
0
100
AcDbCircle
 10
2337.999999999992
 20
1534.955334987595
 30
0.0
 40
3.0
100
AcDbArc
 50
270.0
 51
0.0
  0
LINE
  5
48C2
330
1D9
100
AcDbEntity
  8
0
100
AcDbLine
 10
2337.999999999992
 20
1719.955334987593
 30
0.0
 11
2294.5
 21
1719.955334987593
 31
0.0
  0
LINE
  5
48C3
330
1D9
100
AcDbEntity
  8
0
100
AcDbLine
 10
2274.499999999992
 20
1715.455334987592
 30
0.0
 11
2289.999999999999
 21
1715.455334987592
 31
0.0
  0
LINE
  5
48C4
330
1D9
100
AcDbEntity
  8
0
100
AcDbLine
 10
2294.5
 20
1719.955334987593
 30
0.0
 11
2289.999999999999
 21
1715.455334987592
 31
0.0
  0
LINE
  5
48C5
330
1D9
100
AcDbEntity
  8
0
100
AcDbLine
 10
2269.499999999992
 20
1710.455334987593
 30
0.0
 11
2269.499999999992
 21
1709.657186818958
 31
0.0
  0
ARC
  5
48C6
330
1D9
100
AcDbEntity
  8
0
100
AcDbCircle
 10
2274.499999999992
 20
1710.455334987595
 30
0.0
 40
5.0
100
AcDbArc
 50
90.0
 51
180.0
  0
ARC
  5
48C7
330
1D9
100
AcDbEntity
  8
0
100
AcDbCircle
 10
2337.999999999992
 20
1716.955334987592
 30
0.0
 40
3.0
100
AcDbArc
 50
0.0
 51
90.0
  0
LINE
  5
48C8
330
1D9
100
AcDbEntity
  8
0
100
AcDbLine
 10
1318.499000000002
 20
1718.455334987593
 30
0.0
 11
1318.499000000002
 21
1625.955334987593
 31
0.0
  0
LINE
  5
48C9
330
1D9
100
AcDbEntity
  8
0
100
AcDbLine
 10
1321.998999999996
 20
1625.955334987593
 30
0.0
 11
1321.999000000003
 21
1718.455334987593
 31
0.0
  0
LINE
  5
48CB
330
1D9
100
AcDbEntity
  8
0
100
AcDbLine
 10
1346.000000000003
 20
1745.955334987592
 30
0.0
 11
1346.000000000003
 21
1625.955334987593
 31
0.0
  0
LINE
  5
48CC
330
1D9
100
AcDbEntity
  8
0
100
AcDbLine
 10
1195.000000000003
 20
1711.455334987593
 30
0.0
 11
1195.000000000003
 21
1625.955334987593
 31
0.0
  0
LINE
  5
48CD
330
1D9
100
AcDbEntity
  8
0
100
AcDbLine
 10
1240.409000000003
 20
1669.410781428378
 30
0.0
 11
1240.409000000003
 21
1625.955334987593
 31
0.0
  0
LINE
  5
48CE
330
1D9
100
AcDbEntity
  8
0
100
AcDbLine
 10
1223.999999999997
 20
1666.955334987592
 30
0.0
 11
1223.999999999997
 21
1625.955334987593
 31
0.0
  0
LINE
  5
48CF
330
1D9
100
AcDbEntity
  8
0
100
AcDbLine
 10
1275.530999999997
 20
1699.957334987592
 30
0.0
 11
1275.530999999997
 21
1625.955334987593
 31
0.0
  0
LINE
  5
48D0
330
1D9
100
AcDbEntity
  8
0
100
AcDbLine
 10
1299.499000000003
 20
1718.455334987593
 30
0.0
 11
1299.499000000003
 21
1625.955334987593
 31
0.0
  0
LINE
  5
48D1
330
1D9
100
AcDbEntity
  8
0
100
AcDbLine
 10
1177.000000000003
 20
1625.955334987593
 30
0.0
 11
1177.000000000003
 21
1683.955334987593
 31
0.0
  0
LINE
  5
48D2
330
1D9
100
AcDbEntity
  8
0
100
AcDbLine
 10
1178.999999999996
 20
1625.955334987593
 30
0.0
 11
1178.999999999996
 21
1713.455334987592
 31
0.0
  0
LINE
  5
48D3
330
1D9
100
AcDbEntity
  8
0
100
AcDbLine
 10
1311.999000000003
 20
1625.955334987593
 30
0.0
 11
1311.999000000003
 21
1758.904334987593
 31
0.0
  0
LINE
  5
48D4
330
1D9
100
AcDbEntity
  8
0
100
AcDbLine
 10
1223.999999999997
 20
1584.955334987593
 30
0.0
 11
1203.300999999996
 21
1581.386334987594
 31
0.0
  0
LINE
  5
48D5
330
1D9
100
AcDbEntity
  8
0
100
AcDbLine
 10
1178.999999999996
 20
1625.955334987593
 30
0.0
 11
1178.999999999996
 21
1538.455334987593
 31
0.0
  0
LINE
  5
48D6
330
1D9
100
AcDbEntity
  8
0
100
AcDbLine
 10
1195.000000000003
 20
1540.455334987593
 30
0.0
 11
1195.000000000003
 21
1625.955334987593
 31
0.0
  0
LINE
  5
48D7
330
1D9
100
AcDbEntity
  8
0
100
AcDbLine
 10
1178.999999999996
 20
1538.455334987593
 30
0.0
 11
1193.000000000003
 21
1538.455334987593
 31
0.0
  0
ARC
  5
48D8
330
1D9
100
AcDbEntity
  8
0
100
AcDbCircle
 10
1193.000000000003
 20
1540.455334987593
 30
0.0
 40
2.0
100
AcDbArc
 50
270.0
 51
0.0
  0
LINE
  5
48D9
330
1D9
100
AcDbEntity
  8
0
100
AcDbLine
 10
1177.000000000003
 20
1567.955334987593
 30
0.0
 11
1178.999999999996
 21
1567.955334987593
 31
0.0
  0
LINE
  5
48DA
330
1D9
100
AcDbEntity
  8
0
100
AcDbLine
 10
1177.000000000003
 20
1625.955334987593
 30
0.0
 11
1177.000000000003
 21
1567.955334987593
 31
0.0
  0
ARC
  5
48DB
330
1D9
100
AcDbEntity
  8
0
100
AcDbCircle
 10
1204.999999999996
 20
1571.531334987593
 30
0.0
 40
10.0
100
AcDbArc
 50
99.7824999999956
 51
180.0
  0
LINE
  5
48DD
330
1D9
100
AcDbEntity
  8
0
100
AcDbLine
 10
1299.499000000003
 20
1527.965334987591
 30
0.0
 11
1275.530999999997
 21
1551.953334987592
 31
0.0
  0
LINE
  5
48DE
330
1D9
100
AcDbEntity
  8
0
100
AcDbLine
 10
1299.499000000003
 20
1533.455334987593
 30
0.0
 11
1275.530999999997
 21
1551.953334987592
 31
0.0
  0
ARC
  5
48DF
330
1D9
100
AcDbEntity
  8
0
100
AcDbCircle
 10
1311.999000000003
 20
1625.955334987593
 30
0.0
 40
82.5
100
AcDbArc
 50
213.8880000000286
 51
243.7649999999713
  0
LINE
  5
48E0
330
1D9
100
AcDbEntity
  8
0
100
AcDbLine
 10
1223.999999999997
 20
1584.955334987593
 30
0.0
 11
1232.184999999996
 21
1584.955334987593
 31
0.0
  0
LINE
  5
48E1
330
1D9
100
AcDbEntity
  8
0
100
AcDbLine
 10
1223.999999999997
 20
1584.955334987593
 30
0.0
 11
1223.999999999997
 21
1625.955334987593
 31
0.0
  0
LINE
  5
48E2
330
1D9
100
AcDbEntity
  8
0
100
AcDbLine
 10
1240.409000000003
 20
1582.499888546802
 30
0.0
 11
1240.409000000003
 21
1625.955334987593
 31
0.0
  0
ARC
  5
48E3
330
1D9
100
AcDbEntity
  8
0
100
AcDbCircle
 10
1232.184999999996
 20
1569.955334987593
 30
0.0
 40
15.0
100
AcDbArc
 50
41.81029999999553
 51
90.0
  0
LINE
  5
48E4
330
1D9
100
AcDbEntity
  8
0
100
AcDbLine
 10
1275.530999999997
 20
1551.953334987592
 30
0.0
 11
1275.530999999997
 21
1625.955334987593
 31
0.0
  0
LINE
  5
48E5
330
1D9
100
AcDbEntity
  8
0
100
AcDbLine
 10
1311.999000000003
 20
1625.955334987593
 30
0.0
 11
1311.999000000003
 21
1493.006334987593
 31
0.0
  0
LINE
  5
48E6
330
1D9
100
AcDbEntity
  8
0
100
AcDbLine
 10
1321.998999999996
 20
1547.455334987593
 30
0.0
 11
1321.998999999996
 21
1537.455334987592
 31
0.0
  0
LINE
  5
48E8
330
1D9
100
AcDbEntity
  8
0
100
AcDbLine
 10
1346.000000000003
 20
1505.955334987593
 30
0.0
 11
1346.000000000003
 21
1625.955334987593
 31
0.0
  0
LINE
  5
48E9
330
1D9
100
AcDbEntity
  8
0
100
AcDbLine
 10
1299.499000000003
 20
1533.455334987593
 30
0.0
 11
1299.499000000003
 21
1625.955334987593
 31
0.0
  0
LINE
  5
48EA
330
1D9
100
AcDbEntity
  8
0
100
AcDbLine
 10
1318.499000000002
 20
1533.455334987593
 30
0.0
 11
1318.499000000002
 21
1625.955334987593
 31
0.0
  0
LINE
  5
48EB
330
1D9
100
AcDbEntity
  8
0
100
AcDbLine
 10
1321.998999999996
 20
1537.455334987592
 30
0.0
 11
1321.998999999996
 21
1533.455334987593
 31
0.0
  0
LINE
  5
48EC
330
1D9
100
AcDbEntity
  8
0
100
AcDbLine
 10
1321.998999999996
 20
1537.455334987592
 30
0.0
 11
1321.998999999996
 21
1533.455334987593
 31
0.0
  0
LINE
  5
48ED
330
1D9
100
AcDbEntity
  8
0
100
AcDbLine
 10
1321.998999999996
 20
1537.455334987592
 30
0.0
 11
1321.998999999996
 21
1533.455334987593
 31
0.0
  0
LINE
  5
48EE
330
1D9
100
AcDbEntity
  8
0
100
AcDbLine
 10
1321.998999999996
 20
1537.455334987592
 30
0.0
 11
1321.998999999996
 21
1533.455334987593
 31
0.0
  0
ARC
  5
48EF
330
1D9
100
AcDbEntity
  8
0
100
AcDbCircle
 10
1293.475000000005
 20
1531.177334987591
 30
0.0
 40
3.975619999999998
100
AcDbArc
 50
119.7969999999761
 51
240.2020000000284
  0
LINE
  5
48F0
330
1D9
100
AcDbEntity
  8
0
100
AcDbLine
 10
1291.499999999996
 20
1534.627334987591
 30
0.0
 11
1297.980430641152
 21
1534.627334987591
 31
0.0
  0
LINE
  5
48F1
330
1D9
100
AcDbEntity
  8
0
100
AcDbLine
 10
1291.499999999996
 20
1527.727334987593
 30
0.0
 11
1299.499999999997
 21
1527.727334987593
 31
0.0
  0
ARC
  5
48F2
330
1D9
100
AcDbEntity
  8
0
100
AcDbCircle
 10
1293.475000000005
 20
1510.377334987591
 30
0.0
 40
3.975619999999998
100
AcDbArc
 50
119.7969999999761
 51
240.2020000000284
  0
LINE
  5
48F3
330
1D9
100
AcDbEntity
  8
0
100
AcDbLine
 10
1291.499999999996
 20
1513.827334987593
 30
0.0
 11
1299.499999999997
 21
1513.827334987593
 31
0.0
  0
LINE
  5
48F4
330
1D9
100
AcDbEntity
  8
0
100
AcDbLine
 10
1291.499999999996
 20
1506.927334987593
 30
0.0
 11
1299.499999999997
 21
1506.927334987593
 31
0.0
  0
ARC
  5
48F5
330
1D9
100
AcDbEntity
  8
0
100
AcDbCircle
 10
1302.499000000003
 20
1505.955334987593
 30
0.0
 40
3.0
100
AcDbArc
 50
180.0
 51
270.0
  0
ARC
  5
48F6
330
1D9
100
AcDbEntity
  8
0
100
AcDbCircle
 10
1302.575000000006
 20
1520.777334987591
 30
0.0
 40
13.0756
100
AcDbArc
 50
147.8910000000363
 51
212.1080000000038
  0
LINE
  5
48F7
330
1D9
100
AcDbEntity
  8
0
100
AcDbLine
 10
1289.499999999996
 20
1510.377334987591
 30
0.0
 11
1289.499999999996
 21
1531.177334987591
 31
0.0
  0
LINE
  5
48F8
330
1D9
100
AcDbEntity
  8
0
100
AcDbLine
 10
1299.499000000003
 20
1505.955334987593
 30
0.0
 11
1299.499000000003
 21
1533.455334987593
 31
0.0
  0
LINE
  5
48FA
330
1D9
100
AcDbEntity
  8
0
100
AcDbLine
 10
1318.500000000004
 20
1528.777334987591
 30
0.0
 11
1326.999999999996
 21
1528.777334987591
 31
0.0
  0
LINE
  5
48FB
330
1D9
100
AcDbEntity
  8
0
100
AcDbLine
 10
1318.500000000004
 20
1512.777334987591
 30
0.0
 11
1326.999999999996
 21
1512.777334987591
 31
0.0
  0
LINE
  5
48FC
330
1D9
100
AcDbEntity
  8
0
100
AcDbLine
 10
1321.999999999996
 20
1539.455334987593
 30
0.0
 11
1326.999999999996
 21
1539.455334987593
 31
0.0
  0
LINE
  5
48FD
330
1D9
100
AcDbEntity
  8
0
100
AcDbLine
 10
1350.999999999996
 20
1540.455334987593
 30
0.0
 11
1352.754999999997
 21
1540.455334987593
 31
0.0
  0
ARC
  5
48FE
330
1D9
100
AcDbEntity
  8
0
100
AcDbCircle
 10
1355.024000000006
 20
1531.177334987591
 30
0.0
 40
3.975619999999998
100
AcDbArc
 50
299.7969999999761
 51
60.20289999998767
  0
ARC
  5
48FF
330
1D9
100
AcDbEntity
  8
0
100
AcDbCircle
 10
1350.999999999996
 20
1535.455334987593
 30
0.0
 40
5.0
100
AcDbArc
 50
90.0
 51
180.0
  0
LINE
  5
4900
330
1D9
100
AcDbEntity
  8
0
100
AcDbLine
 10
1357.000000000003
 20
1534.627334987591
 30
0.0
 11
1346.000000000003
 21
1534.627334987591
 31
0.0
  0
LINE
  5
4901
330
1D9
100
AcDbEntity
  8
0
100
AcDbLine
 10
1357.000000000003
 20
1527.727334987593
 30
0.0
 11
1346.000000000003
 21
1527.727334987593
 31
0.0
  0
ARC
  5
4902
330
1D9
100
AcDbEntity
  8
0
100
AcDbCircle
 10
1355.024000000006
 20
1510.377334987591
 30
0.0
 40
3.975619999999998
100
AcDbArc
 50
299.7969999999761
 51
60.20289999998767
  0
ARC
  5
4903
330
1D9
100
AcDbEntity
  8
0
100
AcDbCircle
 10
1343.000000000003
 20
1505.955334987593
 30
0.0
 40
3.0
100
AcDbArc
 50
270.0
 51
0.0
  0
LINE
  5
4904
330
1D9
100
AcDbEntity
  8
0
100
AcDbLine
 10
1357.000000000003
 20
1513.827334987593
 30
0.0
 11
1346.000000000003
 21
1513.827334987593
 31
0.0
  0
LINE
  5
4905
330
1D9
100
AcDbEntity
  8
0
100
AcDbLine
 10
1357.000000000003
 20
1506.927334987593
 30
0.0
 11
1346.000000000003
 21
1506.927334987593
 31
0.0
  0
ARC
  5
4906
330
1D9
100
AcDbEntity
  8
0
100
AcDbCircle
 10
1345.923999999997
 20
1520.777334987591
 30
0.0
 40
13.0756
100
AcDbArc
 50
327.8910000000363
 51
32.10849999999879
  0
LINE
  5
4907
330
1D9
100
AcDbEntity
  8
0
100
AcDbLine
 10
1359.000000000003
 20
1510.377334987591
 30
0.0
 11
1359.000000000003
 21
1531.177334987591
 31
0.0
  0
LINE
  5
4908
330
1D9
100
AcDbEntity
  8
0
100
AcDbLine
 10
1321.998999999996
 20
1625.955334987593
 30
0.0
 11
1321.998999999996
 21
1547.455334987593
 31
0.0
  0
LINE
  5
4909
330
1D9
100
AcDbEntity
  8
0
100
AcDbLine
 10
1223.999999999997
 20
1666.955334987592
 30
0.0
 11
1203.300999999996
 21
1670.515334987593
 31
0.0
  0
LINE
  5
490B
330
1D9
100
AcDbEntity
  8
0
100
AcDbLine
 10
1178.999999999996
 20
1713.455334987592
 30
0.0
 11
1193.000000000003
 21
1713.455334987592
 31
0.0
  0
ARC
  5
490C
330
1D9
100
AcDbEntity
  8
0
100
AcDbCircle
 10
1193.000000000003
 20
1711.455334987593
 30
0.0
 40
2.0
100
AcDbArc
 50
0.0
 51
90.0
  0
LINE
  5
490D
330
1D9
100
AcDbEntity
  8
0
100
AcDbLine
 10
1177.000000000003
 20
1683.955334987593
 30
0.0
 11
1178.999999999996
 21
1683.955334987593
 31
0.0
  0
ARC
  5
490E
330
1D9
100
AcDbEntity
  8
0
100
AcDbCircle
 10
1204.999999999996
 20
1680.375334987592
 30
0.0
 40
10.0
100
AcDbArc
 50
179.9990000000035
 51
260.2170000000217
  0
LINE
  5
4910
330
1D9
100
AcDbEntity
  8
0
100
AcDbLine
 10
1195.000000000003
 20
1711.455334987593
 30
0.0
 11
1195.000000000003
 21
1680.375334987592
 31
0.0
  0
LINE
  5
4913
330
1D9
100
AcDbEntity
  8
0
100
AcDbLine
 10
1299.499000000003
 20
1723.925334987593
 30
0.0
 11
1275.530999999997
 21
1699.955334987593
 31
0.0
  0
LINE
  5
4914
330
1D9
100
AcDbEntity
  8
0
100
AcDbLine
 10
1275.530999999997
 20
1699.955334987593
 30
0.0
 11
1299.499000000003
 21
1718.125334987592
 31
0.0
  0
ARC
  5
4915
330
1D9
100
AcDbEntity
  8
0
100
AcDbCircle
 10
1311.999000000003
 20
1625.954334987593
 30
0.0
 40
82.5
100
AcDbArc
 50
116.2339999999917
 51
144.9449999999946
  0
LINE
  5
4916
330
1D9
100
AcDbEntity
  8
0
100
AcDbLine
 10
1223.999999999997
 20
1666.955334987592
 30
0.0
 11
1232.184999999996
 21
1666.955334987592
 31
0.0
  0
ARC
  5
4917
330
1D9
100
AcDbEntity
  8
0
100
AcDbCircle
 10
1232.184999999996
 20
1681.955334987593
 30
0.0
 40
15.0
100
AcDbArc
 50
270.0
 51
324.9449999999947
  0
ARC
  5
4918
330
1D9
100
AcDbEntity
  8
0
100
AcDbCircle
 10
1345.923999999997
 20
1731.125334987591
 30
0.0
 40
13.0756
100
AcDbArc
 50
327.8910000000363
 51
32.10849999999879
  0
LINE
  5
4919
330
1D9
100
AcDbEntity
  8
0
100
AcDbLine
 10
1359.000000000003
 20
1741.525334987591
 30
0.0
 11
1359.000000000003
 21
1720.725334987593
 31
0.0
  0
LINE
  5
491A
330
1D9
100
AcDbEntity
  8
0
100
AcDbLine
 10
1346.000000000003
 20
1745.955334987592
 30
0.0
 11
1346.000000000003
 21
1716.455334987593
 31
0.0
  0
ARC
  5
491C
330
1D9
100
AcDbEntity
  8
0
100
AcDbCircle
 10
1302.575000000006
 20
1731.125334987591
 30
0.0
 40
13.0756
100
AcDbArc
 50
147.8910000000363
 51
212.1080000000038
  0
LINE
  5
491D
330
1D9
100
AcDbEntity
  8
0
100
AcDbLine
 10
1289.499999999996
 20
1741.525334987591
 30
0.0
 11
1289.499999999996
 21
1720.725334987593
 31
0.0
  0
LINE
  5
491E
330
1D9
100
AcDbEntity
  8
0
100
AcDbLine
 10
1299.499000000003
 20
1745.855334987592
 30
0.0
 11
1299.499000000003
 21
1718.125334987592
 31
0.0
  0
LINE
  5
491F
330
1D9
100
AcDbEntity
  8
0
100
AcDbLine
 10
1326.999999999996
 20
1712.455334987593
 30
0.0
 11
1326.999999999996
 21
1723.125334987592
 31
0.0
  0
LINE
  5
4920
330
1D9
100
AcDbEntity
  8
0
100
AcDbLine
 10
1326.999999999996
 20
1697.905334987591
 30
0.0
 11
1326.999999999996
 21
1704.455334987593
 31
0.0
  0
ARC
  5
4921
330
1D9
100
AcDbEntity
  8
0
100
AcDbCircle
 10
1293.475000000005
 20
1720.725334987593
 30
0.0
 40
3.975619999999998
100
AcDbArc
 50
119.7969999999761
 51
240.2020000000284
  0
LINE
  5
4922
330
1D9
100
AcDbEntity
  8
0
100
AcDbLine
 10
1291.499999999996
 20
1717.275334987593
 30
0.0
 11
1298.378999999997
 21
1717.275334987593
 31
0.0
  0
LINE
  5
4923
330
1D9
100
AcDbEntity
  8
0
100
AcDbLine
 10
1291.499999999996
 20
1724.175334987593
 30
0.0
 11
1299.499999999997
 21
1724.175334987593
 31
0.0
  0
LINE
  5
4924
330
1D9
100
AcDbEntity
  8
0
100
AcDbLine
 10
1321.999000000003
 20
1712.455334987593
 30
0.0
 11
1326.999999999996
 21
1712.455334987593
 31
0.0
  0
LINE
  5
4925
330
1D9
100
AcDbEntity
  8
0
100
AcDbLine
 10
1318.499000000002
 20
1723.125334987592
 30
0.0
 11
1326.999999999996
 21
1723.125334987592
 31
0.0
  0
LINE
  5
4926
330
1D9
100
AcDbEntity
  8
0
100
AcDbLine
 10
1350.999999999996
 20
1711.455334987593
 30
0.0
 11
1352.754999999997
 21
1711.455334987593
 31
0.0
  0
ARC
  5
4927
330
1D9
100
AcDbEntity
  8
0
100
AcDbCircle
 10
1355.024000000006
 20
1720.725334987593
 30
0.0
 40
3.975619999999998
100
AcDbArc
 50
299.7969999999761
 51
60.20289999998767
  0
ARC
  5
4928
330
1D9
100
AcDbEntity
  8
0
100
AcDbCircle
 10
1350.999999999996
 20
1716.455334987593
 30
0.0
 40
5.0
100
AcDbArc
 50
180.0
 51
270.0
  0
LINE
  5
4929
330
1D9
100
AcDbEntity
  8
0
100
AcDbLine
 10
1357.000000000003
 20
1717.275334987593
 30
0.0
 11
1346.000000000003
 21
1717.275334987593
 31
0.0
  0
LINE
  5
492A
330
1D9
100
AcDbEntity
  8
0
100
AcDbLine
 10
1357.000000000003
 20
1724.175334987593
 30
0.0
 11
1346.000000000003
 21
1724.175334987593
 31
0.0
  0
LINE
  5
492C
330
1D9
100
AcDbEntity
  8
0
100
AcDbLine
 10
1318.499000000002
 20
1748.855334987592
 30
0.0
 11
1302.499000000003
 21
1748.855334987592
 31
0.0
  0
ARC
  5
492D
330
1D9
100
AcDbEntity
  8
0
100
AcDbCircle
 10
1293.475000000005
 20
1741.525334987591
 30
0.0
 40
3.975619999999998
100
AcDbArc
 50
119.7969999999761
 51
240.2020000000284
  0
LINE
  5
492E
330
1D9
100
AcDbEntity
  8
0
100
AcDbLine
 10
1291.499999999996
 20
1738.075334987593
 30
0.0
 11
1299.499999999997
 21
1738.075334987593
 31
0.0
  0
LINE
  5
492F
330
1D9
100
AcDbEntity
  8
0
100
AcDbLine
 10
1291.499999999996
 20
1744.975334987594
 30
0.0
 11
1299.499999999997
 21
1744.975334987594
 31
0.0
  0
ARC
  5
4930
330
1D9
100
AcDbEntity
  8
0
100
AcDbCircle
 10
1302.499000000003
 20
1745.855334987592
 30
0.0
 40
3.0
100
AcDbArc
 50
90.0
 51
180.0
  0
LINE
  5
4931
330
1D9
100
AcDbEntity
  8
0
100
AcDbLine
 10
1318.499000000002
 20
1739.125334987592
 30
0.0
 11
1326.999999999996
 21
1739.125334987592
 31
0.0
  0
ARC
  5
4932
330
1D9
100
AcDbEntity
  8
0
100
AcDbCircle
 10
1355.024000000006
 20
1741.525334987591
 30
0.0
 40
3.975619999999998
100
AcDbArc
 50
299.7969999999761
 51
60.20289999998767
  0
LINE
  5
4933
330
1D9
100
AcDbEntity
  8
0
100
AcDbLine
 10
1357.000000000003
 20
1738.075334987593
 30
0.0
 11
1346.000000000003
 21
1738.075334987593
 31
0.0
  0
LINE
  5
4934
330
1D9
100
AcDbEntity
  8
0
100
AcDbLine
 10
1357.000000000003
 20
1744.975334987594
 30
0.0
 11
1346.000000000003
 21
1744.975334987594
 31
0.0
  0
ARC
  5
4935
330
1D9
100
AcDbEntity
  8
0
100
AcDbCircle
 10
1343.000000000003
 20
1745.955334987592
 30
0.0
 40
3.0
100
AcDbArc
 50
0.0
 51
90.0
  0
LINE
  5
4936
330
1D9
100
AcDbEntity
  8
0
100
AcDbLine
 10
2646.024999999999
 20
1672.455334987593
 30
0.0
 11
2681.965
 21
1672.455334987593
 31
0.0
  0
LINE
  5
4937
330
1D9
100
AcDbEntity
  8
0
100
AcDbLine
 10
2646.024999999999
 20
1579.455334987593
 30
0.0
 11
2681.395
 21
1579.455334987593
 31
0.0
  0
LINE
  5
4939
330
1D9
100
AcDbEntity
  8
0
100
AcDbLine
 10
2490.445999999992
 20
1564.553329604015
 30
0.0
 11
2516.991
 21
1564.553329604015
 31
0.0
  0
LINE
  5
493A
330
1D9
100
AcDbEntity
  8
0
100
AcDbLine
 10
2490.445999999992
 20
1687.35734037117
 30
0.0
 11
2516.991
 21
1687.35734037117
 31
0.0
  0
ARC
  5
493C
330
1D9
100
AcDbEntity
  8
0
100
AcDbCircle
 10
2360.341
 20
1705.747334987593
 30
0.0
 40
7.708459999999997
100
AcDbArc
 50
359.9997800000039
 51
90.0
  0
LINE
  5
493D
330
1D9
100
AcDbEntity
  8
0
100
AcDbLine
 10
2474.505
 20
1568.953329604014
 30
0.0
 11
2379.44393626915
 21
1568.953329604014
 31
0.0
  0
LINE
  5
493E
330
1D9
100
AcDbEntity
  8
0
100
AcDbLine
 10
2474.505
 20
1682.957340371173
 30
0.0
 11
2379.44393626915
 21
1682.957340371173
 31
0.0
  0
LINE
  5
493F
330
1D9
100
AcDbEntity
  8
0
100
AcDbLine
 10
2368.049999999993
 20
1546.163334987594
 30
0.0
 11
2368.049999999993
 21
1625.955334987593
 31
0.0
  0
LINE
  5
4940
330
1D9
100
AcDbEntity
  8
0
100
AcDbLine
 10
2373.975000000001
 20
1625.953329604016
 30
0.0
 11
2373.975000000001
 21
1569.714329604015
 31
0.0
  0
ARC
  5
4942
330
1D9
100
AcDbEntity
  8
0
100
AcDbCircle
 10
2360.341
 20
1546.163334987594
 30
0.0
 40
7.708459999999997
100
AcDbArc
 50
270.0
 51
0.0002199999960869
  0
LINE
  5
4943
330
1D9
100
AcDbEntity
  8
0
100
AcDbLine
 10
2369.267023644681
 20
1571.736173932016
 30
0.0
 11
2368.619999999993
 21
1572.118624043024
 31
0.0
  0
ARC
  5
4944
330
1D9
100
AcDbEntity
  8
0
100
AcDbCircle
 10
2379.44393626915
 20
1588.953329604015
 30
0.0
 40
20.0
100
AcDbArc
 50
239.4130316313205
 51
270.0
  0
LINE
  5
4945
330
1D9
100
AcDbEntity
  8
0
100
AcDbLine
 10
2368.049999999993
 20
1705.747334987593
 30
0.0
 11
2368.049999999993
 21
1625.955334987593
 31
0.0
  0
ARC
  5
4947
330
1D9
100
AcDbEntity
  8
0
100
AcDbCircle
 10
2379.44393626915
 20
1662.957340371171
 30
0.0
 40
20.0
100
AcDbArc
 50
90.0
 51
120.5869683686794
  0
LINE
  5
4948
330
1D9
100
AcDbEntity
  8
0
100
AcDbLine
 10
2369.267023644681
 20
1680.174496043169
 30
0.0
 11
2368.619999999993
 21
1679.792045932164
 31
0.0
  0
LINE
  5
4949
330
1D9
100
AcDbEntity
  8
0
100
AcDbLine
 10
2373.975000000001
 20
1625.957340371173
 30
0.0
 11
2373.975000000001
 21
1682.196340371171
 31
0.0
  0
LINE
  5
494A
330
1D9
100
AcDbEntity
  8
0
100
AcDbLine
 10
2487.0
 20
1625.953329604016
 30
0.0
 11
2487.0
 21
1564.959329604015
 31
0.0
  0
LINE
  5
494B
330
1D9
100
AcDbEntity
  8
0
100
AcDbLine
 10
2478.004529977789
 20
1568.545369949128
 30
0.0
 11
2478.004529977789
 21
1625.953329604016
 31
0.0
  0
ARC
  5
494C
330
1D9
100
AcDbEntity
  8
0
100
AcDbCircle
 10
2474.505
 20
1553.953329604015
 30
0.0
 40
15.0
100
AcDbArc
 50
63.9469999999944
 51
90.0
  0
ARC
  5
494D
330
1D9
100
AcDbEntity
  8
0
100
AcDbCircle
 10
2490.445999999992
 20
1579.553329604014
 30
0.0
 40
15.0
100
AcDbArc
 50
243.947999999975
 51
270.0004999999459
  0
LINE
  5
494E
330
1D9
100
AcDbEntity
  8
0
100
AcDbLine
 10
2481.093000000003
 20
1567.433329604015
 30
0.0
 11
2483.857999999999
 21
1566.083329604015
 31
0.0
  0
LINE
  5
494F
330
1D9
100
AcDbEntity
  8
0
100
AcDbLine
 10
2478.004529977789
 20
1683.365300026058
 30
0.0
 11
2478.004529977789
 21
1625.957340371173
 31
0.0
  0
LINE
  5
4950
330
1D9
100
AcDbEntity
  8
0
100
AcDbLine
 10
2487.0
 20
1625.957340371173
 30
0.0
 11
2487.0
 21
1686.951340371171
 31
0.0
  0
LINE
  5
4951
330
1D9
100
AcDbEntity
  8
0
100
AcDbLine
 10
2481.093000000003
 20
1684.477340371173
 30
0.0
 11
2483.857999999999
 21
1685.827340371172
 31
0.0
  0
ARC
  5
4952
330
1D9
100
AcDbEntity
  8
0
100
AcDbCircle
 10
2490.445999999992
 20
1672.357340371172
 30
0.0
 40
15.0
100
AcDbArc
 50
89.99950000005389
 51
116.0520000000248
  0
ARC
  5
4953
330
1D9
100
AcDbEntity
  8
0
100
AcDbCircle
 10
2474.505
 20
1697.957340371171
 30
0.0
 40
15.0
100
AcDbArc
 50
270.0
 51
296.0530000000056
  0
LINE
  5
4954
330
1D9
100
AcDbEntity
  8
0
100
AcDbLine
 10
2529.959738200612
 20
1567.453329604014
 30
0.0
 11
2606.030000000003
 21
1567.453329604014
 31
0.0
  0
LINE
  5
4955
330
1D9
100
AcDbEntity
  8
0
100
AcDbLine
 10
2529.959738200612
 20
1684.457340371171
 30
0.0
 11
2606.030000000003
 21
1684.457340371171
 31
0.0
  0
LINE
  5
4956
330
1D9
100
AcDbEntity
  8
0
100
AcDbLine
 10
2526.999999999992
 20
1625.953329604016
 30
0.0
 11
2526.999999999992
 21
1567.153329604014
 31
0.0
  0
LINE
  5
4957
330
1D9
100
AcDbEntity
  8
0
100
AcDbLine
 10
2519.999999999992
 20
1564.852329604014
 30
0.0
 11
2519.999999999992
 21
1625.953329604016
 31
0.0
  0
ARC
  5
4958
330
1D9
100
AcDbEntity
  8
0
100
AcDbCircle
 10
2529.959999999992
 20
1552.453329604015
 30
0.0
 40
15.0
100
AcDbArc
 50
90.00099999999646
 51
112.5049999999806
  0
LINE
  5
4959
330
1D9
100
AcDbEntity
  8
0
100
AcDbLine
 10
2522.708666537482
 20
1565.69375126476
 30
0.0
 11
2524.21853918089
 21
1566.313550936683
 31
0.0
  0
ARC
  5
495A
330
1D9
100
AcDbEntity
  8
0
100
AcDbCircle
 10
2516.991
 20
1579.553329604014
 30
0.0
 40
15.0
100
AcDbArc
 50
269.9994999999497
 51
292.5028999999751
  0
LINE
  5
495B
330
1D9
100
AcDbEntity
  8
0
100
AcDbLine
 10
2519.999999999992
 20
1687.05834037117
 30
0.0
 11
2519.999999999992
 21
1625.957340371173
 31
0.0
  0
ARC
  5
495C
330
1D9
100
AcDbEntity
  8
0
100
AcDbCircle
 10
2516.991
 20
1672.357340371172
 30
0.0
 40
15.0
100
AcDbArc
 50
67.49710000002483
 51
90.0004999999461
  0
LINE
  5
495D
330
1D9
100
AcDbEntity
  8
0
100
AcDbLine
 10
2522.708666537482
 20
1686.216918710427
 30
0.0
 11
2524.21853918089
 21
1685.597119038503
 31
0.0
  0
ARC
  5
495E
330
1D9
100
AcDbEntity
  8
0
100
AcDbCircle
 10
2529.959999999992
 20
1699.457340371171
 30
0.0
 40
15.0
100
AcDbArc
 50
247.4950000000192
 51
269.9990000000034
  0
LINE
  5
495F
330
1D9
100
AcDbEntity
  8
0
100
AcDbLine
 10
2526.999999999992
 20
1625.957340371173
 30
0.0
 11
2526.999999999992
 21
1684.757340371172
 31
0.0
  0
LINE
  5
4960
330
1D9
100
AcDbEntity
  8
0
100
AcDbLine
 10
2646.024999999999
 20
1625.955334987593
 30
0.0
 11
2646.024999999999
 21
1571.955334987593
 31
0.0
  0
LINE
  5
4961
330
1D9
100
AcDbEntity
  8
0
100
AcDbLine
 10
2606.030000000003
 20
1625.955334987593
 30
0.0
 11
2606.030000000003
 21
1562.955334987593
 31
0.0
  0
LINE
  5
4962
330
1D9
100
AcDbEntity
  8
0
100
AcDbLine
 10
2615.629999999994
 20
1587.955334987593
 30
0.0
 11
2636.43
 21
1587.955334987593
 31
0.0
  0
ARC
  5
4963
330
1D9
100
AcDbEntity
  8
0
100
AcDbCircle
 10
2626.029999999994
 20
1601.030334987592
 30
0.0
 40
13.0756
100
AcDbArc
 50
237.8909999999694
 51
302.1080000000161
  0
LINE
  5
4964
330
1D9
100
AcDbEntity
  8
0
100
AcDbLine
 10
2644.024999999999
 20
1600.955334987593
 30
0.0
 11
2608.029999999994
 21
1600.955334987593
 31
0.0
  0
LINE
  5
4965
330
1D9
100
AcDbEntity
  8
0
100
AcDbLine
 10
2667.024999999993
 20
1552.955334987593
 30
0.0
 11
2616.029999999994
 21
1552.955334987593
 31
0.0
  0
ARC
  5
4966
330
1D9
100
AcDbEntity
  8
0
100
AcDbCircle
 10
2626.029999999994
 20
1589.538334987594
 30
0.0
 40
22.0833
100
AcDbArc
 50
248.760000000024
 51
291.2390000000152
  0
LINE
  5
4967
330
1D9
100
AcDbEntity
  8
0
100
AcDbLine
 10
2612.179999999993
 20
1589.955334987593
 30
0.0
 11
2612.179999999993
 21
1600.955334987593
 31
0.0
  0
LINE
  5
4968
330
1D9
100
AcDbEntity
  8
0
100
AcDbLine
 10
2619.08
 20
1589.955334987593
 30
0.0
 11
2619.08
 21
1600.955334987593
 31
0.0
  0
LINE
  5
4969
330
1D9
100
AcDbEntity
  8
0
100
AcDbLine
 10
2618.029999999993
 20
1587.955334987593
 30
0.0
 11
2618.029999999993
 21
1568.955334987593
 31
0.0
  0
ARC
  5
496A
330
1D9
100
AcDbEntity
  8
0
100
AcDbCircle
 10
2615.629999999994
 20
1591.930334987593
 30
0.0
 40
3.975619999999998
100
AcDbArc
 50
209.797000000014
 51
330.2019999999703
  0
ARC
  5
496B
330
1D9
100
AcDbEntity
  8
0
100
AcDbCircle
 10
2608.029999999994
 20
1602.955334987592
 30
0.0
 40
2.0
100
AcDbArc
 50
180.0
 51
270.0
  0
ARC
  5
496C
330
1D9
100
AcDbEntity
  8
0
100
AcDbCircle
 10
2616.029999999994
 20
1562.955334987593
 30
0.0
 40
10.0
100
AcDbArc
 50
180.0
 51
270.0
  0
LINE
  5
496D
330
1D9
100
AcDbEntity
  8
0
100
AcDbLine
 10
2632.979999999999
 20
1589.955334987593
 30
0.0
 11
2632.979999999999
 21
1600.955334987593
 31
0.0
  0
LINE
  5
496E
330
1D9
100
AcDbEntity
  8
0
100
AcDbLine
 10
2639.874999999999
 20
1589.955334987593
 30
0.0
 11
2639.874999999999
 21
1600.955334987593
 31
0.0
  0
LINE
  5
496F
330
1D9
100
AcDbEntity
  8
0
100
AcDbLine
 10
2634.029999999992
 20
1587.955334987593
 30
0.0
 11
2634.029999999992
 21
1568.955334987593
 31
0.0
  0
ARC
  5
4970
330
1D9
100
AcDbEntity
  8
0
100
AcDbCircle
 10
2636.43
 20
1591.930334987593
 30
0.0
 40
3.975619999999998
100
AcDbArc
 50
209.797000000014
 51
330.2019999999703
  0
LINE
  5
4973
330
1D9
100
AcDbEntity
  8
0
100
AcDbLine
 10
2667.024999999993
 20
1568.955334987593
 30
0.0
 11
2649.024999999999
 21
1568.955334987593
 31
0.0
  0
ARC
  5
4975
330
1D9
100
AcDbEntity
  8
0
100
AcDbCircle
 10
2649.024999999999
 20
1571.955334987593
 30
0.0
 40
3.0
100
AcDbArc
 50
180.0
 51
270.0
  0
ARC
  5
4976
330
1D9
100
AcDbEntity
  8
0
100
AcDbCircle
 10
2644.024999999999
 20
1602.955334987592
 30
0.0
 40
2.0
100
AcDbArc
 50
270.0
 51
0.0
  0
ARC
  5
4977
330
1D9
100
AcDbEntity
  8
0
100
AcDbCircle
 10
2667.024999999993
 20
1555.955334987593
 30
0.0
 40
3.0
100
AcDbArc
 50
270.0
 51
0.0
  0
LINE
  5
4978
330
1D9
100
AcDbEntity
  8
0
100
AcDbLine
 10
2662.024999999999
 20
1549.455334987593
 30
0.0
 11
2663.024999999999
 21
1550.455334987593
 31
0.0
  0
LINE
  5
4979
330
1D9
100
AcDbEntity
  8
0
100
AcDbLine
 10
2647.024999999993
 20
1552.955334987593
 30
0.0
 11
2647.024999999993
 21
1550.455334987593
 31
0.0
  0
LINE
  5
497A
330
1D9
100
AcDbEntity
  8
0
100
AcDbLine
 10
2648.025
 20
1549.455334987593
 30
0.0
 11
2662.024999999999
 21
1549.455334987593
 31
0.0
  0
LINE
  5
497B
330
1D9
100
AcDbEntity
  8
0
100
AcDbLine
 10
2647.024999999993
 20
1550.455334987593
 30
0.0
 11
2648.025
 21
1549.455334987593
 31
0.0
  0
LINE
  5
497C
330
1D9
100
AcDbEntity
  8
0
100
AcDbLine
 10
2663.024999999999
 20
1550.455334987593
 30
0.0
 11
2663.024999999999
 21
1552.955334987593
 31
0.0
  0
LINE
  5
497D
330
1D9
100
AcDbEntity
  8
0
100
AcDbLine
 10
2670.024999999999
 20
1555.955334987593
 30
0.0
 11
2670.024999999999
 21
1565.955334987592
 31
0.0
  0
ARC
  5
497E
330
1D9
100
AcDbEntity
  8
0
100
AcDbCircle
 10
2636.030000000003
 20
1562.955334987593
 30
0.0
 40
10.0
100
AcDbArc
 50
270.0
 51
0.0
  0
LINE
  5
497F
330
1D9
100
AcDbEntity
  8
0
100
AcDbLine
 10
2646.024999999999
 20
1571.955334987593
 30
0.0
 11
2646.024999999999
 21
1562.955334987593
 31
0.0
  0
ARC
  5
4980
330
1D9
100
AcDbEntity
  8
0
100
AcDbCircle
 10
2667.024999999993
 20
1565.955334987592
 30
0.0
 40
3.0
100
AcDbArc
 50
0.0
 51
90.0
  0
LINE
  5
4981
330
1D9
100
AcDbEntity
  8
0
100
AcDbLine
 10
2644.024999999999
 20
1650.955334987592
 30
0.0
 11
2608.029999999994
 21
1650.955334987592
 31
0.0
  0
LINE
  5
4982
330
1D9
100
AcDbEntity
  8
0
100
AcDbLine
 10
2615.629999999994
 20
1663.955334987593
 30
0.0
 11
2636.43
 21
1663.955334987593
 31
0.0
  0
ARC
  5
4983
330
1D9
100
AcDbEntity
  8
0
100
AcDbCircle
 10
2626.029999999994
 20
1650.880334987592
 30
0.0
 40
13.0756
100
AcDbArc
 50
57.89199999998373
 51
122.1090000000305
  0
LINE
  5
4984
330
1D9
100
AcDbEntity
  8
0
100
AcDbLine
 10
2647.024999999993
 20
1698.955334987592
 30
0.0
 11
2616.029999999994
 21
1698.955334987592
 31
0.0
  0
LINE
  5
4985
330
1D9
100
AcDbEntity
  8
0
100
AcDbLine
 10
2606.030000000003
 20
1625.955334987593
 30
0.0
 11
2646.024999999999
 21
1625.955334987593
 31
0.0
  0
LINE
  5
4986
330
1D9
100
AcDbEntity
  8
0
100
AcDbLine
 10
2612.179999999993
 20
1661.955334987593
 30
0.0
 11
2612.179999999993
 21
1650.955334987592
 31
0.0
  0
ARC
  5
4987
330
1D9
100
AcDbEntity
  8
0
100
AcDbCircle
 10
2608.029999999994
 20
1648.955334987594
 30
0.0
 40
2.0
100
AcDbArc
 50
90.0
 51
180.0
  0
LINE
  5
4988
330
1D9
100
AcDbEntity
  8
0
100
AcDbLine
 10
2619.08
 20
1661.955334987593
 30
0.0
 11
2619.08
 21
1650.955334987592
 31
0.0
  0
ARC
  5
4989
330
1D9
100
AcDbEntity
  8
0
100
AcDbCircle
 10
2615.629999999994
 20
1659.980334987595
 30
0.0
 40
3.975619999999998
100
AcDbArc
 50
29.7980000000296
 51
150.2029999999859
  0
LINE
  5
498A
330
1D9
100
AcDbEntity
  8
0
100
AcDbLine
 10
2606.030000000003
 20
1625.955334987593
 30
0.0
 11
2606.030000000003
 21
1688.955334987593
 31
0.0
  0
LINE
  5
498B
330
1D9
100
AcDbEntity
  8
0
100
AcDbLine
 10
2606.030000000003
 20
1684.455334987593
 30
0.0
 11
2606.030000000003
 21
1688.955334987593
 31
0.0
  0
ARC
  5
498C
330
1D9
100
AcDbEntity
  8
0
100
AcDbCircle
 10
2616.029999999994
 20
1688.955334987593
 30
0.0
 40
10.0
100
AcDbArc
 50
90.0
 51
180.0
  0
ARC
  5
498D
330
1D9
100
AcDbEntity
  8
0
100
AcDbCircle
 10
2636.43
 20
1659.980334987595
 30
0.0
 40
3.975619999999998
100
AcDbArc
 50
29.7980000000296
 51
150.2029999999859
  0
LINE
  5
498E
330
1D9
100
AcDbEntity
  8
0
100
AcDbLine
 10
2632.979999999999
 20
1661.955334987593
 30
0.0
 11
2632.979999999999
 21
1650.955334987592
 31
0.0
  0
LINE
  5
498F
330
1D9
100
AcDbEntity
  8
0
100
AcDbLine
 10
2639.874999999999
 20
1661.955334987593
 30
0.0
 11
2639.874999999999
 21
1650.955334987592
 31
0.0
  0
ARC
  5
4992
330
1D9
100
AcDbEntity
  8
0
100
AcDbCircle
 10
2636.030000000003
 20
1688.955334987593
 30
0.0
 40
10.0
100
AcDbArc
 50
1.81192713817208
 51
90.0
  0
LINE
  5
4993
330
1D9
100
AcDbEntity
  8
0
100
AcDbLine
 10
2646.024999999999
 20
1625.955334987593
 30
0.0
 11
2646.024999999999
 21
1689.271523222664
 31
0.0
  0
LINE
  5
4994
330
1D9
100
AcDbEntity
  8
0
100
AcDbLine
 10
2662.024999999999
 20
1702.455334987594
 30
0.0
 11
2663.024999999999
 21
1701.455334987593
 31
0.0
  0
LINE
  5
4997
330
1D9
100
AcDbEntity
  8
0
100
AcDbLine
 10
2648.025
 20
1702.455334987594
 30
0.0
 11
2662.024999999999
 21
1702.455334987594
 31
0.0
  0
LINE
  5
4998
330
1D9
100
AcDbEntity
  8
0
100
AcDbLine
 10
2647.024999999993
 20
1701.455334987593
 30
0.0
 11
2648.025
 21
1702.455334987594
 31
0.0
  0
ARC
  5
499A
330
1D9
100
AcDbEntity
  8
0
100
AcDbCircle
 10
2649.024999999999
 20
1679.955334987592
 30
0.0
 40
3.0
100
AcDbArc
 50
131.8100000000022
 51
180.0
  0
LINE
  5
499B
330
1D9
100
AcDbEntity
  8
0
100
AcDbLine
 10
2646.024999999999
 20
1672.455334987593
 30
0.0
 11
2646.024999999999
 21
1679.955334987592
 31
0.0
  0
LINE
  5
499C
330
1D9
100
AcDbEntity
  8
0
100
AcDbLine
 10
2667.024999999993
 20
1698.955334987592
 30
0.0
 11
2647.024999999993
 21
1698.955334987592
 31
0.0
  0
LINE
  5
499D
330
1D9
100
AcDbEntity
  8
0
100
AcDbLine
 10
2667.024999999993
 20
1682.955334987592
 30
0.0
 11
2647.024999999993
 21
1682.955334987592
 31
0.0
  0
ARC
  5
499E
330
1D9
100
AcDbEntity
  8
0
100
AcDbCircle
 10
2667.024999999993
 20
1695.955334987592
 30
0.0
 40
3.0
100
AcDbArc
 50
0.0
 51
90.0
  0
LINE
  5
499F
330
1D9
100
AcDbEntity
  8
0
100
AcDbLine
 10
2670.024999999999
 20
1695.955334987592
 30
0.0
 11
2670.024999999999
 21
1685.955334987593
 31
0.0
  0
ARC
  5
49A0
330
1D9
100
AcDbEntity
  8
0
100
AcDbCircle
 10
2667.024999999993
 20
1685.955334987593
 30
0.0
 40
3.0
100
AcDbArc
 50
270.0
 51
0.0
  0
LINE
  5
49A1
330
1D9
100
AcDbEntity
  8
0
100
AcDbLine
 10
2760.000000000013
 20
1520.126231858869
 30
0.0
 11
2760.000000000013
 21
1625.955334987593
 31
0.0
  0
ARC
  5
49A3
330
1D9
100
AcDbEntity
  8
0
100
AcDbCircle
 10
2833.239333694404
 20
1569.405334987593
 30
0.0
 40
10.0
100
AcDbArc
 50
90.0
 51
142.3518470178183
  0
ARC
  5
49A4
330
1D9
100
AcDbEntity
  8
0
100
AcDbCircle
 10
2833.239333694404
 20
1682.405334987595
 30
0.0
 40
10.0
100
AcDbArc
 50
217.6481529821816
 51
270.0
  0
ARC
  5
49A5
330
1D9
100
AcDbEntity
  8
0
100
AcDbCircle
 10
2760.000000000013
 20
1625.905334987593
 30
0.0
 40
82.5
100
AcDbArc
 50
37.6481529821817
 51
73.05649812096381
  0
LINE
  5
49A6
330
1D9
100
AcDbEntity
  8
0
100
AcDbLine
 10
2755.515000000002
 20
1719.955334987593
 30
0.0
 11
2755.515000000002
 21
1625.955334987593
 31
0.0
  0
LINE
  5
49A7
330
1D9
100
AcDbEntity
  8
0
100
AcDbLine
 10
2780.515000000002
 20
1625.955334987593
 30
0.0
 11
2780.515000000002
 21
1710.455334987595
 31
0.0
  0
LINE
  5
49A8
330
1D9
100
AcDbEntity
  8
0
100
AcDbLine
 10
2780.515000000002
 20
1625.955334987593
 30
0.0
 11
2780.515000000002
 21
1710.455334987595
 31
0.0
  0
ARC
  5
49A9
330
1D9
100
AcDbEntity
  8
0
100
AcDbCircle
 10
2689.675000000001
 20
1705.747334987593
 30
0.0
 40
7.708459999999997
100
AcDbArc
 50
90.0
 51
180.0009999999964
  0
LINE
  5
49AB
330
1D9
100
AcDbEntity
  8
0
100
AcDbLine
 10
2709.015000000002
 20
1716.955334987592
 30
0.0
 11
2709.015000000002
 21
1625.955334987593
 31
0.0
  0
ARC
  5
49AC
330
1D9
100
AcDbEntity
  8
0
100
AcDbCircle
 10
2785.515000000001
 20
1709.65718681896
 30
0.0
 40
5.0
100
AcDbArc
 50
180.0
 51
253.0564981209638
  0
LINE
  5
49AD
330
1D9
100
AcDbEntity
  8
0
100
AcDbLine
 10
2760.000000000013
 20
1731.784438116317
 30
0.0
 11
2760.000000000013
 21
1625.955334987593
 31
0.0
  0
LINE
  5
49AE
330
1D9
100
AcDbEntity
  8
0
100
AcDbLine
 10
2712.015
 20
1531.955334987593
 30
0.0
 11
2755.515000000002
 21
1531.955334987593
 31
0.0
  0
LINE
  5
49B0
330
1D9
100
AcDbEntity
  8
0
100
AcDbLine
 10
2681.965
 20
1546.163334987594
 30
0.0
 11
2681.965
 21
1625.955334987593
 31
0.0
  0
LINE
  5
49B1
330
1D9
100
AcDbEntity
  8
0
100
AcDbLine
 10
2709.015000000002
 20
1534.955334987593
 30
0.0
 11
2709.015000000002
 21
1625.955334987593
 31
0.0
  0
ARC
  5
49B3
330
1D9
100
AcDbEntity
  8
0
100
AcDbCircle
 10
2712.015
 20
1534.955334987595
 30
0.0
 40
3.0
100
AcDbArc
 50
180.0
 51
270.0
  0
ARC
  5
49B4
330
1D9
100
AcDbEntity
  8
0
100
AcDbCircle
 10
2689.675000000001
 20
1546.163334987594
 30
0.0
 40
7.708459999999997
100
AcDbArc
 50
179.9990000000035
 51
270.0
  0
LINE
  5
49B5
330
1D9
100
AcDbEntity
  8
0
100
AcDbLine
 10
2681.965
 20
1705.747334987593
 30
0.0
 11
2681.965
 21
1625.955334987593
 31
0.0
  0
LINE
  5
49B7
330
1D9
100
AcDbEntity
  8
0
100
AcDbLine
 10
2828.146900149604
 20
1578.011560675537
 30
0.0
 11
2828.146900149604
 21
1625.955334987593
 31
0.0
  0
LINE
  5
49B8
330
1D9
100
AcDbEntity
  8
0
100
AcDbLine
 10
2780.515000000002
 20
1625.955334987593
 30
0.0
 11
2780.515000000002
 21
1541.455334987593
 31
0.0
  0
LINE
  5
49B9
330
1D9
100
AcDbEntity
  8
0
100
AcDbLine
 10
2780.515000000002
 20
1625.955334987593
 30
0.0
 11
2780.515000000002
 21
1541.455334987593
 31
0.0
  0
LINE
  5
49BA
330
1D9
100
AcDbEntity
  8
0
100
AcDbLine
 10
2755.515000000002
 20
1531.955334987593
 30
0.0
 11
2755.515000000002
 21
1625.955334987593
 31
0.0
  0
ARC
  5
49BB
330
1D9
100
AcDbEntity
  8
0
100
AcDbCircle
 10
2760.000000000013
 20
1625.905334987593
 30
0.0
 40
82.5
100
AcDbArc
 50
286.9435018790361
 51
322.3518470178181
  0
LINE
  5
49BC
330
1D9
100
AcDbEntity
  8
0
100
AcDbLine
 10
2780.515000000002
 20
1541.455334987593
 30
0.0
 11
2780.515000000002
 21
1553.48947189323
 31
0.0
  0
LINE
  5
49BD
330
1D9
100
AcDbEntity
  8
0
100
AcDbLine
 10
2775.515000000002
 20
1536.455334987593
 30
0.0
 11
2760.015000000001
 21
1536.455334987593
 31
0.0
  0
LINE
  5
49BE
330
1D9
100
AcDbEntity
  8
0
100
AcDbLine
 10
2755.515000000002
 20
1531.955334987593
 30
0.0
 11
2760.015000000001
 21
1536.455334987593
 31
0.0
  0
ARC
  5
49BF
330
1D9
100
AcDbEntity
  8
0
100
AcDbCircle
 10
2775.515000000002
 20
1541.455334987593
 30
0.0
 40
5.0
100
AcDbArc
 50
270.0
 51
0.0
  0
ARC
  5
49C0
330
1D9
100
AcDbEntity
  8
0
100
AcDbCircle
 10
2785.515000000001
 20
1542.253483156225
 30
0.0
 40
5.0
100
AcDbArc
 50
106.9435018790361
 51
180.0
  0
LINE
  5
49C1
330
1D9
100
AcDbEntity
  8
0
100
AcDbLine
 10
2828.146900149604
 20
1673.79910929965
 30
0.0
 11
2828.146900149604
 21
1625.855334987593
 31
0.0
  0
LINE
  5
49C2
330
1D9
100
AcDbEntity
  8
0
100
AcDbLine
 10
2712.015
 20
1719.955334987593
 30
0.0
 11
2755.515000000002
 21
1719.955334987593
 31
0.0
  0
ARC
  5
49C3
330
1D9
100
AcDbEntity
  8
0
100
AcDbCircle
 10
2712.015
 20
1716.955334987592
 30
0.0
 40
3.0
100
AcDbArc
 50
90.0
 51
180.0
  0
ARC
  5
49C4
330
1D9
100
AcDbEntity
  8
0
100
AcDbCircle
 10
2775.515000000002
 20
1710.455334987595
 30
0.0
 40
5.0
100
AcDbArc
 50
0.0
 51
90.0
  0
LINE
  5
49C5
330
1D9
100
AcDbEntity
  8
0
100
AcDbLine
 10
2780.515000000002
 20
1710.455334987593
 30
0.0
 11
2780.515000000002
 21
1709.657186818958
 31
0.0
  0
LINE
  5
49C6
330
1D9
100
AcDbEntity
  8
0
100
AcDbLine
 10
2775.515000000002
 20
1715.455334987592
 30
0.0
 11
2760.015000000001
 21
1715.455334987592
 31
0.0
  0
LINE
  5
49C7
330
1D9
100
AcDbEntity
  8
0
100
AcDbLine
 10
2755.515000000002
 20
1719.955334987593
 30
0.0
 11
2760.015000000001
 21
1715.455334987592
 31
0.0
  0
LINE
  5
49C8
330
1D9
100
AcDbEntity
  8
0
100
AcDbLine
 10
2877.0
 20
1687.882244121492
 30
0.0
 11
2877.0
 21
1716.405334987594
 31
0.0
  0
LINE
  5
49C9
330
1D9
100
AcDbEntity
  8
0
100
AcDbLine
 10
2892.0
 20
1625.905334987593
 30
0.0
 11
2892.0
 21
1718.405334987593
 31
0.0
  0
LINE
  5
49CA
330
1D9
100
AcDbEntity
  8
0
100
AcDbLine
 10
2877.0
 20
1625.905334987593
 30
0.0
 11
2877.0
 21
1716.405334987594
 31
0.0
  0
LINE
  5
49CC
330
1D9
100
AcDbEntity
  8
0
100
AcDbLine
 10
2851.0
 20
1579.381907684185
 30
0.0
 11
2851.0
 21
1625.955334987593
 31
0.0
  0
LINE
  5
49CD
330
1D9
100
AcDbEntity
  8
0
100
AcDbLine
 10
2877.0
 20
1625.905334987593
 30
0.0
 11
2877.0
 21
1535.405334987593
 31
0.0
  0
LINE
  5
49CE
330
1D9
100
AcDbEntity
  8
0
100
AcDbLine
 10
2892.0
 20
1625.905334987593
 30
0.0
 11
2892.0
 21
1533.405334987593
 31
0.0
  0
LINE
  5
49CF
330
1D9
100
AcDbEntity
  8
0
100
AcDbLine
 10
2895.0
 20
1625.905334987593
 30
0.0
 11
2895.0
 21
1562.905334987593
 31
0.0
  0
ARC
  5
49D0
330
1D9
100
AcDbEntity
  8
0
100
AcDbCircle
 10
2867.0
 20
1563.928425853692
 30
0.0
 40
10.0
100
AcDbArc
 50
0.0
 51
72.64597536372935
  0
LINE
  5
49D2
330
1D9
100
AcDbEntity
  8
0
100
AcDbLine
 10
2869.982749931363
 20
1573.473225634043
 30
0.0
 11
2851.29132814057
 21
1579.314294943664
 31
0.0
  0
ARC
  5
49D3
330
1D9
100
AcDbEntity
  8
0
100
AcDbCircle
 10
2850.694778154302
 20
1577.405334987593
 30
0.0
 40
2.0
100
AcDbArc
 50
72.64597536372935
 51
90.0
  0
LINE
  5
49D4
330
1D9
100
AcDbEntity
  8
0
100
AcDbLine
 10
2833.239333694404
 20
1579.405334987593
 30
0.0
 11
2850.694778154302
 21
1579.405334987593
 31
0.0
  0
ARC
  5
49D5
330
1D9
100
AcDbEntity
  8
0
100
AcDbCircle
 10
2879.0
 20
1535.405334987593
 30
0.0
 40
2.0
100
AcDbArc
 50
180.0
 51
270.0
  0
LINE
  5
49D6
330
1D9
100
AcDbEntity
  8
0
100
AcDbLine
 10
2892.0
 20
1533.405334987593
 30
0.0
 11
2879.0
 21
1533.405334987593
 31
0.0
  0
LINE
  5
49D7
330
1D9
100
AcDbEntity
  8
0
100
AcDbLine
 10
2877.0
 20
1563.928425853692
 30
0.0
 11
2877.0
 21
1535.405334987593
 31
0.0
  0
LINE
  5
49D8
330
1D9
100
AcDbEntity
  8
0
100
AcDbLine
 10
2895.0
 20
1562.905334987593
 30
0.0
 11
2892.0
 21
1562.905334987593
 31
0.0
  0
ARC
  5
49DA
330
1D9
100
AcDbEntity
  8
0
100
AcDbCircle
 10
2867.0
 20
1687.882244121492
 30
0.0
 40
10.0
100
AcDbArc
 50
287.3540246362706
 51
0.0
  0
LINE
  5
49DB
330
1D9
100
AcDbEntity
  8
0
100
AcDbLine
 10
2851.0
 20
1672.428762291001
 30
0.0
 11
2851.0
 21
1625.855334987593
 31
0.0
  0
ARC
  5
49DC
330
1D9
100
AcDbEntity
  8
0
100
AcDbCircle
 10
2850.694778154302
 20
1674.405334987593
 30
0.0
 40
2.0
100
AcDbArc
 50
270.0
 51
287.3540246362706
  0
LINE
  5
49DD
330
1D9
100
AcDbEntity
  8
0
100
AcDbLine
 10
2869.982749931363
 20
1678.337444341145
 30
0.0
 11
2851.29132814057
 21
1672.496375031522
 31
0.0
  0
LINE
  5
49DE
330
1D9
100
AcDbEntity
  8
0
100
AcDbLine
 10
2833.239333694404
 20
1672.405334987593
 30
0.0
 11
2850.694778154302
 21
1672.405334987593
 31
0.0
  0
LINE
  5
49DF
330
1D9
100
AcDbEntity
  8
0
100
AcDbLine
 10
2895.0
 20
1625.905334987593
 30
0.0
 11
2895.0
 21
1688.905334987593
 31
0.0
  0
LINE
  5
49E0
330
1D9
100
AcDbEntity
  8
0
100
AcDbLine
 10
2895.0
 20
1688.905334987593
 30
0.0
 11
2892.0
 21
1688.905334987593
 31
0.0
  0
LINE
  5
49E3
330
1D9
100
AcDbEntity
  8
0
100
AcDbLine
 10
2892.0
 20
1718.405334987593
 30
0.0
 11
2879.0
 21
1718.405334987593
 31
0.0
  0
ARC
  5
49E4
330
1D9
100
AcDbEntity
  8
0
100
AcDbCircle
 10
2879.0
 20
1716.405334987594
 30
0.0
 40
2.0
100
AcDbArc
 50
90.0
 51
180.0
  0
LINE
  5
49E5
330
1D9
100
AcDbEntity
  8
0
100
AcDbLine
 10
1669.024999999997
 20
1672.455334987593
 30
0.0
 11
1707.340000000004
 21
1672.455334987593
 31
0.0
  0
LINE
  5
49E6
330
1D9
100
AcDbEntity
  8
0
100
AcDbLine
 10
1668.029999999998
 20
1579.455334987593
 30
0.0
 11
1707.340000000004
 21
1579.455334987593
 31
0.0
  0
LINE
  5
49E7
330
1D9
100
AcDbEntity
  8
0
100
AcDbLine
 10
1395.475000000004
 20
1625.955334987593
 30
0.0
 11
1395.475000000004
 21
1682.194334987592
 31
0.0
  0
LINE
  5
49E8
330
1D9
100
AcDbEntity
  8
0
100
AcDbLine
 10
1384.475000000005
 20
1625.955334987593
 30
0.0
 11
1384.475000000005
 21
1677.027334987591
 31
0.0
  0
LINE
  5
49E9
330
1D9
100
AcDbEntity
  8
0
100
AcDbLine
 10
1541.499999999996
 20
1687.056334987593
 30
0.0
 11
1541.499999999996
 21
1625.955334987593
 31
0.0
  0
LINE
  5
49EA
330
1D9
100
AcDbEntity
  8
0
100
AcDbLine
 10
1508.500000000003
 20
1625.955334987593
 30
0.0
 11
1508.500000000003
 21
1686.949334987593
 31
0.0
  0
LINE
  5
49EB
330
1D9
100
AcDbEntity
  8
0
100
AcDbLine
 10
1548.500000000004
 20
1625.955334987593
 30
0.0
 11
1548.500000000004
 21
1684.755334987593
 31
0.0
  0
LINE
  5
49EC
330
1D9
100
AcDbEntity
  8
0
100
AcDbLine
 10
1499.504529977794
 20
1683.363294642479
 30
0.0
 11
1499.504529977794
 21
1625.955334987593
 31
0.0
  0
LINE
  5
49EE
330
1D9
100
AcDbEntity
  8
0
100
AcDbLine
 10
1379.804999999997
 20
1705.747334987591
 30
0.0
 11
1379.804999999997
 21
1625.955334987593
 31
0.0
  0
LINE
  5
49F0
330
1D9
100
AcDbEntity
  8
0
100
AcDbLine
 10
1628.030000000007
 20
1625.955334987593
 30
0.0
 11
1628.030000000007
 21
1688.955334987593
 31
0.0
  0
LINE
  5
49F1
330
1D9
100
AcDbEntity
  8
0
100
AcDbLine
 10
1511.970000000004
 20
1564.554334987591
 30
0.0
 11
1538.519999999996
 21
1564.554334987591
 31
0.0
  0
LINE
  5
49F2
330
1D9
100
AcDbEntity
  8
0
100
AcDbLine
 10
1496.030026179946
 20
1568.955334987593
 30
0.0
 11
1400.943000000005
 21
1568.955334987593
 31
0.0
  0
ARC
  5
49F3
330
1D9
100
AcDbEntity
  8
0
100
AcDbCircle
 10
1372.096000000003
 20
1546.163334987592
 30
0.0
 40
7.708459999999997
100
AcDbArc
 50
270.0
 51
0.0002199999960869
  0
ARC
  5
49F4
330
1D9
100
AcDbEntity
  8
0
100
AcDbCircle
 10
1357.416000000005
 20
1520.777334987591
 30
0.0
 40
22.0833
100
AcDbArc
 50
338.7599999999973
 51
21.23929999999877
  0
ARC
  5
49F5
330
1D9
100
AcDbEntity
  8
0
100
AcDbCircle
 10
1380.375000000003
 20
1560.455334987593
 30
0.0
 40
15.0
100
AcDbArc
 50
59.42099999994918
 51
90.0
  0
LINE
  5
49F6
330
1D9
100
AcDbEntity
  8
0
100
AcDbLine
 10
1388.006000000004
 20
1573.375334987592
 30
0.0
 11
1390.767999999996
 21
1571.745334987593
 31
0.0
  0
ARC
  5
49F7
330
1D9
100
AcDbEntity
  8
0
100
AcDbCircle
 10
1400.943000000005
 20
1588.955334987593
 30
0.0
 40
20.0
100
AcDbArc
 50
239.4220000000248
 51
270.0006000000604
  0
LINE
  5
49F8
330
1D9
100
AcDbEntity
  8
0
100
AcDbLine
 10
1384.475000000005
 20
1625.955334987593
 30
0.0
 11
1384.475000000005
 21
1574.883334987593
 31
0.0
  0
LINE
  5
49F9
330
1D9
100
AcDbEntity
  8
0
100
AcDbLine
 10
1395.475000000004
 20
1625.955334987593
 30
0.0
 11
1395.475000000004
 21
1569.716334987591
 31
0.0
  0
LINE
  5
49FB
330
1D9
100
AcDbEntity
  8
0
100
AcDbLine
 10
1379.804999999997
 20
1546.163334987592
 30
0.0
 11
1379.804999999997
 21
1625.955334987593
 31
0.0
  0
LINE
  5
49FC
330
1D9
100
AcDbEntity
  8
0
100
AcDbLine
 10
1502.618153083024
 20
1567.431239040065
 30
0.0
 11
1505.379999999997
 21
1566.079334987593
 31
0.0
  0
LINE
  5
49FD
330
1D9
100
AcDbEntity
  8
0
100
AcDbLine
 10
1499.504529977794
 20
1568.547375332706
 30
0.0
 11
1499.504529977794
 21
1625.955334987593
 31
0.0
  0
ARC
  5
49FE
330
1D9
100
AcDbEntity
  8
0
100
AcDbCircle
 10
1511.970000000004
 20
1579.554334987592
 30
0.0
 40
15.0
100
AcDbArc
 50
243.9459999999713
 51
269.9990000000034
  0
LINE
  5
49FF
330
1D9
100
AcDbEntity
  8
0
100
AcDbLine
 10
1508.500000000003
 20
1625.955334987593
 30
0.0
 11
1508.500000000003
 21
1564.961334987593
 31
0.0
  0
ARC
  5
4A00
330
1D9
100
AcDbEntity
  8
0
100
AcDbCircle
 10
1496.030000000007
 20
1553.955334987594
 30
0.0
 40
15.0
100
AcDbArc
 50
63.94650000000996
 51
89.99989999998993
  0
LINE
  5
4A01
330
1D9
100
AcDbEntity
  8
0
100
AcDbLine
 10
1551.490000000002
 20
1567.455334987593
 30
0.0
 11
1628.030000000007
 21
1567.455334987593
 31
0.0
  0
LINE
  5
4A02
330
1D9
100
AcDbEntity
  8
0
100
AcDbLine
 10
1548.500000000004
 20
1625.955334987593
 30
0.0
 11
1548.500000000004
 21
1567.155334987593
 31
0.0
  0
ARC
  5
4A03
330
1D9
100
AcDbEntity
  8
0
100
AcDbCircle
 10
1538.519999999996
 20
1579.554334987592
 30
0.0
 40
15.0
100
AcDbArc
 50
270.0
 51
292.5039999999814
  0
LINE
  5
4A04
330
1D9
100
AcDbEntity
  8
0
100
AcDbLine
 10
1544.260000000003
 20
1565.697334987592
 30
0.0
 11
1545.740000000003
 21
1566.312334987593
 31
0.0
  0
LINE
  5
4A05
330
1D9
100
AcDbEntity
  8
0
100
AcDbLine
 10
1541.499999999996
 20
1564.854334987593
 30
0.0
 11
1541.499999999996
 21
1625.955334987593
 31
0.0
  0
ARC
  5
4A06
330
1D9
100
AcDbEntity
  8
0
100
AcDbCircle
 10
1551.490000000002
 20
1552.455334987593
 30
0.0
 40
15.0
100
AcDbArc
 50
89.99989999998993
 51
112.5029999999769
  0
ARC
  5
4A07
330
1D9
100
AcDbEntity
  8
0
100
AcDbCircle
 10
1648.030000000007
 20
1601.030334987592
 30
0.0
 40
13.0756
100
AcDbArc
 50
237.8909999999694
 51
302.1080000000161
  0
LINE
  5
4A08
330
1D9
100
AcDbEntity
  8
0
100
AcDbLine
 10
1637.629999999997
 20
1587.955334987593
 30
0.0
 11
1658.430000000003
 21
1587.955334987593
 31
0.0
  0
ARC
  5
4A09
330
1D9
100
AcDbEntity
  8
0
100
AcDbCircle
 10
1648.030000000007
 20
1589.538334987593
 30
0.0
 40
22.0833
100
AcDbArc
 50
248.760000000024
 51
291.2390000000152
  0
LINE
  5
4A0A
330
1D9
100
AcDbEntity
  8
0
100
AcDbLine
 10
1666.030000000007
 20
1600.955334987593
 30
0.0
 11
1630.029999999997
 21
1600.955334987593
 31
0.0
  0
LINE
  5
4A0B
330
1D9
100
AcDbEntity
  8
0
100
AcDbLine
 10
1689.030000000007
 20
1552.955334987593
 30
0.0
 11
1638.030000000006
 21
1552.955334987593
 31
0.0
  0
LINE
  5
4A0C
330
1D9
100
AcDbEntity
  8
0
100
AcDbLine
 10
1668.030000000007
 20
1625.955334987593
 30
0.0
 11
1628.030000000007
 21
1625.955334987593
 31
0.0
  0
ARC
  5
4A0D
330
1D9
100
AcDbEntity
  8
0
100
AcDbCircle
 10
1637.629999999997
 20
1591.930334987591
 30
0.0
 40
3.975619999999998
100
AcDbArc
 50
209.797000000014
 51
330.2019999999993
  0
LINE
  5
4A0E
330
1D9
100
AcDbEntity
  8
0
100
AcDbLine
 10
1640.030000000006
 20
1587.955334987593
 30
0.0
 11
1640.030000000006
 21
1568.955334987593
 31
0.0
  0
LINE
  5
4A0F
330
1D9
100
AcDbEntity
  8
0
100
AcDbLine
 10
1641.080000000004
 20
1589.955334987593
 30
0.0
 11
1641.080000000004
 21
1600.955334987593
 31
0.0
  0
LINE
  5
4A10
330
1D9
100
AcDbEntity
  8
0
100
AcDbLine
 10
1634.180000000004
 20
1589.955334987593
 30
0.0
 11
1634.180000000004
 21
1600.955334987593
 31
0.0
  0
ARC
  5
4A11
330
1D9
100
AcDbEntity
  8
0
100
AcDbCircle
 10
1630.029999999997
 20
1602.955334987592
 30
0.0
 40
2.0
100
AcDbArc
 50
180.0
 51
270.0
  0
LINE
  5
4A12
330
1D9
100
AcDbEntity
  8
0
100
AcDbLine
 10
1628.030000000007
 20
1625.955334987593
 30
0.0
 11
1628.030000000007
 21
1562.955334987593
 31
0.0
  0
ARC
  5
4A13
330
1D9
100
AcDbEntity
  8
0
100
AcDbCircle
 10
1638.030000000006
 20
1562.955334987593
 30
0.0
 40
10.0
100
AcDbArc
 50
180.0
 51
270.0
  0
LINE
  5
4A14
330
1D9
100
AcDbEntity
  8
0
100
AcDbLine
 10
1692.030000000007
 20
1555.955334987593
 30
0.0
 11
1692.030000000007
 21
1565.955334987592
 31
0.0
  0
ARC
  5
4A16
330
1D9
100
AcDbEntity
  8
0
100
AcDbCircle
 10
1689.030000000007
 20
1565.955334987592
 30
0.0
 40
3.0
100
AcDbArc
 50
0.0
 51
90.0
  0
LINE
  5
4A17
330
1D9
100
AcDbEntity
  8
0
100
AcDbLine
 10
1684.030000000007
 20
1549.455334987593
 30
0.0
 11
1685.030000000007
 21
1550.455334987593
 31
0.0
  0
LINE
  5
4A18
330
1D9
100
AcDbEntity
  8
0
100
AcDbLine
 10
1685.030000000007
 20
1550.455334987593
 30
0.0
 11
1685.030000000007
 21
1552.955334987593
 31
0.0
  0
ARC
  5
4A19
330
1D9
100
AcDbEntity
  8
0
100
AcDbCircle
 10
1689.030000000007
 20
1555.955334987593
 30
0.0
 40
3.0
100
AcDbArc
 50
270.0
 51
0.0
  0
ARC
  5
4A1A
330
1D9
100
AcDbEntity
  8
0
100
AcDbCircle
 10
1666.030000000007
 20
1602.955334987592
 30
0.0
 40
2.0
100
AcDbArc
 50
270.0
 51
0.0
  0
ARC
  5
4A1B
330
1D9
100
AcDbEntity
  8
0
100
AcDbCircle
 10
1658.430000000003
 20
1591.930334987591
 30
0.0
 40
3.975619999999998
100
AcDbArc
 50
209.797000000014
 51
330.2019999999993
  0
LINE
  5
4A1C
330
1D9
100
AcDbEntity
  8
0
100
AcDbLine
 10
1656.030000000006
 20
1587.955334987593
 30
0.0
 11
1656.030000000006
 21
1568.955334987593
 31
0.0
  0
ARC
  5
4A1D
330
1D9
100
AcDbEntity
  8
0
100
AcDbCircle
 10
1671.030000000007
 20
1571.955334987593
 30
0.0
 40
3.0
100
AcDbArc
 50
180.0
 51
270.0
  0
LINE
  5
4A1E
330
1D9
100
AcDbEntity
  8
0
100
AcDbLine
 10
1668.030000000007
 20
1571.955334987593
 30
0.0
 11
1668.030000000007
 21
1562.955334987593
 31
0.0
  0
LINE
  5
4A1F
330
1D9
100
AcDbEntity
  8
0
100
AcDbLine
 10
1668.030000000007
 20
1625.955334987593
 30
0.0
 11
1668.030000000007
 21
1571.955334987593
 31
0.0
  0
LINE
  5
4A20
330
1D9
100
AcDbEntity
  8
0
100
AcDbLine
 10
1661.880000000004
 20
1589.955334987593
 30
0.0
 11
1661.880000000004
 21
1600.955334987593
 31
0.0
  0
LINE
  5
4A21
330
1D9
100
AcDbEntity
  8
0
100
AcDbLine
 10
1654.980000000002
 20
1589.955334987593
 30
0.0
 11
1654.980000000002
 21
1600.955334987593
 31
0.0
  0
LINE
  5
4A22
330
1D9
100
AcDbEntity
  8
0
100
AcDbLine
 10
1669.030000000007
 20
1550.455334987593
 30
0.0
 11
1670.030000000006
 21
1549.455334987593
 31
0.0
  0
LINE
  5
4A23
330
1D9
100
AcDbEntity
  8
0
100
AcDbLine
 10
1669.030000000007
 20
1552.955334987593
 30
0.0
 11
1669.030000000007
 21
1550.455334987593
 31
0.0
  0
ARC
  5
4A24
330
1D9
100
AcDbEntity
  8
0
100
AcDbCircle
 10
1658.030000000007
 20
1562.955334987593
 30
0.0
 40
10.0
100
AcDbArc
 50
270.0
 51
0.0
  0
LINE
  5
4A26
330
1D9
100
AcDbEntity
  8
0
100
AcDbLine
 10
1670.030000000006
 20
1549.455334987593
 30
0.0
 11
1684.030000000007
 21
1549.455334987593
 31
0.0
  0
LINE
  5
4A28
330
1D9
100
AcDbEntity
  8
0
100
AcDbLine
 10
1689.030000000007
 20
1568.955334987593
 30
0.0
 11
1671.030000000007
 21
1568.955334987593
 31
0.0
  0
LINE
  5
4A29
330
1D9
100
AcDbEntity
  8
0
100
AcDbLine
 10
1511.945999999996
 20
1687.355334987593
 30
0.0
 11
1538.491000000004
 21
1687.355334987593
 31
0.0
  0
LINE
  5
4A2B
330
1D9
100
AcDbEntity
  8
0
100
AcDbLine
 10
1496.005000000004
 20
1682.955334987592
 30
0.0
 11
1400.943000000005
 21
1682.955334987592
 31
0.0
  0
ARC
  5
4A2C
330
1D9
100
AcDbEntity
  8
0
100
AcDbCircle
 10
1357.416000000005
 20
1731.125334987591
 30
0.0
 40
22.0833
100
AcDbArc
 50
338.7599999999973
 51
21.23929999999877
  0
ARC
  5
4A2D
330
1D9
100
AcDbEntity
  8
0
100
AcDbCircle
 10
1372.096000000003
 20
1705.747334987591
 30
0.0
 40
7.708459999999997
100
AcDbArc
 50
359.9997800000039
 51
90.0
  0
ARC
  5
4A2E
330
1D9
100
AcDbEntity
  8
0
100
AcDbCircle
 10
1400.943000000005
 20
1662.955334987593
 30
0.0
 40
20.0
100
AcDbArc
 50
89.9993999999396
 51
120.5779999999752
  0
ARC
  5
4A2F
330
1D9
100
AcDbEntity
  8
0
100
AcDbCircle
 10
1380.375000000003
 20
1691.455334987593
 30
0.0
 40
15.0
100
AcDbArc
 50
270.0
 51
300.5790000000508
  0
LINE
  5
4A31
330
1D9
100
AcDbEntity
  8
0
100
AcDbLine
 10
1388.006000000004
 20
1678.535334987593
 30
0.0
 11
1390.767999999996
 21
1680.165334987593
 31
0.0
  0
ARC
  5
4A32
330
1D9
100
AcDbEntity
  8
0
100
AcDbCircle
 10
1496.005000000004
 20
1697.955334987593
 30
0.0
 40
15.0
100
AcDbArc
 50
270.0
 51
296.0530000000056
  0
LINE
  5
4A33
330
1D9
100
AcDbEntity
  8
0
100
AcDbLine
 10
1502.592999999996
 20
1684.475334987592
 30
0.0
 11
1505.357999999997
 21
1685.825334987593
 31
0.0
  0
ARC
  5
4A34
330
1D9
100
AcDbEntity
  8
0
100
AcDbCircle
 10
1511.945999999996
 20
1672.355334987593
 30
0.0
 40
15.0
100
AcDbArc
 50
89.99950000005389
 51
116.0520000000248
  0
LINE
  5
4A35
330
1D9
100
AcDbEntity
  8
0
100
AcDbLine
 10
1551.459000000007
 20
1684.455334987593
 30
0.0
 11
1628.030000000007
 21
1684.455334987593
 31
0.0
  0
ARC
  5
4A36
330
1D9
100
AcDbEntity
  8
0
100
AcDbCircle
 10
1538.491000000004
 20
1672.355334987593
 30
0.0
 40
15.0
100
AcDbArc
 50
67.49710000002483
 51
90.0004999999461
  0
LINE
  5
4A37
330
1D9
100
AcDbEntity
  8
0
100
AcDbLine
 10
1544.231999999996
 20
1686.205334987592
 30
0.0
 11
1545.718000000007
 21
1685.595334987593
 31
0.0
  0
ARC
  5
4A38
330
1D9
100
AcDbEntity
  8
0
100
AcDbCircle
 10
1551.460000000004
 20
1699.455334987592
 30
0.0
 40
15.0
100
AcDbArc
 50
247.4950000000192
 51
269.9990000000034
  0
LINE
  5
4A39
330
1D9
100
AcDbEntity
  8
0
100
AcDbLine
 10
1666.030000000007
 20
1650.955334987592
 30
0.0
 11
1630.029999999997
 21
1650.955334987592
 31
0.0
  0
LINE
  5
4A3A
330
1D9
100
AcDbEntity
  8
0
100
AcDbLine
 10
1637.629999999997
 20
1663.955334987593
 30
0.0
 11
1658.430000000003
 21
1663.955334987593
 31
0.0
  0
ARC
  5
4A3B
330
1D9
100
AcDbEntity
  8
0
100
AcDbCircle
 10
1648.030000000007
 20
1650.880334987593
 30
0.0
 40
13.0756
100
AcDbArc
 50
57.89199999998373
 51
122.1090000000305
  0
LINE
  5
4A3C
330
1D9
100
AcDbEntity
  8
0
100
AcDbLine
 10
1669.024999999997
 20
1698.955334987592
 30
0.0
 11
1638.030000000006
 21
1698.955334987592
 31
0.0
  0
ARC
  5
4A3D
330
1D9
100
AcDbEntity
  8
0
100
AcDbCircle
 10
1630.029999999997
 20
1648.955334987593
 30
0.0
 40
2.0
100
AcDbArc
 50
90.0
 51
180.0
  0
ARC
  5
4A3E
330
1D9
100
AcDbEntity
  8
0
100
AcDbCircle
 10
1637.629999999997
 20
1659.980334987593
 30
0.0
 40
3.975619999999998
100
AcDbArc
 50
29.79800000000052
 51
150.2029999999859
  0
LINE
  5
4A3F
330
1D9
100
AcDbEntity
  8
0
100
AcDbLine
 10
1634.180000000004
 20
1661.955334987593
 30
0.0
 11
1634.180000000004
 21
1650.955334987592
 31
0.0
  0
LINE
  5
4A40
330
1D9
100
AcDbEntity
  8
0
100
AcDbLine
 10
1641.080000000004
 20
1661.955334987593
 30
0.0
 11
1641.080000000004
 21
1650.955334987592
 31
0.0
  0
ARC
  5
4A41
330
1D9
100
AcDbEntity
  8
0
100
AcDbCircle
 10
1638.030000000006
 20
1688.955334987593
 30
0.0
 40
10.0
100
AcDbArc
 50
90.0
 51
180.0
  0
LINE
  5
4A42
330
1D9
100
AcDbEntity
  8
0
100
AcDbLine
 10
1668.030000000007
 20
1679.955334987592
 30
0.0
 11
1668.030000000007
 21
1688.955334987593
 31
0.0
  0
ARC
  5
4A43
330
1D9
100
AcDbEntity
  8
0
100
AcDbCircle
 10
1658.030000000007
 20
1688.955334987593
 30
0.0
 40
10.0
100
AcDbArc
 50
0.0
 51
90.0
  0
ARC
  5
4A44
330
1D9
100
AcDbEntity
  8
0
100
AcDbCircle
 10
1666.030000000007
 20
1648.955334987593
 30
0.0
 40
2.0
100
AcDbArc
 50
0.0
 51
90.0
  0
ARC
  5
4A45
330
1D9
100
AcDbEntity
  8
0
100
AcDbCircle
 10
1658.430000000003
 20
1659.980334987593
 30
0.0
 40
3.975619999999998
100
AcDbArc
 50
29.79800000000052
 51
150.2029999999859
  0
LINE
  5
4A46
330
1D9
100
AcDbEntity
  8
0
100
AcDbLine
 10
1654.980000000002
 20
1661.955334987593
 30
0.0
 11
1654.980000000002
 21
1650.955334987592
 31
0.0
  0
LINE
  5
4A47
330
1D9
100
AcDbEntity
  8
0
100
AcDbLine
 10
1661.880000000004
 20
1661.955334987593
 30
0.0
 11
1661.880000000004
 21
1650.955334987592
 31
0.0
  0
ARC
  5
4A4C
330
1D9
100
AcDbEntity
  8
0
100
AcDbCircle
 10
1689.024999999997
 20
1685.955334987593
 30
0.0
 40
3.0
100
AcDbArc
 50
270.0
 51
0.0
  0
LINE
  5
4A4D
330
1D9
100
AcDbEntity
  8
0
100
AcDbLine
 10
1692.025000000003
 20
1695.955334987592
 30
0.0
 11
1692.025000000003
 21
1685.955334987593
 31
0.0
  0
ARC
  5
4A4E
330
1D9
100
AcDbEntity
  8
0
100
AcDbCircle
 10
1689.024999999997
 20
1695.955334987592
 30
0.0
 40
3.0
100
AcDbArc
 50
0.0
 51
90.0
  0
LINE
  5
4A4F
330
1D9
100
AcDbEntity
  8
0
100
AcDbLine
 10
1689.024999999997
 20
1682.955334987592
 30
0.0
 11
1668.030000000007
 21
1682.955334987592
 31
0.0
  0
LINE
  5
4A50
330
1D9
100
AcDbEntity
  8
0
100
AcDbLine
 10
1689.024999999997
 20
1698.955334987592
 30
0.0
 11
1669.024999999997
 21
1698.955334987592
 31
0.0
  0
LINE
  5
4A51
330
1D9
100
AcDbEntity
  8
0
100
AcDbLine
 10
1669.024999999997
 20
1701.455334987593
 30
0.0
 11
1670.025000000003
 21
1702.455334987593
 31
0.0
  0
LINE
  5
4A52
330
1D9
100
AcDbEntity
  8
0
100
AcDbLine
 10
1670.025000000003
 20
1702.455334987593
 30
0.0
 11
1684.025000000002
 21
1702.455334987593
 31
0.0
  0
LINE
  5
4A54
330
1D9
100
AcDbEntity
  8
0
100
AcDbLine
 10
1684.025000000002
 20
1702.455334987593
 30
0.0
 11
1685.025000000003
 21
1701.455334987593
 31
0.0
  0
LINE
  5
4A55
330
1D9
100
AcDbEntity
  8
0
100
AcDbLine
 10
1710.000000000004
 20
1674.068107536884
 30
0.0
 11
1710.000000000004
 21
1625.955334987593
 31
0.0
  0
LINE
  5
4A56
330
1D9
100
AcDbEntity
  8
0
100
AcDbLine
 10
1853.589999999996
 20
1669.408160006744
 30
0.0
 11
1853.589999999996
 21
1625.955334987593
 31
0.0
  0
LINE
  5
4A58
330
1D9
100
AcDbEntity
  8
0
100
AcDbLine
 10
1714.190000000003
 20
1705.747334987591
 30
0.0
 11
1714.190000000003
 21
1625.955334987593
 31
0.0
  0
LINE
  5
4A5A
330
1D9
100
AcDbEntity
  8
0
100
AcDbLine
 10
1748.000000000003
 20
1745.955334987592
 30
0.0
 11
1748.000000000003
 21
1625.955334987593
 31
0.0
  0
LINE
  5
4A5B
330
1D9
100
AcDbEntity
  8
0
100
AcDbLine
 10
1771.999999999997
 20
1625.955334987593
 30
0.0
 11
1771.999999999997
 21
1718.455334987593
 31
0.0
  0
LINE
  5
4A5C
330
1D9
100
AcDbEntity
  8
0
100
AcDbLine
 10
1775.499999999996
 20
1718.455334987593
 30
0.0
 11
1775.499999999996
 21
1625.955334987593
 31
0.0
  0
LINE
  5
4A5D
330
1D9
100
AcDbEntity
  8
0
100
AcDbLine
 10
1794.500000000003
 20
1718.455334987593
 30
0.0
 11
1794.500000000003
 21
1625.955334987593
 31
0.0
  0
LINE
  5
4A5E
330
1D9
100
AcDbEntity
  8
0
100
AcDbLine
 10
1818.470000000004
 20
1699.957334987592
 30
0.0
 11
1818.470000000004
 21
1625.955334987593
 31
0.0
  0
LINE
  5
4A5F
330
1D9
100
AcDbEntity
  8
0
100
AcDbLine
 10
1869.953409105955
 20
1666.955308515492
 30
0.0
 11
1869.999999999996
 21
1625.955334987593
 31
0.0
  0
LINE
  5
4A60
330
1D9
100
AcDbEntity
  8
0
100
AcDbLine
 10
1898.902822216285
 20
1711.488234318398
 30
0.0
 11
1898.999981275835
 21
1625.988289522408
 31
0.0
  0
LINE
  5
4A61
330
1D9
100
AcDbEntity
  8
0
100
AcDbLine
 10
1916.999999999996
 20
1625.955334987593
 30
0.0
 11
1916.999999999996
 21
1683.955334987593
 31
0.0
  0
LINE
  5
4A62
330
1D9
100
AcDbEntity
  8
0
100
AcDbLine
 10
1914.999999999996
 20
1625.955334987593
 30
0.0
 11
1914.999999999996
 21
1713.455334987592
 31
0.0
  0
LINE
  5
4A63
330
1D9
100
AcDbEntity
  8
0
100
AcDbLine
 10
1782.000000000004
 20
1625.955334987593
 30
0.0
 11
1782.000000000004
 21
1758.855334987593
 31
0.0
  0
ARC
  5
4A64
330
1D9
100
AcDbEntity
  8
0
100
AcDbCircle
 10
1861.810000000004
 20
1569.955334987593
 30
0.0
 40
15.0
100
AcDbArc
 50
90.00010000001006
 51
138.1889999999905
  0
LINE
  5
4A65
330
1D9
100
AcDbEntity
  8
0
100
AcDbLine
 10
1775.499999999996
 20
1529.302334987593
 30
0.0
 11
1767.000000000004
 21
1529.302334987593
 31
0.0
  0
LINE
  5
4A66
330
1D9
100
AcDbEntity
  8
0
100
AcDbLine
 10
1775.499999999996
 20
1513.302334987593
 30
0.0
 11
1767.000000000004
 21
1513.302334987593
 31
0.0
  0
LINE
  5
4A68
330
1D9
100
AcDbEntity
  8
0
100
AcDbLine
 10
1771.999999999997
 20
1547.455334987593
 30
0.0
 11
1771.999999999997
 21
1537.455334987592
 31
0.0
  0
ARC
  5
4A69
330
1D9
100
AcDbEntity
  8
0
100
AcDbCircle
 10
1721.900000000003
 20
1546.163334987592
 30
0.0
 40
7.708459999999997
100
AcDbArc
 50
179.9990000000035
 51
270.0
  0
LINE
  5
4A6B
330
1D9
100
AcDbEntity
  8
0
100
AcDbLine
 10
1748.000000000003
 20
1505.955334987593
 30
0.0
 11
1748.000000000003
 21
1625.955334987593
 31
0.0
  0
LINE
  5
4A6D
330
1D9
100
AcDbEntity
  8
0
100
AcDbLine
 10
1735.000000000004
 20
1529.302334987593
 30
0.0
 11
1715.999999999996
 21
1529.302334987593
 31
0.0
  0
LINE
  5
4A6E
330
1D9
100
AcDbEntity
  8
0
100
AcDbLine
 10
1735.000000000004
 20
1513.302334987593
 30
0.0
 11
1715.999999999996
 21
1513.302334987593
 31
0.0
  0
ARC
  5
4A6F
330
1D9
100
AcDbEntity
  8
0
100
AcDbCircle
 10
1736.580000000004
 20
1521.302334987593
 30
0.0
 40
22.0833
100
AcDbArc
 50
158.7599999999974
 51
201.2389999999861
  0
LINE
  5
4A70
330
1D9
100
AcDbEntity
  8
0
100
AcDbLine
 10
1771.999999999997
 20
1539.455334987593
 30
0.0
 11
1767.000000000004
 21
1539.455334987593
 31
0.0
  0
LINE
  5
4A71
330
1D9
100
AcDbEntity
  8
0
100
AcDbLine
 10
1771.999999999997
 20
1537.455334987592
 30
0.0
 11
1771.999999999997
 21
1533.455334987593
 31
0.0
  0
LINE
  5
4A72
330
1D9
100
AcDbEntity
  8
0
100
AcDbLine
 10
1771.999999999997
 20
1537.455334987592
 30
0.0
 11
1771.999999999997
 21
1533.455334987593
 31
0.0
  0
LINE
  5
4A73
330
1D9
100
AcDbEntity
  8
0
100
AcDbLine
 10
1771.999999999997
 20
1537.455334987592
 30
0.0
 11
1771.999999999997
 21
1533.455334987593
 31
0.0
  0
LINE
  5
4A74
330
1D9
100
AcDbEntity
  8
0
100
AcDbLine
 10
1771.999999999997
 20
1537.455334987592
 30
0.0
 11
1771.999999999997
 21
1533.455334987593
 31
0.0
  0
ARC
  5
4A75
330
1D9
100
AcDbEntity
  8
0
100
AcDbCircle
 10
1742.999999999996
 20
1535.455334987593
 30
0.0
 40
5.0
100
AcDbArc
 50
0.0
 51
90.0
  0
LINE
  5
4A76
330
1D9
100
AcDbEntity
  8
0
100
AcDbLine
 10
1742.999999999996
 20
1540.455334987593
 30
0.0
 11
1741.240000000004
 21
1540.455334987593
 31
0.0
  0
ARC
  5
4A77
330
1D9
100
AcDbEntity
  8
0
100
AcDbCircle
 10
1738.979999999996
 20
1531.702334987593
 30
0.0
 40
3.975619999999998
100
AcDbArc
 50
119.7969999999761
 51
240.2020000000284
  0
LINE
  5
4A78
330
1D9
100
AcDbEntity
  8
0
100
AcDbLine
 10
1736.999999999997
 20
1535.152334987591
 30
0.0
 11
1748.000000000003
 21
1535.152334987591
 31
0.0
  0
LINE
  5
4A79
330
1D9
100
AcDbEntity
  8
0
100
AcDbLine
 10
1736.999999999997
 20
1528.252334987594
 30
0.0
 11
1748.000000000003
 21
1528.252334987594
 31
0.0
  0
ARC
  5
4A7A
330
1D9
100
AcDbEntity
  8
0
100
AcDbCircle
 10
1751.000000000004
 20
1505.955334987593
 30
0.0
 40
3.0
100
AcDbArc
 50
180.0
 51
270.0
  0
ARC
  5
4A7B
330
1D9
100
AcDbEntity
  8
0
100
AcDbCircle
 10
1738.979999999996
 20
1510.902334987591
 30
0.0
 40
3.975619999999998
100
AcDbArc
 50
119.7969999999761
 51
240.2020000000284
  0
LINE
  5
4A7C
330
1D9
100
AcDbEntity
  8
0
100
AcDbLine
 10
1736.999999999997
 20
1514.352334987593
 30
0.0
 11
1748.000000000003
 21
1514.352334987593
 31
0.0
  0
LINE
  5
4A7D
330
1D9
100
AcDbEntity
  8
0
100
AcDbLine
 10
1736.999999999997
 20
1507.452334987593
 30
0.0
 11
1748.000000000003
 21
1507.452334987593
 31
0.0
  0
ARC
  5
4A7E
330
1D9
100
AcDbEntity
  8
0
100
AcDbCircle
 10
1748.080000000004
 20
1521.302334987593
 30
0.0
 40
13.0756
100
AcDbArc
 50
147.8910000000363
 51
212.1080000000038
  0
LINE
  5
4A7F
330
1D9
100
AcDbEntity
  8
0
100
AcDbLine
 10
1735.000000000004
 20
1510.902334987591
 30
0.0
 11
1735.000000000004
 21
1531.702334987593
 31
0.0
  0
LINE
  5
4A80
330
1D9
100
AcDbEntity
  8
0
100
AcDbLine
 10
1712.999999999996
 20
1575.455334987593
 30
0.0
 11
1713.620000000005
 21
1575.455334987593
 31
0.0
  0
ARC
  5
4A82
330
1D9
100
AcDbEntity
  8
0
100
AcDbCircle
 10
1707.340000000004
 20
1576.455334987593
 30
0.0
 40
3.0
100
AcDbArc
 50
19.47120000001397
 51
89.99879999998336
  0
LINE
  5
4A83
330
1D9
100
AcDbEntity
  8
0
100
AcDbLine
 10
1710.000000000004
 20
1577.842562438302
 30
0.0
 11
1710.000000000004
 21
1625.955334987593
 31
0.0
  0
ARC
  5
4A84
330
1D9
100
AcDbEntity
  8
0
100
AcDbCircle
 10
1712.999999999996
 20
1578.455334987593
 30
0.0
 40
3.0
100
AcDbArc
 50
199.4710000000013
 51
270.0009999999963
  0
LINE
  5
4A85
330
1D9
100
AcDbEntity
  8
0
100
AcDbLine
 10
1714.190000000003
 20
1546.163334987592
 30
0.0
 11
1714.190000000003
 21
1625.955334987593
 31
0.0
  0
LINE
  5
4A86
330
1D9
100
AcDbEntity
  8
0
100
AcDbLine
 10
1771.999999999997
 20
1625.955334987593
 30
0.0
 11
1771.999999999997
 21
1547.455334987593
 31
0.0
  0
LINE
  5
4A87
330
1D9
100
AcDbEntity
  8
0
100
AcDbLine
 10
1782.000000000004
 20
1625.955334987593
 30
0.0
 11
1782.000000000004
 21
1493.055334987591
 31
0.0
  0
LINE
  5
4A88
330
1D9
100
AcDbEntity
  8
0
100
AcDbLine
 10
1794.500000000003
 20
1527.965334987591
 30
0.0
 11
1818.470000000004
 21
1551.953334987592
 31
0.0
  0
LINE
  5
4A89
330
1D9
100
AcDbEntity
  8
0
100
AcDbLine
 10
1794.500000000003
 20
1533.455334987593
 30
0.0
 11
1818.470000000004
 21
1551.953334987592
 31
0.0
  0
LINE
  5
4A8A
330
1D9
100
AcDbEntity
  8
0
100
AcDbLine
 10
1794.500000000003
 20
1533.455334987593
 30
0.0
 11
1794.500000000003
 21
1625.955334987593
 31
0.0
  0
LINE
  5
4A8B
330
1D9
100
AcDbEntity
  8
0
100
AcDbLine
 10
1775.499999999996
 20
1533.455334987593
 30
0.0
 11
1775.499999999996
 21
1625.955334987593
 31
0.0
  0
ARC
  5
4A8C
330
1D9
100
AcDbEntity
  8
0
100
AcDbCircle
 10
1800.519999999997
 20
1531.702334987593
 30
0.0
 40
3.975619999999998
100
AcDbArc
 50
299.7969999999761
 51
60.20289999998767
  0
LINE
  5
4A8D
330
1D9
100
AcDbEntity
  8
0
100
AcDbLine
 10
1802.500000000003
 20
1535.152334987591
 30
0.0
 11
1796.698999351285
 21
1535.152334987591
 31
0.0
  0
ARC
  5
4A8E
330
1D9
100
AcDbEntity
  8
0
100
AcDbCircle
 10
1800.519999999997
 20
1510.902334987591
 30
0.0
 40
3.975619999999998
100
AcDbArc
 50
299.7969999999761
 51
60.20289999998767
  0
ARC
  5
4A8F
330
1D9
100
AcDbEntity
  8
0
100
AcDbCircle
 10
1791.420000000004
 20
1521.302334987593
 30
0.0
 40
13.0756
100
AcDbArc
 50
327.8910000000363
 51
32.10849999999879
  0
LINE
  5
4A90
330
1D9
100
AcDbEntity
  8
0
100
AcDbLine
 10
1804.499999999996
 20
1510.902334987591
 30
0.0
 11
1804.499999999996
 21
1531.702334987593
 31
0.0
  0
ARC
  5
4A91
330
1D9
100
AcDbEntity
  8
0
100
AcDbCircle
 10
1791.500000000003
 20
1505.955334987593
 30
0.0
 40
3.0
100
AcDbArc
 50
270.0
 51
0.0
  0
LINE
  5
4A92
330
1D9
100
AcDbEntity
  8
0
100
AcDbLine
 10
1794.500000000003
 20
1505.955334987593
 30
0.0
 11
1794.500000000003
 21
1533.455334987593
 31
0.0
  0
LINE
  5
4A93
330
1D9
100
AcDbEntity
  8
0
100
AcDbLine
 10
1802.500000000003
 20
1528.252334987594
 30
0.0
 11
1794.500000000003
 21
1528.252334987594
 31
0.0
  0
LINE
  5
4A94
330
1D9
100
AcDbEntity
  8
0
100
AcDbLine
 10
1802.500000000003
 20
1514.352334987593
 30
0.0
 11
1794.500000000003
 21
1514.352334987593
 31
0.0
  0
LINE
  5
4A95
330
1D9
100
AcDbEntity
  8
0
100
AcDbLine
 10
1802.500000000003
 20
1507.452334987593
 30
0.0
 11
1794.500000000003
 21
1507.452334987593
 31
0.0
  0
LINE
  5
4A96
330
1D9
100
AcDbEntity
  8
0
100
AcDbLine
 10
1853.589999999996
 20
1582.502509968439
 30
0.0
 11
1853.589999999996
 21
1625.955334987593
 31
0.0
  0
LINE
  5
4A97
330
1D9
100
AcDbEntity
  8
0
100
AcDbLine
 10
1818.470000000004
 20
1551.953334987592
 30
0.0
 11
1818.470000000004
 21
1625.955334987593
 31
0.0
  0
ARC
  5
4A98
330
1D9
100
AcDbEntity
  8
0
100
AcDbCircle
 10
1782.000000000004
 20
1625.954334987593
 30
0.0
 40
82.5
100
AcDbArc
 50
296.2339999999916
 51
326.1109999999981
  0
LINE
  5
4A99
330
1D9
100
AcDbEntity
  8
0
100
AcDbLine
 10
1914.999999999996
 20
1625.955334987593
 30
0.0
 11
1914.999999999996
 21
1538.455334987593
 31
0.0
  0
LINE
  5
4A9A
330
1D9
100
AcDbEntity
  8
0
100
AcDbLine
 10
1898.999999999996
 20
1540.455334987593
 30
0.0
 11
1898.999999999996
 21
1625.955334987593
 31
0.0
  0
ARC
  5
4A9B
330
1D9
100
AcDbEntity
  8
0
100
AcDbCircle
 10
1901.000000000004
 20
1540.455334987593
 30
0.0
 40
2.0
100
AcDbArc
 50
180.0
 51
270.0
  0
LINE
  5
4A9C
330
1D9
100
AcDbEntity
  8
0
100
AcDbLine
 10
1914.999999999996
 20
1538.455334987593
 30
0.0
 11
1901.000000000004
 21
1538.455334987593
 31
0.0
  0
ARC
  5
4A9D
330
1D9
100
AcDbEntity
  8
0
100
AcDbCircle
 10
1889.000000000003
 20
1571.531334987593
 30
0.0
 40
10.0
100
AcDbArc
 50
359.9990000000035
 51
80.21740000004397
  0
LINE
  5
4A9F
330
1D9
100
AcDbEntity
  8
0
100
AcDbLine
 10
1869.999999999996
 20
1584.955334987593
 30
0.0
 11
1861.810000000004
 21
1584.955334987593
 31
0.0
  0
LINE
  5
4AA0
330
1D9
100
AcDbEntity
  8
0
100
AcDbLine
 10
1869.999999999996
 20
1584.955334987593
 30
0.0
 11
1869.999999999996
 21
1625.955334987593
 31
0.0
  0
LINE
  5
4AA1
330
1D9
100
AcDbEntity
  8
0
100
AcDbLine
 10
1869.999999999996
 20
1584.955334987593
 30
0.0
 11
1890.700000000007
 21
1581.386334987594
 31
0.0
  0
LINE
  5
4AA2
330
1D9
100
AcDbEntity
  8
0
100
AcDbLine
 10
1916.999999999996
 20
1567.955334987593
 30
0.0
 11
1914.999999999996
 21
1567.955334987593
 31
0.0
  0
LINE
  5
4AA3
330
1D9
100
AcDbEntity
  8
0
100
AcDbLine
 10
1916.999999999996
 20
1625.955334987593
 30
0.0
 11
1916.999999999996
 21
1567.955334987593
 31
0.0
  0
ARC
  5
4AA4
330
1D9
100
AcDbEntity
  8
0
100
AcDbCircle
 10
1861.810000000004
 20
1681.955334987593
 30
0.0
 40
15.0
100
AcDbArc
 50
215.0550000000051
 51
270.0
  0
LINE
  5
4AA6
330
1D9
100
AcDbEntity
  8
0
100
AcDbLine
 10
1775.499999999996
 20
1723.655334987593
 30
0.0
 11
1767.000000000004
 21
1723.655334987593
 31
0.0
  0
LINE
  5
4AA7
330
1D9
100
AcDbEntity
  8
0
100
AcDbLine
 10
1775.499999999996
 20
1739.655334987591
 30
0.0
 11
1767.000000000004
 21
1739.655334987591
 31
0.0
  0
LINE
  5
4AA8
330
1D9
100
AcDbEntity
  8
0
100
AcDbLine
 10
1748.000000000003
 20
1745.955334987592
 30
0.0
 11
1748.000000000003
 21
1716.455334987593
 31
0.0
  0
ARC
  5
4AA9
330
1D9
100
AcDbEntity
  8
0
100
AcDbCircle
 10
1748.080000000004
 20
1731.655334987593
 30
0.0
 40
13.0756
100
AcDbArc
 50
147.8910000000363
 51
212.1080000000038
  0
LINE
  5
4AAA
330
1D9
100
AcDbEntity
  8
0
100
AcDbLine
 10
1735.000000000004
 20
1742.055334987591
 30
0.0
 11
1735.000000000004
 21
1721.255334987594
 31
0.0
  0
ARC
  5
4AAB
330
1D9
100
AcDbEntity
  8
0
100
AcDbCircle
 10
1736.580000000004
 20
1731.655334987593
 30
0.0
 40
22.0833
100
AcDbArc
 50
158.7599999999974
 51
201.2389999999861
  0
LINE
  5
4AAC
330
1D9
100
AcDbEntity
  8
0
100
AcDbLine
 10
1735.000000000004
 20
1723.655334987593
 30
0.0
 11
1715.999999999996
 21
1723.655334987593
 31
0.0
  0
ARC
  5
4AAE
330
1D9
100
AcDbEntity
  8
0
100
AcDbCircle
 10
1721.900000000003
 20
1705.747334987591
 30
0.0
 40
7.708459999999997
100
AcDbArc
 50
90.0
 51
180.0009999999964
  0
LINE
  5
4AAF
330
1D9
100
AcDbEntity
  8
0
100
AcDbLine
 10
1712.999999999996
 20
1676.455334987593
 30
0.0
 11
1714.190000000003
 21
1676.455334987593
 31
0.0
  0
ARC
  5
4AB0
330
1D9
100
AcDbEntity
  8
0
100
AcDbCircle
 10
1707.340000000004
 20
1675.455334987593
 30
0.0
 40
3.0
100
AcDbArc
 50
270.0009999999963
 51
340.52799999996
  0
ARC
  5
4AB1
330
1D9
100
AcDbEntity
  8
0
100
AcDbCircle
 10
1712.999999999996
 20
1673.455334987593
 30
0.0
 40
3.0
100
AcDbArc
 50
89.99869999997326
 51
160.52799999996
  0
LINE
  5
4AB2
330
1D9
100
AcDbEntity
  8
0
100
AcDbLine
 10
1771.999999999997
 20
1712.455334987593
 30
0.0
 11
1767.000000000004
 21
1712.455334987593
 31
0.0
  0
LINE
  5
4AB3
330
1D9
100
AcDbEntity
  8
0
100
AcDbLine
 10
1767.000000000004
 20
1712.455334987593
 30
0.0
 11
1767.000000000004
 21
1723.655334987593
 31
0.0
  0
ARC
  5
4AB4
330
1D9
100
AcDbEntity
  8
0
100
AcDbCircle
 10
1742.999999999996
 20
1716.455334987593
 30
0.0
 40
5.0
100
AcDbArc
 50
270.0
 51
0.0
  0
LINE
  5
4AB5
330
1D9
100
AcDbEntity
  8
0
100
AcDbLine
 10
1742.999999999996
 20
1711.455334987593
 30
0.0
 11
1741.240000000004
 21
1711.455334987593
 31
0.0
  0
ARC
  5
4AB6
330
1D9
100
AcDbEntity
  8
0
100
AcDbCircle
 10
1738.979999999996
 20
1721.255334987594
 30
0.0
 40
3.975619999999998
100
AcDbArc
 50
119.7969999999761
 51
240.2020000000284
  0
LINE
  5
4AB7
330
1D9
100
AcDbEntity
  8
0
100
AcDbLine
 10
1736.999999999997
 20
1717.805334987594
 30
0.0
 11
1748.000000000003
 21
1717.805334987594
 31
0.0
  0
LINE
  5
4AB8
330
1D9
100
AcDbEntity
  8
0
100
AcDbLine
 10
1736.999999999997
 20
1724.705334987593
 30
0.0
 11
1748.000000000003
 21
1724.705334987593
 31
0.0
  0
LINE
  5
4AB9
330
1D9
100
AcDbEntity
  8
0
100
AcDbLine
 10
1767.000000000004
 20
1697.905334987591
 30
0.0
 11
1767.000000000004
 21
1704.455334987593
 31
0.0
  0
LINE
  5
4ABA
330
1D9
100
AcDbEntity
  8
0
100
AcDbLine
 10
1735.000000000004
 20
1739.655334987591
 30
0.0
 11
1715.999999999996
 21
1739.655334987591
 31
0.0
  0
ARC
  5
4ABB
330
1D9
100
AcDbEntity
  8
0
100
AcDbCircle
 10
1738.979999999996
 20
1742.055334987591
 30
0.0
 40
3.975619999999998
100
AcDbArc
 50
119.7969999999761
 51
240.2020000000284
  0
LINE
  5
4ABC
330
1D9
100
AcDbEntity
  8
0
100
AcDbLine
 10
1736.999999999997
 20
1738.605334987592
 30
0.0
 11
1748.000000000003
 21
1738.605334987592
 31
0.0
  0
LINE
  5
4ABD
330
1D9
100
AcDbEntity
  8
0
100
AcDbLine
 10
1736.999999999997
 20
1745.505334987593
 30
0.0
 11
1748.000000000003
 21
1745.505334987593
 31
0.0
  0
ARC
  5
4ABE
330
1D9
100
AcDbEntity
  8
0
100
AcDbCircle
 10
1751.000000000004
 20
1745.955334987592
 30
0.0
 40
3.0
100
AcDbArc
 50
90.0
 51
180.0
  0
ARC
  5
4AC0
330
1D9
100
AcDbEntity
  8
0
100
AcDbCircle
 10
1791.420000000004
 20
1731.655334987593
 30
0.0
 40
13.0756
100
AcDbArc
 50
327.8910000000363
 51
32.10849999999879
  0
LINE
  5
4AC1
330
1D9
100
AcDbEntity
  8
0
100
AcDbLine
 10
1804.499999999996
 20
1742.055334987591
 30
0.0
 11
1804.499999999996
 21
1721.255334987594
 31
0.0
  0
LINE
  5
4AC2
330
1D9
100
AcDbEntity
  8
0
100
AcDbLine
 10
1794.500000000003
 20
1745.855334987592
 30
0.0
 11
1794.500000000003
 21
1718.125334987592
 31
0.0
  0
LINE
  5
4AC3
330
1D9
100
AcDbEntity
  8
0
100
AcDbLine
 10
1794.500000000003
 20
1723.925334987593
 30
0.0
 11
1818.470000000004
 21
1699.955334987593
 31
0.0
  0
LINE
  5
4AC4
330
1D9
100
AcDbEntity
  8
0
100
AcDbLine
 10
1818.470000000004
 20
1699.955334987593
 30
0.0
 11
1794.500000000003
 21
1718.125334987592
 31
0.0
  0
ARC
  5
4AC5
330
1D9
100
AcDbEntity
  8
0
100
AcDbCircle
 10
1800.519999999997
 20
1721.255334987594
 30
0.0
 40
3.975619999999998
100
AcDbArc
 50
299.7969999999761
 51
60.20289999998767
  0
LINE
  5
4AC6
330
1D9
100
AcDbEntity
  8
0
100
AcDbLine
 10
1802.500000000003
 20
1717.805334987594
 30
0.0
 11
1794.922146395156
 21
1717.805334987594
 31
0.0
  0
LINE
  5
4AC7
330
1D9
100
AcDbEntity
  8
0
100
AcDbLine
 10
1802.500000000003
 20
1724.705334987593
 30
0.0
 11
1794.500000000003
 21
1724.705334987593
 31
0.0
  0
ARC
  5
4AC8
330
1D9
100
AcDbEntity
  8
0
100
AcDbCircle
 10
1782.000000000004
 20
1625.955334987593
 30
0.0
 40
82.5
100
AcDbArc
 50
35.05459999996684
 51
63.76550000000927
  0
ARC
  5
4AC9
330
1D9
100
AcDbEntity
  8
0
100
AcDbCircle
 10
1800.519999999997
 20
1742.055334987591
 30
0.0
 40
3.975619999999998
100
AcDbArc
 50
299.7969999999761
 51
60.20289999998767
  0
LINE
  5
4ACA
330
1D9
100
AcDbEntity
  8
0
100
AcDbLine
 10
1775.499999999996
 20
1748.855334987592
 30
0.0
 11
1791.500000000003
 21
1748.855334987592
 31
0.0
  0
ARC
  5
4ACB
330
1D9
100
AcDbEntity
  8
0
100
AcDbCircle
 10
1791.500000000003
 20
1745.855334987592
 30
0.0
 40
3.0
100
AcDbArc
 50
0.0
 51
90.0
  0
LINE
  5
4ACC
330
1D9
100
AcDbEntity
  8
0
100
AcDbLine
 10
1802.500000000003
 20
1738.605334987592
 30
0.0
 11
1794.500000000003
 21
1738.605334987592
 31
0.0
  0
LINE
  5
4ACD
330
1D9
100
AcDbEntity
  8
0
100
AcDbLine
 10
1802.500000000003
 20
1745.505334987593
 30
0.0
 11
1794.500000000003
 21
1745.505334987593
 31
0.0
  0
ARC
  5
4AD0
330
1D9
100
AcDbEntity
  8
0
100
AcDbCircle
 10
1889.000000000003
 20
1680.375334987592
 30
0.0
 40
10.0
100
AcDbArc
 50
279.7820000000287
 51
0.0001000000100643
  0
LINE
  5
4AD1
330
1D9
100
AcDbEntity
  8
0
100
AcDbLine
 10
1869.999999999996
 20
1666.955334987592
 30
0.0
 11
1861.810000000004
 21
1666.955334987592
 31
0.0
  0
LINE
  5
4AD2
330
1D9
100
AcDbEntity
  8
0
100
AcDbLine
 10
1869.999999999996
 20
1666.955334987592
 30
0.0
 11
1890.700000000007
 21
1670.515334987593
 31
0.0
  0
ARC
  5
4AD3
330
1D9
100
AcDbEntity
  8
0
100
AcDbCircle
 10
1901.000000000004
 20
1711.455334987593
 30
0.0
 40
2.0
100
AcDbArc
 50
90.0
 51
180.0
  0
LINE
  5
4AD4
330
1D9
100
AcDbEntity
  8
0
100
AcDbLine
 10
1914.999999999996
 20
1713.455334987592
 30
0.0
 11
1901.000000000004
 21
1713.455334987592
 31
0.0
  0
LINE
  5
4AD5
330
1D9
100
AcDbEntity
  8
0
100
AcDbLine
 10
1916.999999999996
 20
1683.955334987593
 30
0.0
 11
1914.999999999996
 21
1683.955334987593
 31
0.0
  0
LINE
  5
4AD6
330
1D9
100
AcDbEntity
  8
0
100
AcDbLine
 10
1898.999999999996
 20
1711.455334987593
 30
0.0
 11
1898.999999999996
 21
1680.375334987592
 31
0.0
  0
LINE
  5
4AD9
330
1D9
100
AcDbEntity
  8
0
100
AcDbLine
 10
895.699999999997
 20
1625.955334987593
 30
0.0
 11
244.0000000000035
 21
1625.955334987593
 31
0.0
  0
LINE
  5
4ADA
330
1D9
100
AcDbEntity
  8
0
100
AcDbLine
 10
416.0000000000036
 20
1663.705334987593
 30
0.0
 11
526.0000000000045
 21
1663.705334987593
 31
0.0
  0
LINE
  5
4ADB
330
1D9
100
AcDbEntity
  8
0
100
AcDbLine
 10
416.0000000000036
 20
1588.205334987593
 30
0.0
 11
526.0000000000045
 21
1588.205334987593
 31
0.0
  0
LINE
  5
4ADE
330
1D9
100
AcDbEntity
  8
0
100
AcDbLine
 10
284.0785573247566
 20
1661.190605489202
 30
0.0
 11
304.0000000000036
 21
1657.455334987593
 31
0.0
  0
LINE
  5
4ADF
330
1D9
100
AcDbEntity
  8
0
100
AcDbLine
 10
284.0785573247566
 20
1590.720064485983
 30
0.0
 11
304.0000000000036
 21
1594.455334987593
 31
0.0
  0
LINE
  5
4AE0
330
1D9
100
AcDbEntity
  8
0
100
AcDbLine
 10
264.0000000000035
 20
1577.955334987593
 30
0.0
 11
264.0000000000035
 21
1673.955334987593
 31
0.0
  0
LINE
  5
4AE1
330
1D9
100
AcDbEntity
  8
0
100
AcDbLine
 10
265.9999999999963
 20
1625.955334987593
 30
0.0
 11
265.9999999999963
 21
1548.455334987593
 31
0.0
  0
LINE
  5
4AE2
330
1D9
100
AcDbEntity
  8
0
100
AcDbLine
 10
280.0000000000035
 20
1550.455334987594
 30
0.0
 11
280.0000000000035
 21
1625.955334987593
 31
0.0
  0
ARC
  5
4AE3
330
1D9
100
AcDbEntity
  8
0
100
AcDbCircle
 10
284.9999999999963
 20
1585.805703551312
 30
0.0
 40
5.0
100
AcDbArc
 50
100.6196552761807
 51
180.0
  0
LINE
  5
4AE4
330
1D9
100
AcDbEntity
  8
0
100
AcDbLine
 10
264.0000000000035
 20
1577.955334987594
 30
0.0
 11
265.9999999999963
 21
1577.955334987594
 31
0.0
  0
LINE
  5
4AE6
330
1D9
100
AcDbEntity
  8
0
100
AcDbLine
 10
265.9999999999963
 20
1548.455334987593
 30
0.0
 11
277.9999999999962
 21
1548.455334987593
 31
0.0
  0
ARC
  5
4AE7
330
1D9
100
AcDbEntity
  8
0
100
AcDbCircle
 10
277.9999999999962
 20
1550.455334987594
 30
0.0
 40
2.0
100
AcDbArc
 50
270.0
 51
0.0
  0
LINE
  5
4AE8
330
1D9
100
AcDbEntity
  8
0
100
AcDbLine
 10
265.9999999999963
 20
1625.955334987593
 30
0.0
 11
265.9999999999963
 21
1703.455334987593
 31
0.0
  0
ARC
  5
4AE9
330
1D9
100
AcDbEntity
  8
0
100
AcDbCircle
 10
277.9999999999962
 20
1701.455334987594
 30
0.0
 40
2.0
100
AcDbArc
 50
0.0
 51
90.0
  0
ARC
  5
4AEB
330
1D9
100
AcDbEntity
  8
0
100
AcDbCircle
 10
284.9999999999963
 20
1666.104966423874
 30
0.0
 40
5.0
100
AcDbArc
 50
180.0
 51
259.3803447238193
  0
LINE
  5
4AEC
330
1D9
100
AcDbEntity
  8
0
100
AcDbLine
 10
280.0000000000035
 20
1701.455334987594
 30
0.0
 11
280.0000000000035
 21
1625.955334987593
 31
0.0
  0
LINE
  5
4AED
330
1D9
100
AcDbEntity
  8
0
100
AcDbLine
 10
264.0000000000035
 20
1673.955334987593
 30
0.0
 11
265.9999999999963
 21
1673.955334987593
 31
0.0
  0
LINE
  5
4AEF
330
1D9
100
AcDbEntity
  8
0
100
AcDbLine
 10
265.9999999999963
 20
1703.455334987593
 30
0.0
 11
277.9999999999962
 21
1703.455334987593
 31
0.0
  0
LINE
  5
4AF2
330
1D9
100
AcDbEntity
  8
0
100
AcDbLine
 10
364.0000000000036
 20
1625.955334987593
 30
0.0
 11
364.0000000000036
 21
1550.955334987593
 31
0.0
  0
LINE
  5
4AF3
330
1D9
100
AcDbEntity
  8
0
100
AcDbLine
 10
413.9999999999963
 20
1625.955334987593
 30
0.0
 11
413.9999999999963
 21
1590.205334987594
 31
0.0
  0
LINE
  5
4AF4
330
1D9
100
AcDbEntity
  8
0
100
AcDbLine
 10
314.7049999999961
 20
1625.955334987593
 30
0.0
 11
314.7049999999961
 21
1593.98245174728
 31
0.0
  0
LINE
  5
4AF5
330
1D9
100
AcDbEntity
  8
0
100
AcDbLine
 10
304.0000000000036
 20
1594.455334987593
 30
0.0
 11
304.0000000000036
 21
1625.955334987593
 31
0.0
  0
LINE
  5
4AF6
330
1D9
100
AcDbEntity
  8
0
100
AcDbLine
 10
349.9999999999963
 20
1625.955334987593
 30
0.0
 11
349.9999999999963
 21
1562.955334987593
 31
0.0
  0
LINE
  5
4AF7
330
1D9
100
AcDbEntity
  8
0
100
AcDbLine
 10
392.9999999999963
 20
1625.955334987593
 30
0.0
 11
392.9999999999963
 21
1560.455334987593
 31
0.0
  0
LINE
  5
4AF8
330
1D9
100
AcDbEntity
  8
0
100
AcDbLine
 10
370.9999999999963
 20
1559.415334987593
 30
0.0
 11
370.9999999999963
 21
1625.955334987593
 31
0.0
  0
LINE
  5
4AF9
330
1D9
100
AcDbEntity
  8
0
100
AcDbLine
 10
403.1149999999961
 20
1625.955334987593
 30
0.0
 11
403.1149999999961
 21
1592.236317862298
 31
0.0
  0
LINE
  5
4AFA
330
1D9
100
AcDbEntity
  8
0
100
AcDbLine
 10
372.7079999999978
 20
1558.455334987593
 30
0.0
 11
391.0000000000036
 21
1558.455334987593
 31
0.0
  0
ARC
  5
4AFB
330
1D9
100
AcDbEntity
  8
0
100
AcDbCircle
 10
364.0000000000036
 20
1625.955334987593
 30
0.0
 40
58.5
100
AcDbArc
 50
214.1232945407875
 51
254.6649646727586
  0
ARC
  5
4AFC
330
1D9
100
AcDbEntity
  8
0
100
AcDbCircle
 10
313.0883117545745
 20
1591.455334987593
 30
0.0
 40
3.0
100
AcDbArc
 50
34.12329454078754
 51
90.0
  0
LINE
  5
4AFD
330
1D9
100
AcDbEntity
  8
0
100
AcDbLine
 10
304.0000000000036
 20
1594.455334987593
 30
0.0
 11
313.0883117545745
 21
1594.455334987593
 31
0.0
  0
LINE
  5
4AFE
330
1D9
100
AcDbEntity
  8
0
100
AcDbLine
 10
352.0000000000036
 20
1560.955334987593
 30
0.0
 11
364.0000000000036
 21
1560.955334987593
 31
0.0
  0
ARC
  5
4AFF
330
1D9
100
AcDbEntity
  8
0
100
AcDbCircle
 10
347.9999999999963
 20
1567.609383971261
 30
0.0
 40
2.0
100
AcDbArc
 50
0.0
 51
74.66496467275877
  0
ARC
  5
4B00
330
1D9
100
AcDbEntity
  8
0
100
AcDbCircle
 10
352.0000000000036
 20
1562.955334987593
 30
0.0
 40
2.0
100
AcDbArc
 50
180.0
 51
270.0
  0
ARC
  5
4B01
330
1D9
100
AcDbEntity
  8
0
100
AcDbCircle
 10
372.7079999999978
 20
1560.455334987593
 30
0.0
 40
2.0
100
AcDbArc
 50
202.0240000000469
 51
269.9980000000067
  0
ARC
  5
4B02
330
1D9
100
AcDbEntity
  8
0
100
AcDbCircle
 10
369.0000000000036
 20
1558.955334987594
 30
0.0
 40
2.0
100
AcDbArc
 50
22.02430000000623
 51
90.00039999993601
  0
LINE
  5
4B03
330
1D9
100
AcDbEntity
  8
0
100
AcDbLine
 10
364.0000000000036
 20
1560.955334987593
 30
0.0
 11
369.0000000000036
 21
1560.955334987593
 31
0.0
  0
ARC
  5
4B04
330
1D9
100
AcDbEntity
  8
0
100
AcDbCircle
 10
411.9999999999963
 20
1590.455334987593
 30
0.0
 40
2.0
100
AcDbArc
 50
0.0
 51
90.0
  0
ARC
  5
4B05
330
1D9
100
AcDbEntity
  8
0
100
AcDbCircle
 10
416.0000000000036
 20
1590.205334987594
 30
0.0
 40
2.0
100
AcDbArc
 50
180.0
 51
270.0
  0
ARC
  5
4B06
330
1D9
100
AcDbEntity
  8
0
100
AcDbCircle
 10
364.0000000000036
 20
1625.955334987593
 30
0.0
 40
51.5
100
AcDbArc
 50
304.2710000000078
 51
318.4279999999496
  0
ARC
  5
4B07
330
1D9
100
AcDbEntity
  8
0
100
AcDbCircle
 10
391.0000000000036
 20
1560.455334987593
 30
0.0
 40
2.0
100
AcDbArc
 50
270.0
 51
0.0
  0
ARC
  5
4B08
330
1D9
100
AcDbEntity
  8
0
100
AcDbCircle
 10
404.0250000000033
 20
1590.455334987593
 30
0.0
 40
2.0
100
AcDbArc
 50
89.9983000000371
 51
138.4259999999937
  0
LINE
  5
4B09
330
1D9
100
AcDbEntity
  8
0
100
AcDbLine
 10
404.0250000000033
 20
1592.455334987593
 30
0.0
 11
411.9999999999963
 21
1592.455334987593
 31
0.0
  0
LINE
  5
4B0A
330
1D9
100
AcDbEntity
  8
0
100
AcDbLine
 10
372.7079999999978
 20
1693.455334987594
 30
0.0
 11
391.0000000000036
 21
1693.455334987594
 31
0.0
  0
ARC
  5
4B0B
330
1D9
100
AcDbEntity
  8
0
100
AcDbCircle
 10
364.0000000000036
 20
1625.955334987593
 30
0.0
 40
58.5
100
AcDbArc
 50
105.3350353272412
 51
145.8767054592123
  0
LINE
  5
4B0C
330
1D9
100
AcDbEntity
  8
0
100
AcDbLine
 10
304.0000000000036
 20
1657.455334987593
 30
0.0
 11
304.0000000000036
 21
1625.955334987593
 31
0.0
  0
LINE
  5
4B0D
330
1D9
100
AcDbEntity
  8
0
100
AcDbLine
 10
314.7049999999961
 20
1625.955334987593
 30
0.0
 11
314.7049999999961
 21
1657.928218227907
 31
0.0
  0
LINE
  5
4B0E
330
1D9
100
AcDbEntity
  8
0
100
AcDbLine
 10
304.0000000000036
 20
1657.455334987593
 30
0.0
 11
313.0883117545745
 21
1657.455334987593
 31
0.0
  0
ARC
  5
4B0F
330
1D9
100
AcDbEntity
  8
0
100
AcDbCircle
 10
313.0883117545745
 20
1660.455334987593
 30
0.0
 40
3.0
100
AcDbArc
 50
270.0
 51
325.8767054592123
  0
LINE
  5
4B10
330
1D9
100
AcDbEntity
  8
0
100
AcDbLine
 10
349.9999999999963
 20
1625.955334987593
 30
0.0
 11
349.9999999999963
 21
1688.955334987594
 31
0.0
  0
LINE
  5
4B11
330
1D9
100
AcDbEntity
  8
0
100
AcDbLine
 10
370.9999999999963
 20
1692.495334987593
 30
0.0
 11
370.9999999999963
 21
1625.955334987593
 31
0.0
  0
ARC
  5
4B12
330
1D9
100
AcDbEntity
  8
0
100
AcDbCircle
 10
352.0000000000036
 20
1688.955334987594
 30
0.0
 40
2.0
100
AcDbArc
 50
90.0
 51
180.0
  0
LINE
  5
4B13
330
1D9
100
AcDbEntity
  8
0
100
AcDbLine
 10
352.0000000000036
 20
1690.955334987593
 30
0.0
 11
364.0000000000036
 21
1690.955334987593
 31
0.0
  0
ARC
  5
4B14
330
1D9
100
AcDbEntity
  8
0
100
AcDbCircle
 10
347.9999999999963
 20
1684.301286003923
 30
0.0
 40
2.0
100
AcDbArc
 50
285.3350353272412
 51
0.0
  0
LINE
  5
4B15
330
1D9
100
AcDbEntity
  8
0
100
AcDbLine
 10
349.9999999999963
 20
1684.301286003923
 30
0.0
 11
349.9999999999963
 21
1688.955334987594
 31
0.0
  0
LINE
  5
4B16
330
1D9
100
AcDbEntity
  8
0
100
AcDbLine
 10
364.0000000000036
 20
1625.955334987593
 30
0.0
 11
364.0000000000036
 21
1700.955334987594
 31
0.0
  0
ARC
  5
4B17
330
1D9
100
AcDbEntity
  8
0
100
AcDbCircle
 10
372.7079999999978
 20
1691.455334987593
 30
0.0
 40
2.0
100
AcDbArc
 50
90.00129999992251
 51
157.9749999999811
  0
ARC
  5
4B18
330
1D9
100
AcDbEntity
  8
0
100
AcDbCircle
 10
369.0000000000036
 20
1692.955334987593
 30
0.0
 40
2.0
100
AcDbArc
 50
269.9990000000034
 51
337.974999999981
  0
LINE
  5
4B19
330
1D9
100
AcDbEntity
  8
0
100
AcDbLine
 10
364.0000000000036
 20
1690.955334987593
 30
0.0
 11
369.0000000000036
 21
1690.955334987593
 31
0.0
  0
LINE
  5
4B1A
330
1D9
100
AcDbEntity
  8
0
100
AcDbLine
 10
403.1149999999961
 20
1625.955334987593
 30
0.0
 11
403.1149999999961
 21
1659.674352112886
 31
0.0
  0
LINE
  5
4B1B
330
1D9
100
AcDbEntity
  8
0
100
AcDbLine
 10
392.9999999999963
 20
1625.955334987593
 30
0.0
 11
392.9999999999963
 21
1691.455334987593
 31
0.0
  0
LINE
  5
4B1C
330
1D9
100
AcDbEntity
  8
0
100
AcDbLine
 10
392.9999999999963
 20
1686.555334987594
 30
0.0
 11
392.9999999999963
 21
1691.455334987593
 31
0.0
  0
ARC
  5
4B1D
330
1D9
100
AcDbEntity
  8
0
100
AcDbCircle
 10
391.0000000000036
 20
1691.455334987593
 30
0.0
 40
2.0
100
AcDbArc
 50
0.0
 51
90.0
  0
ARC
  5
4B1E
330
1D9
100
AcDbEntity
  8
0
100
AcDbCircle
 10
404.0250000000033
 20
1661.455334987594
 30
0.0
 40
2.0
100
AcDbArc
 50
221.5679999999569
 51
269.9980000000067
  0
LINE
  5
4B1F
330
1D9
100
AcDbEntity
  8
0
100
AcDbLine
 10
404.0250000000033
 20
1659.455334987594
 30
0.0
 11
411.9999999999963
 21
1659.455334987594
 31
0.0
  0
LINE
  5
4B20
330
1D9
100
AcDbEntity
  8
0
100
AcDbLine
 10
413.9999999999963
 20
1625.955334987593
 30
0.0
 11
413.9999999999963
 21
1661.705334987593
 31
0.0
  0
ARC
  5
4B21
330
1D9
100
AcDbEntity
  8
0
100
AcDbCircle
 10
411.9999999999963
 20
1661.455334987594
 30
0.0
 40
2.0
100
AcDbArc
 50
270.0
 51
0.0
  0
ARC
  5
4B22
330
1D9
100
AcDbEntity
  8
0
100
AcDbCircle
 10
416.0000000000036
 20
1661.705334987593
 30
0.0
 40
2.0
100
AcDbArc
 50
90.0
 51
180.0
  0
LINE
  5
4B23
330
1D9
100
AcDbEntity
  8
0
100
AcDbLine
 10
394.0000000000036
 20
1667.81522286234
 30
0.0
 11
394.0000000000036
 21
1686.555334987594
 31
0.0
  0
LINE
  5
4B24
330
1D9
100
AcDbEntity
  8
0
100
AcDbLine
 10
392.9999999999963
 20
1686.555334987594
 30
0.0
 11
394.0000000000036
 21
1686.555334987594
 31
0.0
  0
ARC
  5
4B25
330
1D9
100
AcDbEntity
  8
0
100
AcDbCircle
 10
363.9999928750758
 20
1625.955301773146
 30
0.0
 40
51.50003321444883
100
AcDbArc
 50
41.57143297485631
 51
54.37173369532515
  0
LINE
  5
4B26
330
1D9
100
AcDbEntity
  8
0
100
AcDbLine
 10
785.9999999999961
 20
1690.955334987593
 30
0.0
 11
774.0000000000036
 21
1690.955334987593
 31
0.0
  0
LINE
  5
4B27
330
1D9
100
AcDbEntity
  8
0
100
AcDbLine
 10
785.9999999999961
 20
1560.955334987593
 30
0.0
 11
774.0000000000036
 21
1560.955334987593
 31
0.0
  0
LINE
  5
4B29
330
1D9
100
AcDbEntity
  8
0
100
AcDbLine
 10
686.0000000000045
 20
1667.205334987593
 30
0.0
 11
583.0000000000045
 21
1667.205334987593
 31
0.0
  0
LINE
  5
4B2A
330
1D9
100
AcDbEntity
  8
0
100
AcDbLine
 10
686.0000000000045
 20
1584.705334987592
 30
0.0
 11
583.0000000000045
 21
1584.705334987592
 31
0.0
  0
LINE
  5
4B2B
330
1D9
100
AcDbEntity
  8
0
100
AcDbLine
 10
526.0000000000045
 20
1625.955334987593
 30
0.0
 11
526.0000000000045
 21
1578.955334987593
 31
0.0
  0
LINE
  5
4B2C
330
1D9
100
AcDbEntity
  8
0
100
AcDbLine
 10
580.9999999999964
 20
1625.955334987593
 30
0.0
 11
580.9999999999964
 21
1578.955334987593
 31
0.0
  0
LINE
  5
4B2D
330
1D9
100
AcDbEntity
  8
0
100
AcDbLine
 10
532.9999999999963
 20
1608.950137032611
 30
0.0
 11
532.9999999999963
 21
1595.519517897567
 31
0.0
  0
LINE
  5
4B2E
330
1D9
100
AcDbEntity
  8
0
100
AcDbLine
 10
542.9999999999963
 20
1608.950135790195
 30
0.0
 11
542.9999999999963
 21
1595.519428304448
 31
0.0
  0
LINE
  5
4B2F
330
1D9
100
AcDbEntity
  8
0
100
AcDbLine
 10
527.9999999999963
 20
1576.955334987593
 30
0.0
 11
578.9999999999962
 21
1576.955334987593
 31
0.0
  0
ARC
  5
4B30
330
1D9
100
AcDbEntity
  8
0
100
AcDbCircle
 10
538.0001927131361
 20
1617.02928804328
 30
0.0
 40
22.0833
100
AcDbArc
 50
256.9133618072561
 51
283.0856115311963
  0
ARC
  5
4B31
330
1D9
100
AcDbEntity
  8
0
100
AcDbCircle
 10
527.9999999999963
 20
1578.955334987593
 30
0.0
 40
2.0
100
AcDbArc
 50
180.0
 51
270.0
  0
ARC
  5
4B32
330
1D9
100
AcDbEntity
  8
0
100
AcDbCircle
 10
583.0000000000045
 20
1582.705334987593
 30
0.0
 40
2.0
100
AcDbArc
 50
90.0
 51
180.0
  0
ARC
  5
4B33
330
1D9
100
AcDbEntity
  8
0
100
AcDbCircle
 10
578.9999999999962
 20
1578.955334987593
 30
0.0
 40
2.0
100
AcDbArc
 50
270.0
 51
0.0
  0
ARC
  5
4B34
330
1D9
100
AcDbEntity
  8
0
100
AcDbCircle
 10
538.0000053452268
 20
1632.139030929025
 30
0.0
 40
10.82150201355069
100
AcDbArc
 50
59.43585320642956
 51
120.5194242543982
  0
LINE
  5
4B35
330
1D9
100
AcDbEntity
  8
0
100
AcDbLine
 10
529.7724321915957
 20
1642.960530898161
 30
0.0
 11
546.2275678084079
 21
1642.960534986988
 31
0.0
  0
LINE
  5
4B36
330
1D9
100
AcDbEntity
  8
0
100
AcDbLine
 10
527.9999999999963
 20
1634.955334987592
 30
0.0
 11
547.9999999999964
 21
1634.955334987592
 31
0.0
  0
ARC
  5
4B37
330
1D9
100
AcDbEntity
  8
0
100
AcDbCircle
 10
538.0000053452268
 20
1619.771639046162
 30
0.0
 40
10.82150201355069
100
AcDbArc
 50
239.4805757456016
 51
300.5641467935704
  0
LINE
  5
4B38
330
1D9
100
AcDbEntity
  8
0
100
AcDbLine
 10
529.7724321915957
 20
1608.950139077024
 30
0.0
 11
546.2275678084079
 21
1608.950134988198
 31
0.0
  0
LINE
  5
4B39
330
1D9
100
AcDbEntity
  8
0
100
AcDbLine
 10
527.9999999999963
 20
1616.955334987593
 30
0.0
 11
547.9999999999964
 21
1616.955334987593
 31
0.0
  0
LINE
  5
4B3A
330
1D9
100
AcDbEntity
  8
0
100
AcDbLine
 10
527.9999999999963
 20
1674.955334987593
 30
0.0
 11
578.9999999999962
 21
1674.955334987593
 31
0.0
  0
LINE
  5
4B3B
330
1D9
100
AcDbEntity
  8
0
100
AcDbLine
 10
526.0000000000045
 20
1625.955334987593
 30
0.0
 11
549.9999999999963
 21
1625.955334987593
 31
0.0
  0
ARC
  5
4B3C
330
1D9
100
AcDbEntity
  8
0
100
AcDbCircle
 10
527.9999999999963
 20
1632.955334987593
 30
0.0
 40
2.0
100
AcDbArc
 50
90.0
 51
180.0
  0
ARC
  5
4B3D
330
1D9
100
AcDbEntity
  8
0
100
AcDbCircle
 10
529.7799999836461
 20
1639.735345260754
 30
0.0
 40
3.225194516182908
100
AcDbArc
 50
32.35370583478186
 51
147.8287630307371
  0
LINE
  5
4B3E
330
1D9
100
AcDbEntity
  8
0
100
AcDbLine
 10
527.0500000000056
 20
1641.452604634442
 30
0.0
 11
527.0500000000056
 21
1634.715334987593
 31
0.0
  0
LINE
  5
4B3F
330
1D9
100
AcDbEntity
  8
0
100
AcDbLine
 10
532.5045172066064
 20
1641.461290094461
 30
0.0
 11
532.5045172066064
 21
1634.961290094462
 31
0.0
  0
LINE
  5
4B40
330
1D9
100
AcDbEntity
  8
0
100
AcDbLine
 10
526.0000000000045
 20
1625.955334987593
 30
0.0
 11
526.0000000000045
 21
1672.955334987594
 31
0.0
  0
ARC
  5
4B41
330
1D9
100
AcDbEntity
  8
0
100
AcDbCircle
 10
529.7799999836461
 20
1612.175324714432
 30
0.0
 40
3.225194516182908
100
AcDbArc
 50
212.1712369692628
 51
327.6462941652181
  0
LINE
  5
4B42
330
1D9
100
AcDbEntity
  8
0
100
AcDbLine
 10
532.5045172066064
 20
1610.449379880724
 30
0.0
 11
532.5045172066064
 21
1616.949379880723
 31
0.0
  0
LINE
  5
4B43
330
1D9
100
AcDbEntity
  8
0
100
AcDbLine
 10
527.0500000000056
 20
1610.458065340742
 30
0.0
 11
527.0500000000056
 21
1617.195334987593
 31
0.0
  0
ARC
  5
4B44
330
1D9
100
AcDbEntity
  8
0
100
AcDbCircle
 10
527.9999999999963
 20
1618.955334987592
 30
0.0
 40
2.0
100
AcDbArc
 50
180.0
 51
270.0
  0
ARC
  5
4B45
330
1D9
100
AcDbEntity
  8
0
100
AcDbCircle
 10
527.9999999999963
 20
1672.955334987594
 30
0.0
 40
2.0
100
AcDbArc
 50
90.0
 51
180.0
  0
ARC
  5
4B46
330
1D9
100
AcDbEntity
  8
0
100
AcDbCircle
 10
547.9999999999964
 20
1632.955334987593
 30
0.0
 40
2.0
100
AcDbArc
 50
0.0
 51
90.0
  0
LINE
  5
4B47
330
1D9
100
AcDbEntity
  8
0
100
AcDbLine
 10
548.9499999999971
 20
1641.468400202755
 30
0.0
 11
548.9499999999971
 21
1634.715334987593
 31
0.0
  0
LINE
  5
4B48
330
1D9
100
AcDbEntity
  8
0
100
AcDbLine
 10
549.9999999999963
 20
1625.955334987593
 30
0.0
 11
549.9999999999963
 21
1632.955334987593
 31
0.0
  0
LINE
  5
4B49
330
1D9
100
AcDbEntity
  8
0
100
AcDbLine
 10
543.5027683502056
 20
1641.456997721214
 30
0.0
 11
543.5027683502056
 21
1634.956997721213
 31
0.0
  0
ARC
  5
4B4A
330
1D9
100
AcDbEntity
  8
0
100
AcDbCircle
 10
546.2299999958657
 20
1639.735336960996
 30
0.0
 40
3.225198943074
100
AcDbArc
 50
32.50347797200846
 51
147.7363918026111
  0
ARC
  5
4B4B
330
1D9
100
AcDbEntity
  8
0
100
AcDbCircle
 10
546.2299999958657
 20
1612.175333014191
 30
0.0
 40
3.225198943074
100
AcDbArc
 50
212.2636081973886
 51
327.4965220279915
  0
LINE
  5
4B4C
330
1D9
100
AcDbEntity
  8
0
100
AcDbLine
 10
543.5027683502056
 20
1610.453672253973
 30
0.0
 11
543.5027683502056
 21
1616.953672253973
 31
0.0
  0
LINE
  5
4B4D
330
1D9
100
AcDbEntity
  8
0
100
AcDbLine
 10
548.9499999999971
 20
1610.44226977243
 30
0.0
 11
548.9499999999971
 21
1617.195334987593
 31
0.0
  0
ARC
  5
4B4E
330
1D9
100
AcDbEntity
  8
0
100
AcDbCircle
 10
547.9999999999964
 20
1618.955334987592
 30
0.0
 40
2.0
100
AcDbArc
 50
270.0
 51
0.0
  0
LINE
  5
4B4F
330
1D9
100
AcDbEntity
  8
0
100
AcDbLine
 10
549.9999999999963
 20
1625.955334987593
 30
0.0
 11
549.9999999999963
 21
1618.955334987592
 31
0.0
  0
LINE
  5
4B50
330
1D9
100
AcDbEntity
  8
0
100
AcDbLine
 10
580.9999999999964
 20
1625.955334987593
 30
0.0
 11
580.9999999999964
 21
1672.955334987594
 31
0.0
  0
LINE
  5
4B51
330
1D9
100
AcDbEntity
  8
0
100
AcDbLine
 10
580.9999999999964
 20
1669.205334987593
 30
0.0
 11
580.9999999999964
 21
1672.955334987594
 31
0.0
  0
ARC
  5
4B52
330
1D9
100
AcDbEntity
  8
0
100
AcDbCircle
 10
583.0000000000045
 20
1669.205334987593
 30
0.0
 40
2.0
100
AcDbArc
 50
180.0
 51
270.0
  0
ARC
  5
4B53
330
1D9
100
AcDbEntity
  8
0
100
AcDbCircle
 10
578.9999999999962
 20
1672.955334987594
 30
0.0
 40
2.0
100
AcDbArc
 50
0.0
 51
90.0
  0
LINE
  5
4B54
330
1D9
100
AcDbEntity
  8
0
100
AcDbLine
 10
774.0000000000036
 20
1550.955334987593
 30
0.0
 11
773.9999999999961
 21
1625.955334987593
 31
0.0
  0
LINE
  5
4B55
330
1D9
100
AcDbEntity
  8
0
100
AcDbLine
 10
744.9999999999961
 20
1625.955334987593
 30
0.0
 11
744.9999999999961
 21
1560.455334987593
 31
0.0
  0
LINE
  5
4B56
330
1D9
100
AcDbEntity
  8
0
100
AcDbLine
 10
767.0000000000036
 20
1559.415334987593
 30
0.0
 11
767.0000000000036
 21
1625.955334987593
 31
0.0
  0
LINE
  5
4B57
330
1D9
100
AcDbEntity
  8
0
100
AcDbLine
 10
688.0000000000044
 20
1625.955334987593
 30
0.0
 11
688.0000000000044
 21
1586.705334987593
 31
0.0
  0
LINE
  5
4B58
330
1D9
100
AcDbEntity
  8
0
100
AcDbLine
 10
724.0000000000044
 20
1625.955334987593
 30
0.0
 11
724.0000000000044
 21
1595.524977809689
 31
0.0
  0
LINE
  5
4B59
330
1D9
100
AcDbEntity
  8
0
100
AcDbLine
 10
727.2499999999961
 20
1625.955334987593
 30
0.0
 11
727.2499999999961
 21
1592.6356921655
 31
0.0
  0
LINE
  5
4B5A
330
1D9
100
AcDbEntity
  8
0
100
AcDbLine
 10
734.8900000000058
 20
1625.955334987593
 30
0.0
 11
734.8900000000058
 21
1592.236317862298
 31
0.0
  0
LINE
  5
4B5B
330
1D9
100
AcDbEntity
  8
0
100
AcDbLine
 10
680.9999999999964
 20
1608.950135790195
 30
0.0
 11
680.9999999999964
 21
1595.519428304448
 31
0.0
  0
LINE
  5
4B5C
330
1D9
100
AcDbEntity
  8
0
100
AcDbLine
 10
670.9999999999962
 20
1608.950137032611
 30
0.0
 11
670.9999999999962
 21
1595.519517897567
 31
0.0
  0
LINE
  5
4B5D
330
1D9
100
AcDbEntity
  8
0
100
AcDbLine
 10
688.0000000000044
 20
1595.705334987593
 30
0.0
 11
723.1699999999972
 21
1595.705334987593
 31
0.0
  0
ARC
  5
4B5E
330
1D9
100
AcDbEntity
  8
0
100
AcDbCircle
 10
686.0000000000045
 20
1586.705334987593
 30
0.0
 40
2.0
100
AcDbArc
 50
270.0
 51
0.0
  0
ARC
  5
4B5F
330
1D9
100
AcDbEntity
  8
0
100
AcDbCircle
 10
676.0001927131361
 20
1617.02928804328
 30
0.0
 40
22.0833
100
AcDbArc
 50
256.9133618072561
 51
283.0856115311963
  0
ARC
  5
4B60
330
1D9
100
AcDbEntity
  8
0
100
AcDbCircle
 10
774.0000000000036
 20
1625.955334987593
 30
0.0
 40
51.5
100
AcDbArc
 50
221.5710000000087
 51
235.7289999999921
  0
LINE
  5
4B61
330
1D9
100
AcDbEntity
  8
0
100
AcDbLine
 10
724.5900000000045
 20
1595.115334987593
 30
0.0
 11
726.6700000000046
 21
1593.035334987593
 31
0.0
  0
ARC
  5
4B62
330
1D9
100
AcDbEntity
  8
0
100
AcDbCircle
 10
723.1699999999972
 20
1593.705334987593
 30
0.0
 40
2.0
100
AcDbArc
 50
45.00369999995753
 51
90.00530000001983
  0
ARC
  5
4B63
330
1D9
100
AcDbEntity
  8
0
100
AcDbCircle
 10
728.0800000000044
 20
1594.455334987593
 30
0.0
 40
2.0
100
AcDbArc
 50
224.9979999999499
 51
269.9940000000105
  0
ARC
  5
4B64
330
1D9
100
AcDbEntity
  8
0
100
AcDbCircle
 10
733.9800000000032
 20
1590.455334987593
 30
0.0
 40
2.0
100
AcDbArc
 50
41.57300000003851
 51
89.99630000004193
  0
LINE
  5
4B65
330
1D9
100
AcDbEntity
  8
0
100
AcDbLine
 10
728.0800000000044
 20
1592.455334987593
 30
0.0
 11
733.9800000000032
 21
1592.455334987593
 31
0.0
  0
LINE
  5
4B66
330
1D9
100
AcDbEntity
  8
0
100
AcDbLine
 10
774.0000000000036
 20
1560.955334987593
 30
0.0
 11
768.9999999999961
 21
1560.955334987593
 31
0.0
  0
ARC
  5
4B67
330
1D9
100
AcDbEntity
  8
0
100
AcDbCircle
 10
765.2900000000061
 20
1560.455334987593
 30
0.0
 40
2.0
100
AcDbArc
 50
270.0009999999963
 51
337.974999999981
  0
ARC
  5
4B68
330
1D9
100
AcDbEntity
  8
0
100
AcDbCircle
 10
768.9999999999961
 20
1558.955334987594
 30
0.0
 40
2.0
100
AcDbArc
 50
90.00129999992251
 51
157.9749999999811
  0
ARC
  5
4B69
330
1D9
100
AcDbEntity
  8
0
100
AcDbCircle
 10
747.0000000000044
 20
1560.455334987593
 30
0.0
 40
2.0
100
AcDbArc
 50
180.0
 51
270.0
  0
LINE
  5
4B6A
330
1D9
100
AcDbEntity
  8
0
100
AcDbLine
 10
765.2900000000061
 20
1558.455334987593
 30
0.0
 11
747.0000000000044
 21
1558.455334987593
 31
0.0
  0
LINE
  5
4B6B
330
1D9
100
AcDbEntity
  8
0
100
AcDbLine
 10
688.0000000000044
 20
1656.205334987593
 30
0.0
 11
723.1699999999972
 21
1656.205334987593
 31
0.0
  0
ARC
  5
4B6C
330
1D9
100
AcDbEntity
  8
0
100
AcDbCircle
 10
686.0000000000045
 20
1632.955334987593
 30
0.0
 40
2.0
100
AcDbArc
 50
0.0
 51
90.0
  0
ARC
  5
4B6D
330
1D9
100
AcDbEntity
  8
0
100
AcDbCircle
 10
666.0000000000045
 20
1632.955334987593
 30
0.0
 40
2.0
100
AcDbArc
 50
90.0
 51
180.0
  0
LINE
  5
4B6E
330
1D9
100
AcDbEntity
  8
0
100
AcDbLine
 10
666.0000000000045
 20
1634.955334987592
 30
0.0
 11
686.0000000000045
 21
1634.955334987592
 31
0.0
  0
ARC
  5
4B6F
330
1D9
100
AcDbEntity
  8
0
100
AcDbCircle
 10
684.2299999958659
 20
1639.735336960996
 30
0.0
 40
3.225198943074
100
AcDbArc
 50
32.50347797200846
 51
147.7363918026111
  0
ARC
  5
4B70
330
1D9
100
AcDbEntity
  8
0
100
AcDbCircle
 10
676.0000053452268
 20
1632.139030929025
 30
0.0
 40
10.82150201355069
100
AcDbArc
 50
59.43585320642956
 51
120.5194242543982
  0
LINE
  5
4B71
330
1D9
100
AcDbEntity
  8
0
100
AcDbLine
 10
667.7724321915957
 20
1642.960530898161
 30
0.0
 11
684.2275678084079
 21
1642.960534986988
 31
0.0
  0
ARC
  5
4B72
330
1D9
100
AcDbEntity
  8
0
100
AcDbCircle
 10
667.779999983646
 20
1639.735345260754
 30
0.0
 40
3.225194516182908
100
AcDbArc
 50
32.35370583478186
 51
147.8287630307371
  0
LINE
  5
4B73
330
1D9
100
AcDbEntity
  8
0
100
AcDbLine
 10
681.5027683502058
 20
1641.456997721214
 30
0.0
 11
681.5027683502058
 21
1634.956997721213
 31
0.0
  0
LINE
  5
4B74
330
1D9
100
AcDbEntity
  8
0
100
AcDbLine
 10
670.5045172066064
 20
1641.461290094461
 30
0.0
 11
670.5045172066064
 21
1634.961290094462
 31
0.0
  0
LINE
  5
4B75
330
1D9
100
AcDbEntity
  8
0
100
AcDbLine
 10
665.0499999999974
 20
1641.452604634442
 30
0.0
 11
665.0499999999974
 21
1634.715334987593
 31
0.0
  0
LINE
  5
4B76
330
1D9
100
AcDbEntity
  8
0
100
AcDbLine
 10
686.9499999999971
 20
1641.468400202755
 30
0.0
 11
686.9499999999971
 21
1634.715334987593
 31
0.0
  0
LINE
  5
4B77
330
1D9
100
AcDbEntity
  8
0
100
AcDbLine
 10
663.9999999999964
 20
1625.955334987593
 30
0.0
 11
663.9999999999964
 21
1632.955334987593
 31
0.0
  0
LINE
  5
4B78
330
1D9
100
AcDbEntity
  8
0
100
AcDbLine
 10
688.0000000000044
 20
1625.955334987593
 30
0.0
 11
688.0000000000044
 21
1665.205334987593
 31
0.0
  0
ARC
  5
4B79
330
1D9
100
AcDbEntity
  8
0
100
AcDbCircle
 10
686.0000000000045
 20
1618.955334987592
 30
0.0
 40
2.0
100
AcDbArc
 50
270.0
 51
0.0
  0
LINE
  5
4B7A
330
1D9
100
AcDbEntity
  8
0
100
AcDbLine
 10
686.9499999999971
 20
1610.44226977243
 30
0.0
 11
686.9499999999971
 21
1617.195334987593
 31
0.0
  0
LINE
  5
4B7B
330
1D9
100
AcDbEntity
  8
0
100
AcDbLine
 10
681.5027683502058
 20
1610.453672253973
 30
0.0
 11
681.5027683502058
 21
1616.953672253973
 31
0.0
  0
ARC
  5
4B7C
330
1D9
100
AcDbEntity
  8
0
100
AcDbCircle
 10
684.2299999958659
 20
1612.175333014191
 30
0.0
 40
3.225198943074
100
AcDbArc
 50
212.2636081973886
 51
327.4965220279915
  0
LINE
  5
4B7D
330
1D9
100
AcDbEntity
  8
0
100
AcDbLine
 10
663.9999999999964
 20
1625.955334987593
 30
0.0
 11
663.9999999999964
 21
1618.955334987592
 31
0.0
  0
ARC
  5
4B7E
330
1D9
100
AcDbEntity
  8
0
100
AcDbCircle
 10
666.0000000000045
 20
1618.955334987592
 30
0.0
 40
2.0
100
AcDbArc
 50
180.0
 51
270.0
  0
ARC
  5
4B7F
330
1D9
100
AcDbEntity
  8
0
100
AcDbCircle
 10
667.779999983646
 20
1612.175324714432
 30
0.0
 40
3.225194516182908
100
AcDbArc
 50
212.1712369692628
 51
327.6462941652181
  0
LINE
  5
4B80
330
1D9
100
AcDbEntity
  8
0
100
AcDbLine
 10
670.5045172066064
 20
1610.449379880724
 30
0.0
 11
670.5045172066064
 21
1616.949379880723
 31
0.0
  0
LINE
  5
4B81
330
1D9
100
AcDbEntity
  8
0
100
AcDbLine
 10
665.0499999999974
 20
1610.458065340742
 30
0.0
 11
665.0499999999974
 21
1617.195334987593
 31
0.0
  0
LINE
  5
4B82
330
1D9
100
AcDbEntity
  8
0
100
AcDbLine
 10
666.0000000000045
 20
1616.955334987593
 30
0.0
 11
686.0000000000045
 21
1616.955334987593
 31
0.0
  0
ARC
  5
4B83
330
1D9
100
AcDbEntity
  8
0
100
AcDbCircle
 10
676.0000053452268
 20
1619.771639046162
 30
0.0
 40
10.82150201355069
100
AcDbArc
 50
239.4805757456016
 51
300.5641467935704
  0
LINE
  5
4B84
330
1D9
100
AcDbEntity
  8
0
100
AcDbLine
 10
667.7724321915957
 20
1608.950139077024
 30
0.0
 11
684.2275678084079
 21
1608.950134988198
 31
0.0
  0
ARC
  5
4B85
330
1D9
100
AcDbEntity
  8
0
100
AcDbCircle
 10
686.0000000000045
 20
1665.205334987593
 30
0.0
 40
2.0
100
AcDbArc
 50
0.0
 51
90.0
  0
LINE
  5
4B86
330
1D9
100
AcDbEntity
  8
0
100
AcDbLine
 10
663.9999999999964
 20
1625.955334987593
 30
0.0
 11
688.0000000000044
 21
1625.955334987593
 31
0.0
  0
ARC
  5
4B87
330
1D9
100
AcDbEntity
  8
0
100
AcDbCircle
 10
774.0000000000036
 20
1625.955334987593
 30
0.0
 40
51.5
100
AcDbArc
 50
125.6282830352972
 51
138.4279999999495
  0
LINE
  5
4B88
330
1D9
100
AcDbEntity
  8
0
100
AcDbLine
 10
727.2499999999961
 20
1625.955334987593
 30
0.0
 11
727.2499999999961
 21
1659.274977809688
 31
0.0
  0
LINE
  5
4B89
330
1D9
100
AcDbEntity
  8
0
100
AcDbLine
 10
724.0000000000044
 20
1625.955334987593
 30
0.0
 11
724.0000000000044
 21
1656.385692165497
 31
0.0
  0
LINE
  5
4B8A
330
1D9
100
AcDbEntity
  8
0
100
AcDbLine
 10
734.8900000000058
 20
1625.955334987593
 30
0.0
 11
734.8900000000058
 21
1659.674352112886
 31
0.0
  0
LINE
  5
4B8B
330
1D9
100
AcDbEntity
  8
0
100
AcDbLine
 10
724.5900000000045
 20
1656.785334987593
 30
0.0
 11
726.6700000000046
 21
1658.865334987591
 31
0.0
  0
ARC
  5
4B8C
330
1D9
100
AcDbEntity
  8
0
100
AcDbCircle
 10
723.1699999999972
 20
1658.205334987593
 30
0.0
 40
2.0
100
AcDbArc
 50
269.9980000000067
 51
315.0010000000018
  0
ARC
  5
4B8D
330
1D9
100
AcDbEntity
  8
0
100
AcDbCircle
 10
728.0800000000044
 20
1657.455334987593
 30
0.0
 40
2.0
100
AcDbArc
 50
90.00509999999891
 51
135.0010000000017
  0
ARC
  5
4B8E
330
1D9
100
AcDbEntity
  8
0
100
AcDbCircle
 10
733.9800000000032
 20
1661.455334987594
 30
0.0
 40
2.0
100
AcDbArc
 50
270.0059999999895
 51
318.4310000000278
  0
LINE
  5
4B8F
330
1D9
100
AcDbEntity
  8
0
100
AcDbLine
 10
728.0800000000044
 20
1659.455334987594
 30
0.0
 11
733.9800000000032
 21
1659.455334987594
 31
0.0
  0
LINE
  5
4B90
330
1D9
100
AcDbEntity
  8
0
100
AcDbLine
 10
744.9999999999961
 20
1625.955334987593
 30
0.0
 11
744.9999999999961
 21
1691.455334987593
 31
0.0
  0
LINE
  5
4B91
330
1D9
100
AcDbEntity
  8
0
100
AcDbLine
 10
767.0000000000036
 20
1692.495334987593
 30
0.0
 11
767.0000000000036
 21
1625.955334987593
 31
0.0
  0
LINE
  5
4B92
330
1D9
100
AcDbEntity
  8
0
100
AcDbLine
 10
774.0000000000036
 20
1700.955334987594
 30
0.0
 11
773.9999999999961
 21
1625.955334987593
 31
0.0
  0
LINE
  5
4B93
330
1D9
100
AcDbEntity
  8
0
100
AcDbLine
 10
774.0000000000036
 20
1690.955334987593
 30
0.0
 11
768.9999999999961
 21
1690.955334987593
 31
0.0
  0
ARC
  5
4B94
330
1D9
100
AcDbEntity
  8
0
100
AcDbCircle
 10
765.2900000000061
 20
1691.455334987593
 30
0.0
 40
2.0
100
AcDbArc
 50
22.02430000000623
 51
89.99860000006739
  0
ARC
  5
4B95
330
1D9
100
AcDbEntity
  8
0
100
AcDbCircle
 10
768.9999999999961
 20
1692.955334987593
 30
0.0
 40
2.0
100
AcDbArc
 50
202.0240000000469
 51
269.9980000000067
  0
LINE
  5
4B96
330
1D9
100
AcDbEntity
  8
0
100
AcDbLine
 10
744.9999999999961
 20
1686.555334987594
 30
0.0
 11
744.9999999999961
 21
1691.455334987593
 31
0.0
  0
ARC
  5
4B97
330
1D9
100
AcDbEntity
  8
0
100
AcDbCircle
 10
747.0000000000044
 20
1691.455334987593
 30
0.0
 40
2.0
100
AcDbArc
 50
90.0
 51
180.0
  0
LINE
  5
4B98
330
1D9
100
AcDbEntity
  8
0
100
AcDbLine
 10
744.9999999999961
 20
1686.555334987594
 30
0.0
 11
744.0000000000044
 21
1686.555334987594
 31
0.0
  0
LINE
  5
4B99
330
1D9
100
AcDbEntity
  8
0
100
AcDbLine
 10
765.2900000000061
 20
1693.455334987594
 30
0.0
 11
747.0000000000044
 21
1693.455334987594
 31
0.0
  0
LINE
  5
4B9A
330
1D9
100
AcDbEntity
  8
0
100
AcDbLine
 10
744.0000000000044
 20
1667.815220319496
 30
0.0
 11
744.0000000000044
 21
1686.555334987594
 31
0.0
  0
LINE
  5
4B9B
330
1D9
100
AcDbEntity
  8
0
100
AcDbLine
 10
873.9999999999964
 20
1577.955334987593
 30
0.0
 11
873.9999999999964
 21
1673.955334987593
 31
0.0
  0
LINE
  5
4B9C
330
1D9
100
AcDbEntity
  8
0
100
AcDbLine
 10
872.0000000000045
 20
1625.955334987593
 30
0.0
 11
872.0000000000045
 21
1548.455334987593
 31
0.0
  0
LINE
  5
4B9D
330
1D9
100
AcDbEntity
  8
0
100
AcDbLine
 10
858.0000000000039
 20
1550.455334987594
 30
0.0
 11
858.0000000000039
 21
1625.955334987593
 31
0.0
  0
LINE
  5
4B9E
330
1D9
100
AcDbEntity
  8
0
100
AcDbLine
 10
833.9999999999964
 20
1594.455334987593
 30
0.0
 11
833.9999999999964
 21
1625.955334987593
 31
0.0
  0
LINE
  5
4B9F
330
1D9
100
AcDbEntity
  8
0
100
AcDbLine
 10
823.2950000000046
 20
1625.955334987593
 30
0.0
 11
823.2950000000046
 21
1593.98245174728
 31
0.0
  0
LINE
  5
4BA0
330
1D9
100
AcDbEntity
  8
0
100
AcDbLine
 10
788.0000000000046
 20
1625.955334987593
 30
0.0
 11
788.0000000000046
 21
1562.955334987593
 31
0.0
  0
LINE
  5
4BA2
330
1D9
100
AcDbEntity
  8
0
100
AcDbLine
 10
872.0000000000045
 20
1548.455334987593
 30
0.0
 11
860.0000000000044
 21
1548.455334987593
 31
0.0
  0
ARC
  5
4BA3
330
1D9
100
AcDbEntity
  8
0
100
AcDbCircle
 10
774.0000000000036
 20
1625.955334987593
 30
0.0
 40
58.5
100
AcDbArc
 50
285.3350353272412
 51
325.8767054592123
  0
ARC
  5
4BA4
330
1D9
100
AcDbEntity
  8
0
100
AcDbCircle
 10
785.9999999999961
 20
1562.955334987593
 30
0.0
 40
2.0
100
AcDbArc
 50
270.0
 51
0.0
  0
ARC
  5
4BA5
330
1D9
100
AcDbEntity
  8
0
100
AcDbCircle
 10
789.9999999999961
 20
1567.609383971261
 30
0.0
 40
2.0
100
AcDbArc
 50
105.3350353272412
 51
180.0
  0
ARC
  5
4BA6
330
1D9
100
AcDbEntity
  8
0
100
AcDbCircle
 10
852.9999999999962
 20
1585.805703551312
 30
0.0
 40
5.0
100
AcDbArc
 50
0.0
 51
79.38034472381926
  0
ARC
  5
4BA7
330
1D9
100
AcDbEntity
  8
0
100
AcDbCircle
 10
860.0000000000044
 20
1550.455334987594
 30
0.0
 40
2.0
100
AcDbArc
 50
180.0
 51
270.0
  0
LINE
  5
4BA8
330
1D9
100
AcDbEntity
  8
0
100
AcDbLine
 10
833.9999999999964
 20
1594.455334987593
 30
0.0
 11
824.9116882454364
 21
1594.455334987593
 31
0.0
  0
ARC
  5
4BA9
330
1D9
100
AcDbEntity
  8
0
100
AcDbCircle
 10
824.9116882454364
 20
1591.455334987593
 30
0.0
 40
3.0
100
AcDbArc
 50
90.0
 51
145.8767054592123
  0
LINE
  5
4BAA
330
1D9
100
AcDbEntity
  8
0
100
AcDbLine
 10
853.9214426752559
 20
1590.720064485983
 30
0.0
 11
833.9999999999964
 21
1594.455334987593
 31
0.0
  0
LINE
  5
4BAB
330
1D9
100
AcDbEntity
  8
0
100
AcDbLine
 10
873.9999999999964
 20
1577.955334987594
 30
0.0
 11
872.0000000000045
 21
1577.955334987594
 31
0.0
  0
LINE
  5
4BAD
330
1D9
100
AcDbEntity
  8
0
100
AcDbLine
 10
872.0000000000045
 20
1703.455334987593
 30
0.0
 11
860.0000000000044
 21
1703.455334987593
 31
0.0
  0
ARC
  5
4BB0
330
1D9
100
AcDbEntity
  8
0
100
AcDbCircle
 10
860.0000000000044
 20
1701.455334987594
 30
0.0
 40
2.0
100
AcDbArc
 50
90.0
 51
180.0
  0
ARC
  5
4BB1
330
1D9
100
AcDbEntity
  8
0
100
AcDbCircle
 10
774.0000000000036
 20
1625.955334987593
 30
0.0
 40
58.5
100
AcDbArc
 50
34.12329454078754
 51
74.66496467275877
  0
LINE
  5
4BB2
330
1D9
100
AcDbEntity
  8
0
100
AcDbLine
 10
788.0000000000046
 20
1625.955334987593
 30
0.0
 11
788.0000000000046
 21
1688.955334987594
 31
0.0
  0
LINE
  5
4BB3
330
1D9
100
AcDbEntity
  8
0
100
AcDbLine
 10
788.0000000000046
 20
1684.301286003923
 30
0.0
 11
788.0000000000046
 21
1688.955334987594
 31
0.0
  0
ARC
  5
4BB4
330
1D9
100
AcDbEntity
  8
0
100
AcDbCircle
 10
785.9999999999961
 20
1688.955334987594
 30
0.0
 40
2.0
100
AcDbArc
 50
0.0
 51
90.0
  0
ARC
  5
4BB5
330
1D9
100
AcDbEntity
  8
0
100
AcDbCircle
 10
789.9999999999961
 20
1684.301286003923
 30
0.0
 40
2.0
100
AcDbArc
 50
180.0
 51
254.6649646727586
  0
LINE
  5
4BB6
330
1D9
100
AcDbEntity
  8
0
100
AcDbLine
 10
858.0000000000039
 20
1701.455334987593
 30
0.0
 11
858.0000000000039
 21
1625.955334987593
 31
0.0
  0
LINE
  5
4BB7
330
1D9
100
AcDbEntity
  8
0
100
AcDbLine
 10
833.9999999999964
 20
1657.455334987593
 30
0.0
 11
833.9999999999964
 21
1625.955334987593
 31
0.0
  0
LINE
  5
4BB8
330
1D9
100
AcDbEntity
  8
0
100
AcDbLine
 10
823.2950000000046
 20
1625.955334987593
 30
0.0
 11
823.2950000000046
 21
1657.928218227906
 31
0.0
  0
ARC
  5
4BB9
330
1D9
100
AcDbEntity
  8
0
100
AcDbCircle
 10
852.9999999999962
 20
1666.104966423874
 30
0.0
 40
5.0
100
AcDbArc
 50
280.6196552761807
 51
0.0
  0
LINE
  5
4BBA
330
1D9
100
AcDbEntity
  8
0
100
AcDbLine
 10
858.0000000000039
 20
1701.455334987594
 30
0.0
 11
858.0000000000039
 21
1666.104966423874
 31
0.0
  0
LINE
  5
4BBB
330
1D9
100
AcDbEntity
  8
0
100
AcDbLine
 10
833.9999999999964
 20
1657.455334987593
 30
0.0
 11
824.9116882454364
 21
1657.455334987593
 31
0.0
  0
ARC
  5
4BBC
330
1D9
100
AcDbEntity
  8
0
100
AcDbCircle
 10
824.9116882454364
 20
1660.455334987593
 30
0.0
 40
3.0
100
AcDbArc
 50
214.1232945407875
 51
270.0
  0
LINE
  5
4BBD
330
1D9
100
AcDbEntity
  8
0
100
AcDbLine
 10
853.9214426752559
 20
1661.190605489202
 30
0.0
 11
833.9999999999964
 21
1657.455334987593
 31
0.0
  0
LINE
  5
4BBE
330
1D9
100
AcDbEntity
  8
0
100
AcDbLine
 10
872.0000000000045
 20
1625.955334987593
 30
0.0
 11
872.0000000000045
 21
1703.455334987593
 31
0.0
  0
LINE
  5
4BC0
330
1D9
100
AcDbEntity
  8
0
100
AcDbLine
 10
873.9999999999964
 20
1673.955334987593
 30
0.0
 11
872.0000000000045
 21
1673.955334987593
 31
0.0
  0
LINE
  5
4CF4
330
1D9
100
AcDbEntity
  8
0
100
AcDbLine
 10
1620.499999999996
 20
506.999999999998
 30
0.0
 11
1620.499999999996
 21
718.0
 31
0.0
  0
LINE
  5
4CF5
330
1D9
100
AcDbEntity
  8
0
100
AcDbLine
 10
2450.500000000003
 20
506.999999999998
 30
0.0
 11
2450.500000000003
 21
718.0
 31
0.0
  0
LINE
  5
4CF6
330
1D9
100
AcDbEntity
  8
0
100
AcDbLine
 10
1640.499999999996
 20
700.0
 30
0.0
 11
2430.500000000003
 21
700.0
 31
0.0
  0
LINE
  5
4CFA
330
1D9
100
AcDbEntity
  8
0
100
AcDbLine
 10
302.4999999999993
 20
491.9999999999991
 30
0.0
 11
302.4999999999993
 21
718.0
 31
0.0
  0
LINE
  5
4CFB
330
1D9
100
AcDbEntity
  8
0
100
AcDbLine
 10
1162.5
 20
491.9999999999991
 30
0.0
 11
1162.5
 21
718.0
 31
0.0
  0
LINE
  5
4CFC
330
1D9
100
AcDbEntity
  8
0
100
AcDbLine
 10
322.4999999999993
 20
700.0
 30
0.0
 11
1142.5
 21
700.0
 31
0.0
  0
LINE
  5
4D00
330
1D9
100
AcDbEntity
  8
0
100
AcDbLine
 10
564.9312883803482
 20
400.0
 30
0.0
 11
564.9312883803482
 21
307.6072226307268
 31
0.0
  0
LINE
  5
4D01
330
1D9
100
AcDbEntity
  8
0
100
AcDbLine
 10
564.9312883803482
 20
307.6072226307268
 30
0.0
 11
563.2872883803391
 21
307.6072226307268
 31
0.0
  0
LINE
  5
4D02
330
1D9
100
AcDbEntity
  8
0
100
AcDbLine
 10
529.1832883803488
 20
400.0
 30
0.0
 11
529.1832883803488
 21
267.5572226307275
 31
0.0
  0
LINE
  5
4D03
330
1D9
100
AcDbEntity
  8
0
100
AcDbLine
 10
529.1832883803488
 20
267.5572226307275
 30
0.0
 11
549.3156883803496
 21
267.5572226307275
 31
0.0
  0
LINE
  5
4D04
330
1D9
100
AcDbEntity
  8
0
100
AcDbLine
 10
529.1832883803488
 20
400.0
 30
0.0
 11
529.1832883803488
 21
532.4427773692714
 31
0.0
  0
LINE
  5
4D05
330
1D9
100
AcDbEntity
  8
0
100
AcDbLine
 10
529.1832883803488
 20
532.4427773692714
 30
0.0
 11
549.3156883803496
 21
532.4427773692714
 31
0.0
  0
LINE
  5
4D06
330
1D9
100
AcDbEntity
  8
0
100
AcDbLine
 10
564.9312883803482
 20
400.0
 30
0.0
 11
564.9312883803482
 21
492.3927773692703
 31
0.0
  0
LINE
  5
4D07
330
1D9
100
AcDbEntity
  8
0
100
AcDbLine
 10
564.9312883803482
 20
492.3927773692703
 30
0.0
 11
563.2872883803391
 21
492.3927773692703
 31
0.0
  0
LINE
  5
4D08
330
1D9
100
AcDbEntity
  8
0
100
AcDbLine
 10
935.816711619659
 20
400.0
 30
0.0
 11
935.816711619659
 21
267.5572226307275
 31
0.0
  0
LINE
  5
4D09
330
1D9
100
AcDbEntity
  8
0
100
AcDbLine
 10
935.816711619659
 20
267.5572226307275
 30
0.0
 11
915.6843116196576
 21
267.5572226307275
 31
0.0
  0
LINE
  5
4D0A
330
1D9
100
AcDbEntity
  8
0
100
AcDbLine
 10
900.0687116196587
 20
400.0
 30
0.0
 11
900.0687116196587
 21
307.6072226307268
 31
0.0
  0
LINE
  5
4D0B
330
1D9
100
AcDbEntity
  8
0
100
AcDbLine
 10
900.0687116196587
 20
307.6072226307268
 30
0.0
 11
901.712711619659
 21
307.6072226307268
 31
0.0
  0
LINE
  5
4D0C
330
1D9
100
AcDbEntity
  8
0
100
AcDbLine
 10
900.0687116196587
 20
400.0
 30
0.0
 11
900.0687116196587
 21
492.3927773692703
 31
0.0
  0
LINE
  5
4D0D
330
1D9
100
AcDbEntity
  8
0
100
AcDbLine
 10
900.0687116196587
 20
492.3927773692703
 30
0.0
 11
901.712711619659
 21
492.3927773692703
 31
0.0
  0
LINE
  5
4D0E
330
1D9
100
AcDbEntity
  8
0
100
AcDbLine
 10
935.816711619659
 20
400.0
 30
0.0
 11
935.816711619659
 21
532.4427773692714
 31
0.0
  0
LINE
  5
4D0F
330
1D9
100
AcDbEntity
  8
0
100
AcDbLine
 10
935.816711619659
 20
532.4427773692714
 30
0.0
 11
915.6843116196576
 21
532.4427773692714
 31
0.0
  0
LINE
  5
4D10
330
1D9
100
AcDbEntity
  8
0
100
AcDbLine
 10
264.0000000000038
 20
1674.955334987593
 30
0.0
 11
264.0000000000038
 21
1943.955334987593
 31
0.0
  0
LINE
  5
4D11
330
1D9
100
AcDbEntity
  8
0
100
AcDbLine
 10
873.9999999999961
 20
1674.955334987593
 30
0.0
 11
873.9999999999961
 21
1943.955334987593
 31
0.0
  0
LINE
  5
4D12
330
1D9
100
AcDbEntity
  8
0
100
AcDbLine
 10
284.0000000000038
 20
1925.955334987593
 30
0.0
 11
853.9999999999961
 21
1925.955334987593
 31
0.0
  0
LINE
  5
4D16
330
1D9
100
AcDbEntity
  8
0
100
AcDbLine
 10
1177.000000000003
 20
1684.955334987592
 30
0.0
 11
1177.000000000003
 21
1943.955334987593
 31
0.0
  0
LINE
  5
4D17
330
1D9
100
AcDbEntity
  8
0
100
AcDbLine
 10
1916.999999999996
 20
1684.955334987592
 30
0.0
 11
1916.999999999996
 21
1943.955334987593
 31
0.0
  0
LINE
  5
4D18
330
1D9
100
AcDbEntity
  8
0
100
AcDbLine
 10
1197.000000000004
 20
1925.955334987593
 30
0.0
 11
1896.999999999996
 21
1925.955334987593
 31
0.0
  0
LINE
  5
4D1C
330
1D9
100
AcDbEntity
  8
0
100
AcDbLine
 10
1326.999999999996
 20
1625.955334987593
 30
0.0
 11
1326.999999999996
 21
1748.955334987592
 31
0.0
  0
LINE
  5
4D1D
330
1D9
100
AcDbEntity
  8
0
100
AcDbLine
 10
1326.999999999996
 20
1748.955334987592
 30
0.0
 11
1343.000000000003
 21
1748.955334987592
 31
0.0
  0
LINE
  5
4D1E
330
1D9
100
AcDbEntity
  8
0
100
AcDbLine
 10
1380.375000000003
 20
1625.955334987593
 30
0.0
 11
1380.375000000003
 21
1573.455334987593
 31
0.0
  0
LINE
  5
4D1F
330
1D9
100
AcDbEntity
  8
0
100
AcDbLine
 10
1380.375000000003
 20
1573.455334987593
 30
0.0
 11
1379.804999999997
 21
1573.455334987593
 31
0.0
  0
LINE
  5
4D20
330
1D9
100
AcDbEntity
  8
0
100
AcDbLine
 10
1326.999999999996
 20
1625.955334987593
 30
0.0
 11
1326.999999999996
 21
1502.955334987593
 31
0.0
  0
LINE
  5
4D21
330
1D9
100
AcDbEntity
  8
0
100
AcDbLine
 10
1326.999999999996
 20
1502.955334987593
 30
0.0
 11
1343.000000000003
 21
1502.955334987593
 31
0.0
  0
LINE
  5
4D22
330
1D9
100
AcDbEntity
  8
0
100
AcDbLine
 10
1352.754999999997
 20
1625.955334987593
 30
0.0
 11
1352.754999999997
 21
1538.455334987593
 31
0.0
  0
LINE
  5
4D23
330
1D9
100
AcDbEntity
  8
0
100
AcDbLine
 10
1352.754999999997
 20
1538.455334987593
 30
0.0
 11
1372.096000000003
 21
1538.455334987593
 31
0.0
  0
LINE
  5
4D24
330
1D9
100
AcDbEntity
  8
0
100
AcDbLine
 10
1321.998999999996
 20
1533.455334987593
 30
0.0
 11
1318.499000000002
 21
1533.455334987593
 31
0.0
  0
LINE
  5
4D25
330
1D9
100
AcDbEntity
  8
0
100
AcDbLine
 10
1318.499000000002
 20
1533.455334987593
 30
0.0
 11
1318.499000000002
 21
1502.955334987593
 31
0.0
  0
LINE
  5
4D26
330
1D9
100
AcDbEntity
  8
0
100
AcDbLine
 10
1318.499000000002
 20
1502.955334987593
 30
0.0
 11
1302.499000000003
 21
1502.955334987593
 31
0.0
  0
LINE
  5
4D27
330
1D9
100
AcDbEntity
  8
0
100
AcDbLine
 10
1352.754999999997
 20
1625.955334987593
 30
0.0
 11
1352.754999999997
 21
1713.455334987592
 31
0.0
  0
LINE
  5
4D28
330
1D9
100
AcDbEntity
  8
0
100
AcDbLine
 10
1352.754999999997
 20
1713.455334987592
 30
0.0
 11
1372.096000000003
 21
1713.455334987592
 31
0.0
  0
LINE
  5
4D29
330
1D9
100
AcDbEntity
  8
0
100
AcDbLine
 10
1380.375000000003
 20
1625.955334987593
 30
0.0
 11
1380.375000000003
 21
1678.455334987593
 31
0.0
  0
LINE
  5
4D2A
330
1D9
100
AcDbEntity
  8
0
100
AcDbLine
 10
1380.375000000003
 20
1678.455334987593
 30
0.0
 11
1379.804999999997
 21
1678.455334987593
 31
0.0
  0
LINE
  5
4D2B
330
1D9
100
AcDbEntity
  8
0
100
AcDbLine
 10
1380.375000000003
 20
1676.455334987593
 30
0.0
 11
1380.375000000003
 21
1678.455334987593
 31
0.0
  0
LINE
  5
4D2C
330
1D9
100
AcDbEntity
  8
0
100
AcDbLine
 10
1380.375000000003
 20
1678.455334987593
 30
0.0
 11
1379.804999999997
 21
1678.455334987593
 31
0.0
  0
LINE
  5
4D2D
330
1D9
100
AcDbEntity
  8
0
100
AcDbLine
 10
1321.998999999996
 20
1718.455334987593
 30
0.0
 11
1318.499000000002
 21
1718.455334987593
 31
0.0
  0
LINE
  5
4D2E
330
1D9
100
AcDbEntity
  8
0
100
AcDbLine
 10
1318.499000000002
 20
1718.455334987593
 30
0.0
 11
1318.499000000002
 21
1748.855334987592
 31
0.0
  0
LINE
  5
4D2F
330
1D9
100
AcDbEntity
  8
0
100
AcDbLine
 10
1326.999999999996
 20
1739.125334987592
 30
0.0
 11
1326.999999999996
 21
1748.955334987592
 31
0.0
  0
LINE
  5
4D30
330
1D9
100
AcDbEntity
  8
0
100
AcDbLine
 10
1326.999999999996
 20
1748.955334987592
 30
0.0
 11
1343.000000000003
 21
1748.955334987592
 31
0.0
  0
LINE
  5
4D31
330
1D9
100
AcDbEntity
  8
0
100
AcDbLine
 10
1767.000000000004
 20
1625.955334987593
 30
0.0
 11
1767.000000000004
 21
1748.955334987592
 31
0.0
  0
LINE
  5
4D32
330
1D9
100
AcDbEntity
  8
0
100
AcDbLine
 10
1767.000000000004
 20
1748.955334987592
 30
0.0
 11
1751.000000000004
 21
1748.955334987592
 31
0.0
  0
LINE
  5
4D33
330
1D9
100
AcDbEntity
  8
0
100
AcDbLine
 10
1713.620000000005
 20
1625.955334987593
 30
0.0
 11
1713.620000000005
 21
1573.455334987593
 31
0.0
  0
LINE
  5
4D34
330
1D9
100
AcDbEntity
  8
0
100
AcDbLine
 10
1713.620000000005
 20
1573.455334987593
 30
0.0
 11
1714.190000000003
 21
1573.455334987593
 31
0.0
  0
LINE
  5
4D35
330
1D9
100
AcDbEntity
  8
0
100
AcDbLine
 10
1741.240000000004
 20
1625.955334987593
 30
0.0
 11
1741.240000000004
 21
1538.455334987593
 31
0.0
  0
LINE
  5
4D36
330
1D9
100
AcDbEntity
  8
0
100
AcDbLine
 10
1741.240000000004
 20
1538.455334987593
 30
0.0
 11
1721.900000000003
 21
1538.455334987593
 31
0.0
  0
LINE
  5
4D37
330
1D9
100
AcDbEntity
  8
0
100
AcDbLine
 10
1767.000000000004
 20
1625.955334987593
 30
0.0
 11
1767.000000000004
 21
1502.955334987593
 31
0.0
  0
LINE
  5
4D38
330
1D9
100
AcDbEntity
  8
0
100
AcDbLine
 10
1767.000000000004
 20
1502.955334987593
 30
0.0
 11
1751.000000000004
 21
1502.955334987593
 31
0.0
  0
LINE
  5
4D39
330
1D9
100
AcDbEntity
  8
0
100
AcDbLine
 10
1675.030000000007
 20
1574.455334987593
 30
0.0
 11
1669.030000000007
 21
1570.455334987593
 31
0.0
  0
LINE
  5
4D3A
330
1D9
100
AcDbEntity
  8
0
100
AcDbLine
 10
1669.030000000007
 20
1570.455334987593
 30
0.0
 11
1669.030000000007
 21
1569.718334987593
 31
0.0
  0
LINE
  5
4D3B
330
1D9
100
AcDbEntity
  8
0
100
AcDbLine
 10
1669.030000000007
 20
1579.455334987593
 30
0.0
 11
1669.030000000007
 21
1574.455334987593
 31
0.0
  0
LINE
  5
4D3C
330
1D9
100
AcDbEntity
  8
0
100
AcDbLine
 10
1669.030000000007
 20
1574.455334987593
 30
0.0
 11
1685.030000000007
 21
1574.455334987593
 31
0.0
  0
LINE
  5
4D3D
330
1D9
100
AcDbEntity
  8
0
100
AcDbLine
 10
1685.030000000007
 20
1574.455334987593
 30
0.0
 11
1685.030000000007
 21
1579.455334987593
 31
0.0
  0
LINE
  5
4D3E
330
1D9
100
AcDbEntity
  8
0
100
AcDbLine
 10
1685.030000000007
 20
1568.955334987593
 30
0.0
 11
1685.030000000007
 21
1570.455334987593
 31
0.0
  0
LINE
  5
4D3F
330
1D9
100
AcDbEntity
  8
0
100
AcDbLine
 10
1685.030000000007
 20
1570.455334987593
 30
0.0
 11
1679.030000000007
 21
1574.455334987593
 31
0.0
  0
LINE
  5
4D40
330
1D9
100
AcDbEntity
  8
0
100
AcDbLine
 10
1668.030000000007
 20
1625.955334987593
 30
0.0
 11
1668.030000000007
 21
1682.955334987592
 31
0.0
  0
LINE
  5
4D41
330
1D9
100
AcDbEntity
  8
0
100
AcDbLine
 10
1685.025000000003
 20
1701.455334987593
 30
0.0
 11
1685.025000000003
 21
1698.955334987592
 31
0.0
  0
LINE
  5
4D42
330
1D9
100
AcDbEntity
  8
0
100
AcDbLine
 10
1669.024999999997
 20
1698.955334987592
 30
0.0
 11
1669.024999999997
 21
1701.455334987593
 31
0.0
  0
LINE
  5
4D43
330
1D9
100
AcDbEntity
  8
0
100
AcDbLine
 10
1669.030000000007
 20
1672.455334987593
 30
0.0
 11
1669.030000000007
 21
1677.455334987593
 31
0.0
  0
LINE
  5
4D44
330
1D9
100
AcDbEntity
  8
0
100
AcDbLine
 10
1669.030000000007
 20
1677.455334987593
 30
0.0
 11
1685.030000000007
 21
1677.455334987593
 31
0.0
  0
LINE
  5
4D45
330
1D9
100
AcDbEntity
  8
0
100
AcDbLine
 10
1685.030000000007
 20
1677.455334987593
 30
0.0
 11
1685.030000000007
 21
1672.455334987593
 31
0.0
  0
LINE
  5
4D46
330
1D9
100
AcDbEntity
  8
0
100
AcDbLine
 10
1685.030000000007
 20
1682.955334987592
 30
0.0
 11
1685.030000000007
 21
1681.455334987592
 31
0.0
  0
LINE
  5
4D47
330
1D9
100
AcDbEntity
  8
0
100
AcDbLine
 10
1685.030000000007
 20
1681.455334987592
 30
0.0
 11
1679.030000000007
 21
1677.455334987593
 31
0.0
  0
LINE
  5
4D48
330
1D9
100
AcDbEntity
  8
0
100
AcDbLine
 10
1675.030000000007
 20
1677.455334987593
 30
0.0
 11
1669.030000000007
 21
1681.455334987592
 31
0.0
  0
LINE
  5
4D49
330
1D9
100
AcDbEntity
  8
0
100
AcDbLine
 10
1669.030000000007
 20
1681.455334987592
 30
0.0
 11
1669.030000000007
 21
1682.955334987592
 31
0.0
  0
LINE
  5
4D4A
330
1D9
100
AcDbEntity
  8
0
100
AcDbLine
 10
1741.240000000004
 20
1625.955334987593
 30
0.0
 11
1741.240000000004
 21
1713.455334987592
 31
0.0
  0
LINE
  5
4D4B
330
1D9
100
AcDbEntity
  8
0
100
AcDbLine
 10
1741.240000000004
 20
1713.455334987592
 30
0.0
 11
1721.900000000003
 21
1713.455334987592
 31
0.0
  0
LINE
  5
4D4C
330
1D9
100
AcDbEntity
  8
0
100
AcDbLine
 10
1741.240000000004
 20
1711.455334987593
 30
0.0
 11
1741.240000000004
 21
1713.455334987592
 31
0.0
  0
LINE
  5
4D4D
330
1D9
100
AcDbEntity
  8
0
100
AcDbLine
 10
1741.240000000004
 20
1713.455334987592
 30
0.0
 11
1721.900000000003
 21
1713.455334987592
 31
0.0
  0
LINE
  5
4D4E
330
1D9
100
AcDbEntity
  8
0
100
AcDbLine
 10
1767.000000000004
 20
1739.655334987591
 30
0.0
 11
1767.000000000004
 21
1748.955334987592
 31
0.0
  0
LINE
  5
4D4F
330
1D9
100
AcDbEntity
  8
0
100
AcDbLine
 10
1767.000000000004
 20
1748.955334987592
 30
0.0
 11
1751.000000000004
 21
1748.955334987592
 31
0.0
  0
LINE
  5
4D50
330
1D9
100
AcDbEntity
  8
0
100
AcDbLine
 10
1771.999999999997
 20
1533.455334987593
 30
0.0
 11
1775.499999999996
 21
1533.455334987593
 31
0.0
  0
LINE
  5
4D51
330
1D9
100
AcDbEntity
  8
0
100
AcDbLine
 10
1775.499999999996
 20
1533.455334987593
 30
0.0
 11
1775.499999999996
 21
1502.955334987593
 31
0.0
  0
LINE
  5
4D52
330
1D9
100
AcDbEntity
  8
0
100
AcDbLine
 10
1775.499999999996
 20
1502.955334987593
 30
0.0
 11
1791.500000000003
 21
1502.955334987593
 31
0.0
  0
LINE
  5
4D53
330
1D9
100
AcDbEntity
  8
0
100
AcDbLine
 10
1771.999999999997
 20
1718.455334987593
 30
0.0
 11
1775.499999999996
 21
1718.455334987593
 31
0.0
  0
LINE
  5
4D54
330
1D9
100
AcDbEntity
  8
0
100
AcDbLine
 10
1775.499999999996
 20
1718.455334987593
 30
0.0
 11
1775.499999999996
 21
1748.855334987592
 31
0.0
  0
LINE
  5
4D55
330
1D9
100
AcDbEntity
  8
0
100
AcDbLine
 10
2893.5
 20
532.0005358855516
 30
0.0
 11
2893.5
 21
718.0
 31
0.0
  0
LINE
  5
4D56
330
1D9
100
AcDbEntity
  8
0
100
AcDbLine
 10
3783.499999999998
 20
531.9313072281096
 30
0.0
 11
3783.499999999998
 21
718.0
 31
0.0
  0
LINE
  5
4D57
330
1D9
100
AcDbEntity
  8
0
100
AcDbLine
 10
2913.5
 20
700.0
 30
0.0
 11
3763.5
 21
700.0
 31
0.0
  0
LINE
  5
4D5B
330
1D9
100
AcDbEntity
  8
0
100
AcDbLine
 10
3486.284677449629
 20
258.8885949196036
 30
0.0
 11
3486.288775084998
 21
263.8885932405405
 31
0.0
  0
LINE
  5
4D5C
330
1D9
100
AcDbEntity
  8
0
100
AcDbLine
 10
3470.288780457998
 20
263.9017056737234
 30
0.0
 11
3470.28468282263
 21
258.9017073527847
 31
0.0
  0
LINE
  5
4D5D
330
1D9
100
AcDbEntity
  8
0
100
AcDbLine
 10
3470.310088161919
 20
289.9016969426023
 30
0.0
 11
3470.305990526547
 21
284.9016986216664
 31
0.0
  0
LINE
  5
4D5E
330
1D9
100
AcDbEntity
  8
0
100
AcDbLine
 10
3470.305990526547
 20
284.9016986216664
 30
0.0
 11
3486.305985153546
 21
284.8885861884818
 31
0.0
  0
LINE
  5
4D5F
330
1D9
100
AcDbEntity
  8
0
100
AcDbLine
 10
3486.305985153546
 20
284.8885861884818
 30
0.0
 11
3486.31008278892
 21
289.88858450942
 31
0.0
  0
LINE
  5
4D60
330
1D9
100
AcDbEntity
  8
0
100
AcDbLine
 10
3476.305988511668
 20
284.8967814592223
 30
0.0
 11
3470.302712418249
 21
280.9016999649155
 31
0.0
  0
LINE
  5
4D61
330
1D9
100
AcDbEntity
  8
0
100
AcDbLine
 10
3470.302712418249
 20
280.9016999649155
 30
0.0
 11
3470.301892891181
 21
279.9017003007284
 31
0.0
  0
LINE
  5
4D62
330
1D9
100
AcDbEntity
  8
0
100
AcDbLine
 10
3486.301887518179
 20
279.8885878675432
 30
0.0
 11
3486.302707045259
 21
280.8885875317309
 31
0.0
  0
LINE
  5
4D63
330
1D9
100
AcDbEntity
  8
0
100
AcDbLine
 10
3486.302707045259
 20
280.8885875317309
 30
0.0
 11
3480.30598716843
 21
284.8935033509251
 31
0.0
  0
LINE
  5
4D64
330
1D9
100
AcDbEntity
  8
0
100
AcDbLine
 10
3486.284677449629
 20
541.1114050803957
 30
0.0
 11
3486.288775084998
 21
536.1114067594566
 31
0.0
  0
LINE
  5
4D65
330
1D9
100
AcDbEntity
  8
0
100
AcDbLine
 10
3476.305988511668
 20
515.1032185407784
 30
0.0
 11
3470.302712418249
 21
519.0983000350843
 31
0.0
  0
LINE
  5
4D66
330
1D9
100
AcDbEntity
  8
0
100
AcDbLine
 10
3470.302712418249
 20
519.0983000350843
 30
0.0
 11
3470.301892891181
 21
520.0982996992711
 31
0.0
  0
LINE
  5
4D67
330
1D9
100
AcDbEntity
  8
0
100
AcDbLine
 10
3470.310088161919
 20
510.0983030573961
 30
0.0
 11
3470.305990526547
 21
515.0983013783343
 31
0.0
  0
LINE
  5
4D68
330
1D9
100
AcDbEntity
  8
0
100
AcDbLine
 10
3470.305990526547
 20
515.0983013783343
 30
0.0
 11
3486.305985153546
 21
515.1114138115184
 31
0.0
  0
LINE
  5
4D69
330
1D9
100
AcDbEntity
  8
0
100
AcDbLine
 10
3486.305985153546
 20
515.1114138115184
 30
0.0
 11
3486.31008278892
 21
510.1114154905799
 31
0.0
  0
LINE
  5
4D6A
330
1D9
100
AcDbEntity
  8
0
100
AcDbLine
 10
3486.301887518179
 20
520.1114121324572
 30
0.0
 11
3486.302707045259
 21
519.1114124682671
 31
0.0
  0
LINE
  5
4D6B
330
1D9
100
AcDbEntity
  8
0
100
AcDbLine
 10
3486.302707045259
 20
519.1114124682671
 30
0.0
 11
3480.30598716843
 21
515.1064966490726
 31
0.0
  0
LINE
  5
4D6C
330
1D9
100
AcDbEntity
  8
0
100
AcDbLine
 10
3470.288780457998
 20
536.0982943262729
 30
0.0
 11
3470.28468282263
 21
541.0982926472115
 31
0.0
  0
LINE
  5
4D6D
330
1D9
100
AcDbEntity
  8
0
100
AcDbLine
 10
3103.0
 20
1702.45533498759
 30
0.0
 11
3103.0
 21
1943.955334987593
 31
0.0
  0
LINE
  5
4D6E
330
1D9
100
AcDbEntity
  8
0
100
AcDbLine
 10
3903.0
 20
1702.455334987591
 30
0.0
 11
3903.0
 21
1943.955334987593
 31
0.0
  0
LINE
  5
4D6F
330
1D9
100
AcDbEntity
  8
0
100
AcDbLine
 10
3123.0
 20
1925.955334987593
 30
0.0
 11
3883.0
 21
1925.955334987593
 31
0.0
  0
LINE
  5
4D73
330
1D9
100
AcDbEntity
  8
0
100
AcDbLine
 10
2155.0
 20
1689.955334987593
 30
0.0
 11
2155.0
 21
1943.955334987593
 31
0.0
  0
LINE
  5
4D74
330
1D9
100
AcDbEntity
  8
0
100
AcDbLine
 10
2895.0
 20
1689.905334987593
 30
0.0
 11
2895.0
 21
1943.955334987593
 31
0.0
  0
LINE
  5
4D75
330
1D9
100
AcDbEntity
  8
0
100
AcDbLine
 10
2175.0
 20
1925.955334987593
 30
0.0
 11
2875.0
 21
1925.955334987593
 31
0.0
  0
LINE
  5
4D79
330
1D9
100
AcDbEntity
  8
0
100
AcDbLine
 10
2368.619999999993
 20
1625.955334987593
 30
0.0
 11
2368.619999999993
 21
1571.592357047766
 31
0.0
  0
LINE
  5
4D7A
330
1D9
100
AcDbEntity
  8
0
100
AcDbLine
 10
2368.619999999993
 20
1571.592357047766
 30
0.0
 11
2368.049999999993
 21
1571.592357047766
 31
0.0
  0
LINE
  5
4D7B
330
1D9
100
AcDbEntity
  8
0
100
AcDbLine
 10
2340.999999999992
 20
1625.955334987593
 30
0.0
 11
2340.999999999992
 21
1538.455334987593
 31
0.0
  0
LINE
  5
4D7C
330
1D9
100
AcDbEntity
  8
0
100
AcDbLine
 10
2340.999999999992
 20
1538.455334987593
 30
0.0
 11
2360.341
 21
1538.455334987593
 31
0.0
  0
LINE
  5
4D7D
330
1D9
100
AcDbEntity
  8
0
100
AcDbLine
 10
2340.999999999992
 20
1625.955334987593
 30
0.0
 11
2340.999999999992
 21
1713.455334987592
 31
0.0
  0
LINE
  5
4D7E
330
1D9
100
AcDbEntity
  8
0
100
AcDbLine
 10
2340.999999999992
 20
1713.455334987592
 30
0.0
 11
2360.341
 21
1713.455334987592
 31
0.0
  0
LINE
  5
4D7F
330
1D9
100
AcDbEntity
  8
0
100
AcDbLine
 10
2368.619999999993
 20
1625.955334987593
 30
0.0
 11
2368.619999999993
 21
1680.318312927422
 31
0.0
  0
LINE
  5
4D80
330
1D9
100
AcDbEntity
  8
0
100
AcDbLine
 10
2368.619999999993
 20
1680.318312927422
 30
0.0
 11
2368.049999999993
 21
1680.318312927422
 31
0.0
  0
LINE
  5
4D81
330
1D9
100
AcDbEntity
  8
0
100
AcDbLine
 10
2681.395
 20
1625.955334987593
 30
0.0
 11
2681.395
 21
1571.592357047766
 31
0.0
  0
LINE
  5
4D82
330
1D9
100
AcDbEntity
  8
0
100
AcDbLine
 10
2681.395
 20
1571.592357047766
 30
0.0
 11
2681.965
 21
1571.592357047766
 31
0.0
  0
LINE
  5
4D83
330
1D9
100
AcDbEntity
  8
0
100
AcDbLine
 10
2709.015000000002
 20
1625.955334987593
 30
0.0
 11
2709.015000000002
 21
1538.455334987593
 31
0.0
  0
LINE
  5
4D84
330
1D9
100
AcDbEntity
  8
0
100
AcDbLine
 10
2709.015000000002
 20
1538.455334987593
 30
0.0
 11
2689.675000000001
 21
1538.455334987593
 31
0.0
  0
LINE
  5
4D85
330
1D9
100
AcDbEntity
  8
0
100
AcDbLine
 10
2653.024999999992
 20
1574.455334987593
 30
0.0
 11
2647.024999999993
 21
1570.455334987593
 31
0.0
  0
LINE
  5
4D86
330
1D9
100
AcDbEntity
  8
0
100
AcDbLine
 10
2647.024999999993
 20
1570.455334987593
 30
0.0
 11
2647.024999999993
 21
1569.718334987594
 31
0.0
  0
LINE
  5
4D87
330
1D9
100
AcDbEntity
  8
0
100
AcDbLine
 10
2647.024999999993
 20
1579.455334987593
 30
0.0
 11
2647.024999999993
 21
1574.455334987593
 31
0.0
  0
LINE
  5
4D88
330
1D9
100
AcDbEntity
  8
0
100
AcDbLine
 10
2647.024999999993
 20
1574.455334987593
 30
0.0
 11
2663.024999999999
 21
1574.455334987593
 31
0.0
  0
LINE
  5
4D89
330
1D9
100
AcDbEntity
  8
0
100
AcDbLine
 10
2663.024999999999
 20
1574.455334987593
 30
0.0
 11
2663.024999999999
 21
1579.455334987593
 31
0.0
  0
LINE
  5
4D8A
330
1D9
100
AcDbEntity
  8
0
100
AcDbLine
 10
2663.024999999999
 20
1568.955334987593
 30
0.0
 11
2663.024999999999
 21
1570.455334987593
 31
0.0
  0
LINE
  5
4D8B
330
1D9
100
AcDbEntity
  8
0
100
AcDbLine
 10
2663.024999999999
 20
1570.455334987593
 30
0.0
 11
2657.024999999999
 21
1574.455334987593
 31
0.0
  0
LINE
  5
4D8C
330
1D9
100
AcDbEntity
  8
0
100
AcDbLine
 10
2653.024999999992
 20
1677.455334987593
 30
0.0
 11
2647.024999999993
 21
1681.455334987592
 31
0.0
  0
LINE
  5
4D8D
330
1D9
100
AcDbEntity
  8
0
100
AcDbLine
 10
2647.024999999993
 20
1681.455334987592
 30
0.0
 11
2647.024999999993
 21
1682.955334987592
 31
0.0
  0
LINE
  5
4D8E
330
1D9
100
AcDbEntity
  8
0
100
AcDbLine
 10
2647.024999999993
 20
1672.455334987593
 30
0.0
 11
2647.024999999993
 21
1677.455334987593
 31
0.0
  0
LINE
  5
4D8F
330
1D9
100
AcDbEntity
  8
0
100
AcDbLine
 10
2647.024999999993
 20
1677.455334987593
 30
0.0
 11
2663.024999999999
 21
1677.455334987593
 31
0.0
  0
LINE
  5
4D90
330
1D9
100
AcDbEntity
  8
0
100
AcDbLine
 10
2663.024999999999
 20
1677.455334987593
 30
0.0
 11
2663.024999999999
 21
1672.455334987593
 31
0.0
  0
LINE
  5
4D91
330
1D9
100
AcDbEntity
  8
0
100
AcDbLine
 10
2663.024999999999
 20
1701.455334987593
 30
0.0
 11
2663.024999999999
 21
1698.955334987592
 31
0.0
  0
LINE
  5
4D92
330
1D9
100
AcDbEntity
  8
0
100
AcDbLine
 10
2663.024999999999
 20
1682.955334987592
 30
0.0
 11
2663.024999999999
 21
1681.455334987592
 31
0.0
  0
LINE
  5
4D93
330
1D9
100
AcDbEntity
  8
0
100
AcDbLine
 10
2663.024999999999
 20
1681.455334987592
 30
0.0
 11
2657.024999999999
 21
1677.455334987593
 31
0.0
  0
LINE
  5
4D94
330
1D9
100
AcDbEntity
  8
0
100
AcDbLine
 10
2647.024999999993
 20
1698.955334987592
 30
0.0
 11
2647.024999999993
 21
1701.455334987593
 31
0.0
  0
LINE
  5
4D95
330
1D9
100
AcDbEntity
  8
0
100
AcDbLine
 10
2681.395
 20
1625.955334987593
 30
0.0
 11
2681.395
 21
1680.318312927422
 31
0.0
  0
LINE
  5
4D96
330
1D9
100
AcDbEntity
  8
0
100
AcDbLine
 10
2681.395
 20
1680.318312927422
 30
0.0
 11
2681.965
 21
1680.318312927422
 31
0.0
  0
LINE
  5
4D97
330
1D9
100
AcDbEntity
  8
0
100
AcDbLine
 10
2709.015000000002
 20
1625.955334987593
 30
0.0
 11
2709.015000000002
 21
1713.455334987592
 31
0.0
  0
LINE
  5
4D98
330
1D9
100
AcDbEntity
  8
0
100
AcDbLine
 10
2709.015000000002
 20
1713.455334987592
 30
0.0
 11
2689.675000000001
 21
1713.455334987592
 31
0.0
  0
LINE
  5
4D99
330
1D9
100
AcDbEntity
  8
0
100
AcDbLine
 10
302.4999999999993
 20
700.0
 30
0.0
 11
322.4999999999993
 21
705.3589838486219
 31
0.0
  0
LINE
  5
4D9A
330
1D9
100
AcDbEntity
  8
0
100
AcDbLine
 10
302.4999999999993
 20
700.0
 30
0.0
 11
322.4999999999993
 21
694.6410161513778
 31
0.0
  0
LINE
  5
4D9B
330
1D9
100
AcDbEntity
  8
0
100
AcDbLine
 10
322.4999999999993
 20
700.0
 30
0.0
 11
302.4999999999993
 21
700.0
 31
0.0
  0
TEXT
  5
4D9C
330
1D9
100
AcDbEntity
  8
0
100
AcDbText
 10
695.0
 20
715.0
 30
0.0
 40
30.0
  1
860
100
AcDbText
  0
LINE
  5
4D9D
330
1D9
100
AcDbEntity
  8
0
100
AcDbLine
 10
1162.5
 20
700.0
 30
0.0
 11
1142.5
 21
694.6410161513778
 31
0.0
  0
LINE
  5
4D9E
330
1D9
100
AcDbEntity
  8
0
100
AcDbLine
 10
1162.5
 20
700.0
 30
0.0
 11
1142.5
 21
705.3589838486219
 31
0.0
  0
LINE
  5
4D9F
330
1D9
100
AcDbEntity
  8
0
100
AcDbLine
 10
1142.5
 20
700.0
 30
0.0
 11
1162.5
 21
700.0
 31
0.0
  0
LINE
  5
4DA0
330
1D9
100
AcDbEntity
  8
0
100
AcDbLine
 10
1620.499999999996
 20
700.0
 30
0.0
 11
1640.499999999996
 21
705.3589838486219
 31
0.0
  0
LINE
  5
4DA1
330
1D9
100
AcDbEntity
  8
0
100
AcDbLine
 10
1620.499999999996
 20
700.0
 30
0.0
 11
1640.499999999996
 21
694.6410161513778
 31
0.0
  0
LINE
  5
4DA2
330
1D9
100
AcDbEntity
  8
0
100
AcDbLine
 10
1640.499999999996
 20
700.0
 30
0.0
 11
1620.499999999996
 21
700.0
 31
0.0
  0
TEXT
  5
4DA3
330
1D9
100
AcDbEntity
  8
0
100
AcDbText
 10
1998.0
 20
715.0
 30
0.0
 40
30.0
  1
830
100
AcDbText
  0
TEXT
  5
4DA4
330
1D9
100
AcDbEntity
  8
0
100
AcDbText
 10
536.5
 20
1940.955334987593
 30
0.0
 40
30.0
  1
610
100
AcDbText
  0
LINE
  5
4DA5
330
1D9
100
AcDbEntity
  8
0
100
AcDbLine
 10
264.0000000000038
 20
1925.955334987593
 30
0.0
 11
284.0000000000038
 21
1931.314318836214
 31
0.0
  0
LINE
  5
4DA6
330
1D9
100
AcDbEntity
  8
0
100
AcDbLine
 10
264.0000000000038
 20
1925.955334987593
 30
0.0
 11
284.0000000000038
 21
1920.59635113897
 31
0.0
  0
LINE
  5
4DA7
330
1D9
100
AcDbEntity
  8
0
100
AcDbLine
 10
284.0000000000038
 20
1925.955334987593
 30
0.0
 11
264.0000000000038
 21
1925.955334987593
 31
0.0
  0
LINE
  5
4DA8
330
1D9
100
AcDbEntity
  8
0
100
AcDbLine
 10
873.9999999999961
 20
1925.955334987593
 30
0.0
 11
853.9999999999961
 21
1920.59635113897
 31
0.0
  0
LINE
  5
4DA9
330
1D9
100
AcDbEntity
  8
0
100
AcDbLine
 10
873.9999999999961
 20
1925.955334987593
 30
0.0
 11
853.9999999999961
 21
1931.314318836214
 31
0.0
  0
LINE
  5
4DAA
330
1D9
100
AcDbEntity
  8
0
100
AcDbLine
 10
853.9999999999961
 20
1925.955334987593
 30
0.0
 11
873.9999999999961
 21
1925.955334987593
 31
0.0
  0
LINE
  5
4DAB
330
1D9
100
AcDbEntity
  8
0
100
AcDbLine
 10
1177.000000000003
 20
1925.955334987593
 30
0.0
 11
1197.000000000004
 21
1931.314318836214
 31
0.0
  0
LINE
  5
4DAC
330
1D9
100
AcDbEntity
  8
0
100
AcDbLine
 10
1177.000000000003
 20
1925.955334987593
 30
0.0
 11
1197.000000000004
 21
1920.59635113897
 31
0.0
  0
LINE
  5
4DAD
330
1D9
100
AcDbEntity
  8
0
100
AcDbLine
 10
1197.000000000004
 20
1925.955334987593
 30
0.0
 11
1177.000000000003
 21
1925.955334987593
 31
0.0
  0
TEXT
  5
4DAE
330
1D9
100
AcDbEntity
  8
0
100
AcDbText
 10
1509.5
 20
1940.955334987593
 30
0.0
 40
30.0
  1
740
100
AcDbText
  0
LINE
  5
4DAF
330
1D9
100
AcDbEntity
  8
0
100
AcDbLine
 10
1916.999999999996
 20
1925.955334987593
 30
0.0
 11
1896.999999999996
 21
1920.59635113897
 31
0.0
  0
LINE
  5
4DB0
330
1D9
100
AcDbEntity
  8
0
100
AcDbLine
 10
1916.999999999996
 20
1925.955334987593
 30
0.0
 11
1896.999999999996
 21
1931.314318836214
 31
0.0
  0
LINE
  5
4DB1
330
1D9
100
AcDbEntity
  8
0
100
AcDbLine
 10
1896.999999999996
 20
1925.955334987593
 30
0.0
 11
1916.999999999996
 21
1925.955334987593
 31
0.0
  0
LINE
  5
4DB2
330
1D9
100
AcDbEntity
  8
0
100
AcDbLine
 10
2450.500000000003
 20
700.0
 30
0.0
 11
2430.500000000003
 21
694.6410161513778
 31
0.0
  0
LINE
  5
4DB3
330
1D9
100
AcDbEntity
  8
0
100
AcDbLine
 10
2450.500000000003
 20
700.0
 30
0.0
 11
2430.500000000003
 21
705.3589838486219
 31
0.0
  0
LINE
  5
4DB4
330
1D9
100
AcDbEntity
  8
0
100
AcDbLine
 10
2430.500000000003
 20
700.0
 30
0.0
 11
2450.500000000003
 21
700.0
 31
0.0
  0
LINE
  5
4DB5
330
1D9
100
AcDbEntity
  8
0
100
AcDbLine
 10
2893.5
 20
700.0
 30
0.0
 11
2913.5
 21
705.3589838486219
 31
0.0
  0
LINE
  5
4DB6
330
1D9
100
AcDbEntity
  8
0
100
AcDbLine
 10
2893.5
 20
700.0
 30
0.0
 11
2913.5
 21
694.6410161513778
 31
0.0
  0
LINE
  5
4DB7
330
1D9
100
AcDbEntity
  8
0
100
AcDbLine
 10
2913.5
 20
700.0
 30
0.0
 11
2893.5
 21
700.0
 31
0.0
  0
TEXT
  5
4DB8
330
1D9
100
AcDbEntity
  8
0
100
AcDbText
 10
3301.0
 20
715.0
 30
0.0
 40
30.0
  1
890
100
AcDbText
  0
LINE
  5
4DB9
330
1D9
100
AcDbEntity
  8
0
100
AcDbLine
 10
3783.499999999998
 20
700.0
 30
0.0
 11
3763.5
 21
694.6410161513778
 31
0.0
  0
LINE
  5
4DBA
330
1D9
100
AcDbEntity
  8
0
100
AcDbLine
 10
3783.499999999998
 20
700.0
 30
0.0
 11
3763.5
 21
705.3589838486219
 31
0.0
  0
LINE
  5
4DBB
330
1D9
100
AcDbEntity
  8
0
100
AcDbLine
 10
3763.5
 20
700.0
 30
0.0
 11
3783.499999999998
 21
700.0
 31
0.0
  0
TEXT
  5
4DBC
330
1D9
100
AcDbEntity
  8
0
100
AcDbText
 10
2487.5
 20
1940.955334987593
 30
0.0
 40
30.0
  1
740
100
AcDbText
  0
LINE
  5
4DBD
330
1D9
100
AcDbEntity
  8
0
100
AcDbLine
 10
2155.0
 20
1925.955334987593
 30
0.0
 11
2175.0
 21
1931.314318836214
 31
0.0
  0
LINE
  5
4DBE
330
1D9
100
AcDbEntity
  8
0
100
AcDbLine
 10
2155.0
 20
1925.955334987593
 30
0.0
 11
2175.0
 21
1920.59635113897
 31
0.0
  0
LINE
  5
4DBF
330
1D9
100
AcDbEntity
  8
0
100
AcDbLine
 10
2175.0
 20
1925.955334987593
 30
0.0
 11
2155.0
 21
1925.955334987593
 31
0.0
  0
LINE
  5
4DC0
330
1D9
100
AcDbEntity
  8
0
100
AcDbLine
 10
2895.0
 20
1925.955334987593
 30
0.0
 11
2875.0
 21
1920.59635113897
 31
0.0
  0
LINE
  5
4DC1
330
1D9
100
AcDbEntity
  8
0
100
AcDbLine
 10
2895.0
 20
1925.955334987593
 30
0.0
 11
2875.0
 21
1931.314318836214
 31
0.0
  0
LINE
  5
4DC2
330
1D9
100
AcDbEntity
  8
0
100
AcDbLine
 10
2875.0
 20
1925.955334987593
 30
0.0
 11
2895.0
 21
1925.955334987593
 31
0.0
  0
LINE
  5
4DC3
330
1D9
100
AcDbEntity
  8
0
100
AcDbLine
 10
3103.0
 20
1925.955334987593
 30
0.0
 11
3123.0
 21
1931.314318836214
 31
0.0
  0
LINE
  5
4DC4
330
1D9
100
AcDbEntity
  8
0
100
AcDbLine
 10
3103.0
 20
1925.955334987593
 30
0.0
 11
3123.0
 21
1920.59635113897
 31
0.0
  0
LINE
  5
4DC5
330
1D9
100
AcDbEntity
  8
0
100
AcDbLine
 10
3123.0
 20
1925.955334987593
 30
0.0
 11
3103.0
 21
1925.955334987593
 31
0.0
  0
TEXT
  5
4DC6
330
1D9
100
AcDbEntity
  8
0
100
AcDbText
 10
3468.0
 20
1940.955334987593
 30
0.0
 40
30.0
  1
800
100
AcDbText
  0
LINE
  5
4DC7
330
1D9
100
AcDbEntity
  8
0
100
AcDbLine
 10
3903.0
 20
1925.955334987593
 30
0.0
 11
3883.0
 21
1920.59635113897
 31
0.0
  0
LINE
  5
4DC8
330
1D9
100
AcDbEntity
  8
0
100
AcDbLine
 10
3903.0
 20
1925.955334987593
 30
0.0
 11
3883.0
 21
1931.314318836214
 31
0.0
  0
LINE
  5
4DC9
330
1D9
100
AcDbEntity
  8
0
100
AcDbLine
 10
3883.0
 20
1925.955334987593
 30
0.0
 11
3903.0
 21
1925.955334987593
 31
0.0
  0
ENDSEC
  0
SECTION
  2
OBJECTS
  0
DICTIONARY
  5
1CD
330
0
100
AcDbDictionary
  3
ACAD_GROUP
350
1CE
  3
ACAD_LAYOUT
350
2DE
  3
ACAD_MLINESTYLE
350
1CF
  3
ACAD_PLOTSETTINGS
350
2DF
1001
ACAD
1000
TREAT_AS_HARD
1070
     0
1000
TREAT_AS_HARD
1070
     0
  0
DICTIONARY
  5
2738
330
1C3
100
AcDbDictionary
  3
ACAD_LAYERSTATES
350
2739
1001
ACAD
1000
TREAT_AS_HARD
1070
     1
1000
TREAT_AS_HARD
1070
     0
  0
DICTIONARY
  5
4DD0
330
1D9
100
AcDbDictionary
  3
ACAD_LAYOUTSELFREF
350
4E06
1001
ACAD
1000
TREAT_AS_HARD
1070
     0
  0
DICTIONARY
  5
4DCE
330
1D6
100
AcDbDictionary
  3
ACAD_LAYOUTSELFREF
350
4E05
1001
ACAD
1000
TREAT_AS_HARD
1070
     0
  0
DICTIONARY
  5
1CE
102
{ACAD_REACTORS
330
1CD
102
}
330
1CD
100
AcDbDictionary
1001
ACAD
1000
TREAT_AS_HARD
1070
     0
1000
TREAT_AS_HARD
1070
     0
  0
DICTIONARY
  5
2DE
102
{ACAD_REACTORS
330
1CD
102
}
330
1CD
100
AcDbDictionary
1001
ACAD
1000
TREAT_AS_HARD
1070
     0
1000
TREAT_AS_HARD
1070
     0
  0
DICTIONARY
  5
1CF
102
{ACAD_REACTORS
330
1CD
102
}
330
1CD
100
AcDbDictionary
  3
STANDARD
350
1DC
1001
ACAD
1000
TREAT_AS_HARD
1070
     0
1000
TREAT_AS_HARD
1070
     0
  0
DICTIONARY
  5
2DF
102
{ACAD_REACTORS
330
1CD
102
}
330
1CD
100
AcDbDictionary
1001
ACAD
1000
TREAT_AS_HARD
1070
     0
1000
TREAT_AS_HARD
1070
     0
  0
DICTIONARY
  5
2739
102
{ACAD_REACTORS
330
2738
102
}
330
2738
100
AcDbDictionary
1001
ACAD
1000
TREAT_AS_HARD
1070
     0
1000
TREAT_AS_HARD
1070
     0
  0
XRECORD
  5
4E06
102
{ACAD_REACTORS
330
4DD0
102
}
330
4DD0
100
AcDbXrecord
340
1D9
  0
XRECORD
  5
4E05
102
{ACAD_REACTORS
330
4DCE
102
}
330
4DCE
100
AcDbXrecord
340
1D6
  0
MLINESTYLE
  5
1DC
102
{ACAD_REACTORS
330
1CF
102
}
330
1CF
100
AcDbMlineStyle
  2
STANDARD
 70
     0
  3

 62
     0
 51
90.0
 52
90.0
 71
     2
 49
0.5
 62
   256
  6
BYLAYER
 49
-0.5
 62
   256
  6
BYLAYER
  0
ENDSEC
  0
EOF
