  0
SECTION
  2
HEADER
  9
$ACADVER
  1
AC1012
  9
$DWGCODEPAGE
  3
dos932
  9
$INSBASE
 10
0.0
 20
0.0
 30
0.0
  9
$EXTMIN
 10
30.0
 20
0.0
 30
0.0
  9
$EXTMAX
 10
3990.0
 20
2840.0
 30
0.0
  9
$LIMMIN
 10
0.0
 20
0.0
  9
$LIMMAX
 10
4200.0
 20
2970.0
  9
$ORTHOMODE
 70
     0
  9
$REGENMODE
 70
     1
  9
$FILLMODE
 70
     1
  9
$QTEXTMODE
 70
     0
  9
$MIRRTEXT
 70
     0
  9
$DRAGMODE
 70
     2
  9
$LTSCALE
 40
80.0
  9
$OSMODE
 70
    37
  9
$ATTMODE
 70
     1
  9
$TEXTSIZE
 40
30.0
  9
$TRACEWID
 40
0.05
  9
$TEXTSTYLE
  7
STANDARD
  9
$CLAYER
  8
0
  9
$CELTYPE
  6
BYLAYER
  9
$CECOLOR
 62
   256
  9
$CELTSCALE
 40
1.0
  9
$DELOBJ
 70
     1
  9
$DISPSILH
 70
     0
  9
$DIMSCALE
 40
10.0
  9
$DIMASZ
 40
2.0
  9
$DIMEXO
 40
0.1
  9
$DIMDLI
 40
7.0
  9
$DIMRND
 40
0.0
  9
$DIMDLE
 40
0.0
  9
$DIMEXE
 40
1.8
  9
$DIMTP
 40
0.0
  9
$DIMTM
 40
0.0
  9
$DIMTXT
 40
3.0
  9
$DIMCEN
 40
0.1
  9
$DIMTSZ
 40
0.0
  9
$DIMTOL
 70
     0
  9
$DIMLIM
 70
     0
  9
$DIMTIH
 70
     0
  9
$DIMTOH
 70
     0
  9
$DIMSE1
 70
     0
  9
$DIMSE2
 70
     0
  9
$DIMTAD
 70
     0
  9
$DIMZIN
 70
     9
  9
$DIMBLK
  1
YAZ1
  9
$DIMASO
 70
     1
  9
$DIMSHO
 70
     1
  9
$DIMPOST
  1

  9
$DIMAPOST
  1

  9
$DIMALT
 70
     0
  9
$DIMALTD
 70
     2
  9
$DIMALTF
 40
25.4
  9
$DIMLFAC
 40
1.0
  9
$DIMTOFL
 70
     1
  9
$DIMTVP
 40
1.0
  9
$DIMTIX
 70
     0
  9
$DIMSOXD
 70
     0
  9
$DIMSAH
 70
     1
  9
$DIMBLK1
  1
YAZ1
  9
$DIMBLK2
  1
YAZ1
  9
$DIMSTYLE
  2
YAZ1
  9
$DIMCLRD
 70
   256
  9
$DIMCLRE
 70
   256
  9
$DIMCLRT
 70
   256
  9
$DIMTFAC
 40
1.0
  9
$DIMGAP
 40
0.0
  9
$DIMJUST
 70
     0
  9
$DIMSD1
 70
     0
  9
$DIMSD2
 70
     0
  9
$DIMTOLJ
 70
     1
  9
$DIMTZIN
 70
     9
  9
$DIMALTZ
 70
     9
  9
$DIMALTTZ
 70
     9
  9
$DIMFIT
 70
     3
  9
$DIMUPT
 70
     0
  9
$DIMUNIT
 70
     2
  9
$DIMDEC
 70
     3
  9
$DIMTDEC
 70
     3
  9
$DIMALTU
 70
     2
  9
$DIMALTTD
 70
     2
  9
$DIMTXSTY
  7
STANDARD
  9
$DIMAUNIT
 70
     0
  9
$LUNITS
 70
     2
  9
$LUPREC
 70
     3
  9
$SKETCHINC
 40
0.1
  9
$FILLETRAD
 40
0.0
  9
$AUNITS
 70
     0
  9
$AUPREC
 70
     2
  9
$MENU
  1
amecex
  9
$ELEVATION
 40
0.0
  9
$PELEVATION
 40
0.0
  9
$THICKNESS
 40
0.0
  9
$LIMCHECK
 70
     0
  9
$BLIPMODE
 70
     0
  9
$CHAMFERA
 40
0.0
  9
$CHAMFERB
 40
0.0
  9
$CHAMFERC
 40
0.0
  9
$CHAMFERD
 40
0.0
  9
$SKPOLY
 70
     0
  9
$TDCREATE
 40
2452593.633064710
  9
$TDUPDATE
 40
2456045.483995521
  9
$TDINDWG
 40
0.6042333912
  9
$TDUSRTIMER
 40
0.6042332755
  9
$USRTIMER
 70
     1
  9
$ANGBASE
 50
0.0
  9
$ANGDIR
 70
     0
  9
$PDMODE
 70
     0
  9
$PDSIZE
 40
0.0
  9
$PLINEWID
 40
0.0
  9
$COORDS
 70
     0
  9
$SPLFRAME
 70
     0
  9
$SPLINETYPE
 70
     6
  9
$SPLINESEGS
 70
     8
  9
$ATTDIA
 70
     0
  9
$ATTREQ
 70
     1
  9
$HANDLING
 70
-16383
  9
$HANDSEED
  5
60B1
  9
$SURFTAB1
 70
     6
  9
$SURFTAB2
 70
     6
  9
$SURFTYPE
 70
     6
  9
$SURFU
 70
     6
  9
$SURFV
 70
     6
  9
$UCSNAME
  2

  9
$UCSORG
 10
0.0
 20
0.0
 30
0.0
  9
$UCSXDIR
 10
1.0
 20
0.0
 30
0.0
  9
$UCSYDIR
 10
0.0
 20
1.0
 30
0.0
  9
$PUCSNAME
  2

  9
$PUCSORG
 10
0.0
 20
0.0
 30
0.0
  9
$PUCSXDIR
 10
1.0
 20
0.0
 30
0.0
  9
$PUCSYDIR
 10
0.0
 20
1.0
 30
0.0
  9
$USERI1
 70
     0
  9
$USERI2
 70
     0
  9
$USERI3
 70
     0
  9
$USERI4
 70
     0
  9
$USERI5
 70
     0
  9
$USERR1
 40
30.0
  9
$USERR2
 40
0.0
  9
$USERR3
 40
0.0
  9
$USERR4
 40
0.0
  9
$USERR5
 40
0.0
  9
$WORLDVIEW
 70
     1
  9
$SHADEDGE
 70
     3
  9
$SHADEDIF
 70
    70
  9
$TILEMODE
 70
     1
  9
$MAXACTVP
 70
    16
  9
$PINSBASE
 10
0.0
 20
0.0
 30
0.0
  9
$PLIMCHECK
 70
     0
  9
$PEXTMIN
 10
1.000000000000000E+20
 20
1.000000000000000E+20
 30
1.000000000000000E+20
  9
$PEXTMAX
 10
-1.000000000000000E+20
 20
-1.000000000000000E+20
 30
-1.000000000000000E+20
  9
$PLIMMIN
 10
0.0
 20
0.0
  9
$PLIMMAX
 10
12.0
 20
9.0
  9
$UNITMODE
 70
     0
  9
$VISRETAIN
 70
     0
  9
$PLINEGEN
 70
     0
  9
$PSLTSCALE
 70
     0
  9
$TREEDEPTH
 70
  3020
  9
$PICKSTYLE
 70
     1
  9
$CMLSTYLE
  2
STANDARD
  9
$CMLJUST
 70
     0
  9
$CMLSCALE
 40
1.0
  9
$SAVEIMAGES
 70
     1
  0
ENDSEC
  0
SECTION
  2
CLASSES
  0
CLASS
  1
ACDBDICTIONARYWDFLT
  2
AcDbDictionaryWithDefault
  3
AutoCAD 2000
 90
    32768
280
     0
281
     0
  0
CLASS
  1
ACDBPLACEHOLDER
  2
AcDbPlaceHolder
  3
AutoCAD 2000
 90
    32768
280
     0
281
     0
  0
CLASS
  1
LAYOUT
  2
AcDbLayout
  3
AutoCAD 2000
 90
    32768
280
     0
281
     0
  0
CLASS
  1
DICTIONARYVAR
  2
AcDbDictionaryVar
  3
AutoCAD 2000
 90
    32768
280
     0
281
     0
  0
CLASS
  1
LONG_TRANSACTION
  2
AcDbLongTransaction
  3
AutoCAD 2000
 90
    32768
280
     0
281
     0
  0
CLASS
  1
LWPOLYLINE
  2
AcDbPolyline
  3
AutoCAD 2000
 90
    32768
280
     0
281
     1
  0
CLASS
  1
HATCH
  2
AcDbHatch
  3
AutoCAD 2000
 90
    32768
280
     0
281
     1
  0
CLASS
  1
XRECORD
  2
AcDbXrecord
  3
AutoCAD 2000
 90
    32768
280
     0
281
     0
  0
CLASS
  1
LONG_TRANSACTION
  2
AcDbLongTransaction
  3
AutoCAD 2000
 90
    32768
280
     0
281
     0
  0
CLASS
  1
LWPOLYLINE
  2
AcDbPolyline
  3
AutoCAD 2000
 90
    32768
280
     0
281
     1
  0
CLASS
  1
HATCH
  2
AcDbHatch
  3
AutoCAD 2000
 90
    32768
280
     0
281
     1
  0
CLASS
  1
XRECORD
  2
AcDbXrecord
  3
AutoCAD 2000
 90
    32768
280
     0
281
     0
  0
ENDSEC
  0
SECTION
  2
TABLES
  0
TABLE
  2
VPORT
  5
1C9
330
0
100
AcDbSymbolTable
 70
     2
  0
VPORT
  5
60AE
330
1C9
100
AcDbSymbolTableRecord
100
AcDbViewportTableRecord
  2
*ACTIVE
 70
     0
 10
0.0
 20
0.0
 11
1.0
 21
1.0
 12
2758.045024045547
 22
1026.05881932828
 13
0.0
 23
0.0
 14
1.0
 24
1.0
 15
0.0
 25
0.0
 16
0.0
 26
0.0
 36
1.0
 17
0.0
 27
0.0
 37
0.0
 40
4156.454130755611
 41
1.821090047393364
 42
50.0
 43
0.0
 44
0.0
 50
0.0
 51
0.0
 71
     0
 72
   100
 73
     1
 74
     1
 75
     0
 76
     0
 77
     0
 78
     0
  0
ENDTAB
  0
TABLE
  2
LTYPE
  5
1C6
330
0
100
AcDbSymbolTable
 70
     2
  0
LTYPE
  5
1D3
330
1C6
100
AcDbSymbolTableRecord
100
AcDbLinetypeTableRecord
  2
BYBLOCK
 70
     0
  3

 72
    65
 73
     0
 40
0.0
  0
LTYPE
  5
1D4
330
1C6
100
AcDbSymbolTableRecord
100
AcDbLinetypeTableRecord
  2
BYLAYER
 70
     0
  3

 72
    65
 73
     0
 40
0.0
  0
LTYPE
  5
1D5
330
1C6
100
AcDbSymbolTableRecord
100
AcDbLinetypeTableRecord
  2
CONTINUOUS
 70
     0
  3
実線
 72
    65
 73
     0
 40
0.0
  0
ENDTAB
  0
TABLE
  2
LAYER
  5
1C3
102
{ACAD_XDICTIONARY
360
2738
102
}
330
0
100
AcDbSymbolTable
 70
     5
  0
LAYER
  5
1D0
330
1C3
100
AcDbSymbolTableRecord
100
AcDbLayerTableRecord
  2
0
 70
     0
 62
     7
  6
CONTINUOUS
  0
ENDTAB
  0
TABLE
  2
STYLE
  5
1C4
330
0
100
AcDbSymbolTable
 70
     1
  0
STYLE
  5
1D1
330
1C4
100
AcDbSymbolTableRecord
100
AcDbTextStyleTableRecord
  2
STANDARD
 70
     0
 40
0.0
 41
1.0
 50
0.0
 71
     0
 42
30.0
  3
TXT
  4
BIGFONT
  0
ENDTAB
  0
TABLE
  2
VIEW
  5
1C7
330
0
100
AcDbSymbolTable
 70
     0
  0
ENDTAB
  0
TABLE
  2
UCS
  5
1C8
330
0
100
AcDbSymbolTable
 70
     0
  0
ENDTAB
  0
TABLE
  2
APPID
  5
1CA
330
0
100
AcDbSymbolTable
 70
     2
  0
APPID
  5
1D2
330
1CA
100
AcDbSymbolTableRecord
100
AcDbRegAppTableRecord
  2
ACAD
 70
     0
  0
APPID
  5
286
330
1CA
100
AcDbSymbolTableRecord
100
AcDbRegAppTableRecord
  2
ACE-LT__COPYRIGHT_TRIALSOFT-JPN
 70
     0
  0
ENDTAB
  0
TABLE
  2
DIMSTYLE
  5
1CB
330
0
100
AcDbSymbolTable
 70
     1
  0
DIMSTYLE
105
1F1
330
1CB
100
AcDbSymbolTableRecord
100
AcDbDimStyleTableRecord
  2
YAZ1
 70
     0
  3

  4

  5
YAZ1
  6
YAZ1
  7
YAZ1
 40
10.0
 41
2.0
 42
0.1
 43
7.0
 44
1.8
 45
0.0
 46
0.0
 47
0.0
 48
0.0
140
3.0
141
0.1
142
0.0
143
25.4
144
1.0
145
1.0
146
1.0
147
0.0
 71
     0
 72
     0
 73
     0
 74
     0
 75
     0
 76
     0
 77
     0
 78
     9
170
     0
171
     2
172
     1
173
     1
174
     0
175
     0
176
   256
177
   256
178
   256
270
     2
271
     3
272
     3
273
     2
274
     2
340
1D1
275
     0
280
     0
281
     0
282
     0
283
     1
284
     9
285
     9
286
     9
287
     3
288
     0
  0
ENDTAB
  0
TABLE
  2
BLOCK_RECORD
  5
1C2
330
0
100
AcDbSymbolTable
 70
     1
  0
BLOCK_RECORD
  5
1D9
102
{ACAD_XDICTIONARY
360
607A
102
}
330
1C2
100
AcDbSymbolTableRecord
100
AcDbBlockTableRecord
  2
*MODEL_SPACE
  0
BLOCK_RECORD
  5
1D6
102
{ACAD_XDICTIONARY
360
6078
102
}
330
1C2
100
AcDbSymbolTableRecord
100
AcDbBlockTableRecord
  2
*PAPER_SPACE
  0
BLOCK_RECORD
  5
254
330
1C2
100
AcDbSymbolTableRecord
100
AcDbBlockTableRecord
  2
YAZ1
  0
ENDTAB
  0
ENDSEC
  0
SECTION
  2
BLOCKS
  0
BLOCK
  5
20A
330
1D9
100
AcDbEntity
  8
0
100
AcDbBlockBegin
  2
*MODEL_SPACE
 70
     0
 10
0.0
 20
0.0
 30
0.0
  3
*MODEL_SPACE
  1

  0
ENDBLK
  5
20B
330
1D9
100
AcDbEntity
  8
0
100
AcDbBlockEnd
  0
BLOCK
  5
208
330
1D6
100
AcDbEntity
 67
     1
  8
0
100
AcDbBlockBegin
  2
*PAPER_SPACE
 70
     0
 10
0.0
 20
0.0
 30
0.0
  3
*PAPER_SPACE
  1

  0
ENDBLK
  5
209
330
1D6
100
AcDbEntity
 67
     1
  8
0
100
AcDbBlockEnd
  0
BLOCK
  5
258
330
254
100
AcDbEntity
  8
0
100
AcDbBlockBegin
  2
YAZ1
 70
     0
 10
0.0
 20
0.0
 30
0.0
  3
YAZ1
  1

  0
LINE
  5
255
330
254
100
AcDbEntity
  8
0
100
AcDbLine
 10
0.0
 20
0.0
 30
0.0
 11
-1.0
 21
-0.2679491924311037
 31
0.0
  0
LINE
  5
256
330
254
100
AcDbEntity
  8
0
100
AcDbLine
 10
0.0
 20
0.0
 30
0.0
 11
-1.0
 21
0.2679491924311037
 31
0.0
  0
LINE
  5
257
330
254
100
AcDbEntity
  8
0
100
AcDbLine
 10
-1.0
 20
0.0
 30
0.0
 11
0.0
 21
0.0
 31
0.0
  0
ENDBLK
  5
259
330
254
100
AcDbEntity
  8
0
100
AcDbBlockEnd
  0
ENDSEC
  0
SECTION
  2
ENTITIES
  0
LINE
  5
3591
330
1D9
100
AcDbEntity
  8
0
100
AcDbLine
 10
80.0
 20
2450.0
 30
0.0
 11
3990.0
 21
2450.0
 31
0.0
  0
LINE
  5
359E
330
1D9
100
AcDbEntity
  8
0
100
AcDbLine
 10
3990.0
 20
0.0
 30
0.0
 11
80.0
 21
0.0
 31
0.0
  0
LINE
  5
359F
330
1D9
100
AcDbEntity
  8
0
100
AcDbLine
 10
80.0
 20
2840.0
 30
0.0
 11
3990.0
 21
2840.0
 31
0.0
  0
LINE
  5
35A1
330
1D9
100
AcDbEntity
  8
0
100
AcDbLine
 10
80.0
 20
0.0
 30
0.0
 11
80.0
 21
2840.0
 31
0.0
  0
LINE
  5
372B
330
1D9
100
AcDbEntity
  8
0
100
AcDbLine
 10
3990.0
 20
2840.0
 30
0.0
 11
3990.0
 21
0.0
 31
0.0
  0
TEXT
  5
3BAA
330
1D9
100
AcDbEntity
  8
0
100
AcDbText
 10
195.1116189770246
 20
2608.88260459352
 30
0.0
 40
67.91563275434242
  1
フレキベンダー給水用 〔偏芯量：200mm　JIS 10kフランジ〕
100
AcDbText
  0
TEXT
  5
3BAD
330
1D9
100
AcDbEntity
  8
0
100
AcDbText
 10
2859.582929673814
 20
2619.829270159938
 30
0.0
 40
48.51116625310172
  1
内面塗装：エポキシ樹脂粉体塗装
100
AcDbText
  0
TEXT
  5
3BAE
330
1D9
100
AcDbEntity
  8
0
100
AcDbText
 10
2859.582929673814
 20
2512.619782322264
 30
0.0
 40
48.51116625310172
  1
接合方式：フランジ接合
100
AcDbText
  0
TEXT
  5
3BAF
330
1D9
100
AcDbEntity
  8
0
100
AcDbText
 10
2859.582929673814
 20
2727.993337267484
 30
0.0
 40
48.51116625310172
  1
材質：FCD450
100
AcDbText
  0
LINE
  5
3BC3
330
1D9
100
AcDbEntity
  8
0
100
AcDbLine
 10
1384.0
 20
2449.999999999999
 30
0.0
 11
1384.0
 21
0.0
 31
0.0
  0
LINE
  5
3BC4
330
1D9
100
AcDbEntity
  8
0
100
AcDbLine
 10
2686.999999999999
 20
2449.999999999999
 30
0.0
 11
2687.0
 21
0.0
 31
0.0
  0
TEXT
  5
3C69
330
1D9
100
AcDbEntity
  8
0
100
AcDbText
 10
372.3363820475824
 20
2246.690716480375
 30
0.0
 40
48.51116625310172
  1
品番：NFB50A-200FF
100
AcDbText
  0
TEXT
  5
3C6A
330
1D9
100
AcDbEntity
  8
0
100
AcDbText
 10
530.6226774087281
 20
2319.363414287086
 30
0.0
 40
48.51116625310172
  1
呼び径：50A
100
AcDbText
  0
TEXT
  5
3C6C
330
1D9
100
AcDbEntity
  8
0
100
AcDbText
 10
1833.622677408728
 20
2319.363414287086
 30
0.0
 40
48.51116625310172
  1
呼び径：65A
100
AcDbText
  0
TEXT
  5
3C6D
330
1D9
100
AcDbEntity
  8
0
100
AcDbText
 10
1675.336382047581
 20
2246.690716480375
 30
0.0
 40
48.51116625310172
  1
品番：NFB65A-200FF
100
AcDbText
  0
TEXT
  5
3C70
330
1D9
100
AcDbEntity
  8
0
100
AcDbText
 10
2978.336382047582
 20
2246.690716480375
 30
0.0
 40
48.51116625310172
  1
品番：NFB80A-200FF
100
AcDbText
  0
TEXT
  5
3C71
330
1D9
100
AcDbEntity
  8
0
100
AcDbText
 10
3136.622677408728
 20
2319.363414287086
 30
0.0
 40
48.51116625310172
  1
呼び径：80A
100
AcDbText
  0
LINE
  5
57CC
330
1D9
100
AcDbEntity
  8
0
100
AcDbLine
 10
1274.5
 20
1113.044665012407
 30
0.0
 11
1274.5
 21
1008.044665012407
 31
0.0
  0
LINE
  5
57CD
330
1D9
100
AcDbEntity
  8
0
100
AcDbLine
 10
1142.5
 20
1129.044665012407
 30
0.0
 11
1142.5
 21
887.0446650124073
 31
0.0
  0
LINE
  5
57CE
330
1D9
100
AcDbEntity
  8
0
100
AcDbLine
 10
322.5000000000004
 20
1129.044665012407
 30
0.0
 11
322.5000000000004
 21
887.0446650124073
 31
0.0
  0
LINE
  5
57CF
330
1D9
100
AcDbEntity
  8
0
100
AcDbLine
 10
1292.499999999998
 20
1008.044665012407
 30
0.0
 11
1292.499999999998
 21
1113.044665012407
 31
0.0
  0
LINE
  5
57D0
330
1D9
100
AcDbEntity
  8
0
100
AcDbLine
 10
172.5000000000004
 20
1008.044665012407
 30
0.0
 11
172.5000000000004
 21
1113.044665012409
 31
0.0
  0
LINE
  5
57D1
330
1D9
100
AcDbEntity
  8
0
100
AcDbLine
 10
190.5000000000004
 20
1113.044665012409
 30
0.0
 11
190.5000000000004
 21
1008.044665012407
 31
0.0
  0
LINE
  5
57D2
330
1D9
100
AcDbEntity
  8
0
100
AcDbLine
 10
1165.579999999999
 20
1115.044665012407
 30
0.0
 11
1165.579999999999
 21
1008.044665012407
 31
0.0
  0
ARC
  5
57D3
330
1D9
100
AcDbEntity
  8
0
100
AcDbCircle
 10
1142.51
 20
1008.034665012407
 30
0.0
 40
99.0
100
AcDbArc
 50
40.47580000002734
 51
76.51919999998749
  0
LINE
  5
57D4
330
1D9
100
AcDbEntity
  8
0
100
AcDbLine
 10
1081.499999999999
 20
1008.044665012407
 30
0.0
 11
1081.499999999999
 21
1119.044665012407
 31
0.0
  0
LINE
  5
57D5
330
1D9
100
AcDbEntity
  8
0
100
AcDbLine
 10
1142.5
 20
1115.114665012407
 30
0.0
 11
1142.5
 21
1008.044665012407
 31
0.0
  0
LINE
  5
57D6
330
1D9
100
AcDbEntity
  8
0
100
AcDbLine
 10
1081.499999999999
 20
1008.044665012407
 30
0.0
 11
1081.499999999999
 21
1099.044665012407
 31
0.0
  0
LINE
  5
57D7
330
1D9
100
AcDbEntity
  8
0
100
AcDbLine
 10
299.4299999999988
 20
1115.044665012407
 30
0.0
 11
299.4299999999988
 21
1008.044665012407
 31
0.0
  0
ARC
  5
57D8
330
1D9
100
AcDbEntity
  8
0
100
AcDbCircle
 10
322.5000000000004
 20
1008.034665012407
 30
0.0
 40
99.0
100
AcDbArc
 50
103.4800000000364
 51
139.524000000029
  0
LINE
  5
57D9
330
1D9
100
AcDbEntity
  8
0
100
AcDbLine
 10
383.5000000000004
 20
1008.044665012407
 30
0.0
 11
383.5000000000004
 21
1119.044665012407
 31
0.0
  0
LINE
  5
57DA
330
1D9
100
AcDbEntity
  8
0
100
AcDbLine
 10
322.5000000000004
 20
1115.114665012407
 30
0.0
 11
322.5000000000004
 21
1008.044665012407
 31
0.0
  0
LINE
  5
57DB
330
1D9
100
AcDbEntity
  8
0
100
AcDbLine
 10
383.5000000000004
 20
1008.044665012407
 30
0.0
 11
383.5000000000004
 21
1099.044665012407
 31
0.0
  0
ARC
  5
57DC
330
1D9
100
AcDbEntity
  8
0
100
AcDbCircle
 10
1018.499999999999
 20
1084.544665012407
 30
0.0
 40
10.0
100
AcDbArc
 50
0.0
 51
90.0
  0
ARC
  5
57DD
330
1D9
100
AcDbEntity
  8
0
100
AcDbCircle
 10
998.4999999999997
 20
1084.544665012407
 30
0.0
 40
10.0
100
AcDbArc
 50
90.0
 51
180.0
  0
ARC
  5
57DF
330
1D9
100
AcDbEntity
  8
0
100
AcDbCircle
 10
1289.740000000002
 20
67.04466501240722
 30
0.0
 40
15.0
100
AcDbArc
 50
94.02399999999593
 51
131.9229999999849
  0
ARC
  5
57E0
330
1D9
100
AcDbEntity
  8
0
100
AcDbCircle
 10
1289.740000000002
 20
317.0446650124071
 30
0.0
 40
15.0
100
AcDbArc
 50
228.077000000015
 51
265.9760000000039
  0
LINE
  5
57E1
330
1D9
100
AcDbEntity
  8
0
100
AcDbLine
 10
2753.500000000001
 20
1008.044665012407
 30
0.0
 11
3923.5
 21
1008.044665012407
 31
0.0
  0
LINE
  5
57E2
330
1D9
100
AcDbEntity
  8
0
100
AcDbLine
 10
117.5000000000012
 20
192.0446650124072
 30
0.0
 11
1347.509999999997
 21
192.0446650124072
 31
0.0
  0
LINE
  5
57E3
330
1D9
100
AcDbEntity
  8
0
100
AcDbLine
 10
404.5000000000004
 20
82.04466501240721
 30
0.0
 11
422.5000000000012
 21
71.54466501240722
 31
0.0
  0
LINE
  5
57E4
330
1D9
100
AcDbEntity
  8
0
100
AcDbLine
 10
404.5000000000004
 20
302.0446650124071
 30
0.0
 11
422.5000000000012
 21
312.5446650124071
 31
0.0
  0
LINE
  5
57E6
330
1D9
100
AcDbEntity
  8
0
100
AcDbLine
 10
149.5000000000013
 20
357.0446650124071
 30
0.0
 11
149.5000000000013
 21
192.0446650124072
 31
0.0
  0
LINE
  5
57E7
330
1D9
100
AcDbEntity
  8
0
100
AcDbLine
 10
287.5000000000003
 20
369.0446650124071
 30
0.0
 11
287.5000000000003
 21
15.034665012407
 31
0.0
  0
LINE
  5
57E8
330
1D9
100
AcDbEntity
  8
0
100
AcDbLine
 10
127.5000000000003
 20
192.0446650124072
 30
0.0
 11
127.5000000000003
 21
357.0446650124071
 31
0.0
  0
LINE
  5
57E9
330
1D9
100
AcDbEntity
  8
0
100
AcDbLine
 10
367.5000000000013
 20
192.0446650124072
 30
0.0
 11
367.5000000000013
 21
359.0446650124071
 31
0.0
  0
LINE
  5
57EA
330
1D9
100
AcDbEntity
  8
0
100
AcDbLine
 10
287.5000000000003
 20
192.0446650124072
 30
0.0
 11
287.5000000000003
 21
354.0446650124071
 31
0.0
  0
LINE
  5
57EB
330
1D9
100
AcDbEntity
  8
0
100
AcDbLine
 10
261.5599999999999
 20
354.0446650124071
 30
0.0
 11
261.5599999999999
 21
192.0446650124072
 31
0.0
  0
LINE
  5
57EC
330
1D9
100
AcDbEntity
  8
0
100
AcDbLine
 10
176.5000000000004
 20
302.0960062096913
 30
0.0
 11
176.5000000000004
 21
192.0446650124072
 31
0.0
  0
ARC
  5
57ED
330
1D9
100
AcDbEntity
  8
0
100
AcDbCircle
 10
287.5099999999997
 20
192.0446650124072
 30
0.0
 40
153.0
100
AcDbArc
 50
228.2940000000056
 51
260.2351000000168
  0
LINE
  5
57EE
330
1D9
100
AcDbEntity
  8
0
100
AcDbLine
 10
149.5000000000013
 20
27.04466501240721
 30
0.0
 11
149.5000000000013
 21
192.0446650124072
 31
0.0
  0
LINE
  5
57EF
330
1D9
100
AcDbEntity
  8
0
100
AcDbLine
 10
127.5000000000003
 20
192.0446650124072
 30
0.0
 11
127.5000000000003
 21
27.04466501240721
 31
0.0
  0
LINE
  5
57F0
330
1D9
100
AcDbEntity
  8
0
100
AcDbLine
 10
176.5000000000004
 20
81.99332381512297
 30
0.0
 11
176.5000000000004
 21
192.0446650124072
 31
0.0
  0
LINE
  5
57F1
330
1D9
100
AcDbEntity
  8
0
100
AcDbLine
 10
127.5000000000003
 20
27.04466501240721
 30
0.0
 11
149.5000000000013
 21
27.04466501240721
 31
0.0
  0
LINE
  5
57F2
330
1D9
100
AcDbEntity
  8
0
100
AcDbLine
 10
149.5000000000013
 20
76.8466548371657
 30
0.0
 11
176.3099999999999
 21
82.0146650124075
 31
0.0
  0
ARC
  5
57F3
330
1D9
100
AcDbEntity
  8
0
100
AcDbCircle
 10
175.2599999999997
 20
67.04466501240722
 30
0.0
 40
15.0
100
AcDbArc
 50
48.07799999999938
 51
85.97699999998841
  0
LINE
  5
57F4
330
1D9
100
AcDbEntity
  8
0
100
AcDbLine
 10
367.5000000000013
 20
192.0446650124072
 30
0.0
 11
367.5000000000013
 21
25.034665012407
 31
0.0
  0
LINE
  5
57F5
330
1D9
100
AcDbEntity
  8
0
100
AcDbLine
 10
287.5000000000003
 20
192.0446650124072
 30
0.0
 11
287.5000000000003
 21
30.034665012407
 31
0.0
  0
LINE
  5
57F6
330
1D9
100
AcDbEntity
  8
0
100
AcDbLine
 10
261.5599999999999
 20
30.034665012407
 30
0.0
 11
261.5599999999999
 21
192.0446650124072
 31
0.0
  0
LINE
  5
57F7
330
1D9
100
AcDbEntity
  8
0
100
AcDbLine
 10
292.5000000000013
 20
25.034665012407
 30
0.0
 11
367.5000000000013
 21
25.034665012407
 31
0.0
  0
LINE
  5
57F8
330
1D9
100
AcDbEntity
  8
0
100
AcDbLine
 10
287.5000000000003
 20
30.04466501240722
 30
0.0
 11
292.5000000000013
 21
25.034665012407
 31
0.0
  0
LINE
  5
57F9
330
1D9
100
AcDbEntity
  8
0
100
AcDbLine
 10
287.5099999999997
 20
30.034665012407
 30
0.0
 11
261.5599999999999
 21
30.034665012407
 31
0.0
  0
ARC
  5
57FA
330
1D9
100
AcDbEntity
  8
0
100
AcDbCircle
 10
287.5000000000003
 20
192.034665012407
 30
0.0
 40
144.0
100
AcDbArc
 50
303.7490000000088
 51
310.1909999999853
  0
LINE
  5
57FB
330
1D9
100
AcDbEntity
  8
0
100
AcDbLine
 10
380.4299999999998
 20
82.04466501240721
 30
0.0
 11
404.5000000000004
 21
82.04466501240721
 31
0.0
  0
ARC
  5
57FC
330
1D9
100
AcDbEntity
  8
0
100
AcDbCircle
 10
287.5099999999997
 20
192.0446650124072
 30
0.0
 40
153.0
100
AcDbArc
 50
99.76489999998314
 51
131.7059999999941
  0
LINE
  5
57FD
330
1D9
100
AcDbEntity
  8
0
100
AcDbLine
 10
149.5000000000013
 20
307.2426751876486
 30
0.0
 11
176.3099999999999
 21
302.0746650124066
 31
0.0
  0
ARC
  5
57FE
330
1D9
100
AcDbEntity
  8
0
100
AcDbCircle
 10
175.2599999999997
 20
317.0446650124071
 30
0.0
 40
15.0
100
AcDbArc
 50
274.0230000000116
 51
311.9220000000006
  0
LINE
  5
57FF
330
1D9
100
AcDbEntity
  8
0
100
AcDbLine
 10
127.5000000000003
 20
357.0446650124071
 30
0.0
 11
149.5000000000013
 21
357.0446650124071
 31
0.0
  0
ARC
  5
5800
330
1D9
100
AcDbEntity
  8
0
100
AcDbCircle
 10
287.5000000000003
 20
192.0546650124074
 30
0.0
 40
144.0
100
AcDbArc
 50
49.80349999999
 51
56.24999999998874
  0
LINE
  5
5801
330
1D9
100
AcDbEntity
  8
0
100
AcDbLine
 10
380.4299999999998
 20
302.0446650124071
 30
0.0
 11
404.5000000000004
 21
302.0446650124071
 31
0.0
  0
LINE
  5
5802
330
1D9
100
AcDbEntity
  8
0
100
AcDbLine
 10
292.5000000000013
 20
359.0446650124071
 30
0.0
 11
367.5000000000013
 21
359.0446650124071
 31
0.0
  0
LINE
  5
5803
330
1D9
100
AcDbEntity
  8
0
100
AcDbLine
 10
287.5000000000003
 20
354.0446650124071
 30
0.0
 11
292.5000000000013
 21
359.0446650124071
 31
0.0
  0
LINE
  5
5804
330
1D9
100
AcDbEntity
  8
0
100
AcDbLine
 10
287.5099999999997
 20
354.0446650124071
 30
0.0
 11
261.5599999999999
 21
354.0446650124071
 31
0.0
  0
LINE
  5
5805
330
1D9
100
AcDbEntity
  8
0
100
AcDbLine
 10
422.5000000000012
 20
71.54466501240722
 30
0.0
 11
999.4999999999997
 21
71.54466501240722
 31
0.0
  0
LINE
  5
5806
330
1D9
100
AcDbEntity
  8
0
100
AcDbLine
 10
422.5000000000012
 20
312.5446650124071
 30
0.0
 11
999.4999999999997
 21
312.5446650124071
 31
0.0
  0
LINE
  5
5807
330
1D9
100
AcDbEntity
  8
0
100
AcDbLine
 10
1177.490000000002
 20
369.0446650124071
 30
0.0
 11
1177.490000000002
 21
15.034665012407
 31
0.0
  0
LINE
  5
5808
330
1D9
100
AcDbEntity
  8
0
100
AcDbLine
 10
1097.499999999999
 20
192.0446650124072
 30
0.0
 11
1097.499999999999
 21
359.0446650124071
 31
0.0
  0
LINE
  5
5809
330
1D9
100
AcDbEntity
  8
0
100
AcDbLine
 10
1177.490000000002
 20
192.0446650124072
 30
0.0
 11
1177.490000000002
 21
354.0446650124071
 31
0.0
  0
LINE
  5
580A
330
1D9
100
AcDbEntity
  8
0
100
AcDbLine
 10
1203.440000000001
 20
354.0446650124071
 30
0.0
 11
1203.440000000001
 21
192.0446650124072
 31
0.0
  0
LINE
  5
580B
330
1D9
100
AcDbEntity
  8
0
100
AcDbLine
 10
1039.499999999998
 20
321.5446650124071
 30
0.0
 11
1039.499999999998
 21
192.0446650124072
 31
0.0
  0
LINE
  5
580C
330
1D9
100
AcDbEntity
  8
0
100
AcDbLine
 10
999.4999999999997
 20
192.0446650124072
 30
0.0
 11
999.4999999999997
 21
321.5446650124071
 31
0.0
  0
LINE
  5
580D
330
1D9
100
AcDbEntity
  8
0
100
AcDbLine
 10
1039.499999999998
 20
82.04466501240904
 30
0.0
 11
1084.570000000002
 21
82.04466501240721
 31
0.0
  0
LINE
  5
580E
330
1D9
100
AcDbEntity
  8
0
100
AcDbLine
 10
1039.499999999998
 20
62.54466501240721
 30
0.0
 11
1039.499999999998
 21
192.0446650124072
 31
0.0
  0
LINE
  5
580F
330
1D9
100
AcDbEntity
  8
0
100
AcDbLine
 10
999.4999999999997
 20
192.0446650124072
 30
0.0
 11
999.4999999999997
 21
62.54466501240721
 31
0.0
  0
LINE
  5
5810
330
1D9
100
AcDbEntity
  8
0
100
AcDbLine
 10
1009.5
 20
52.54466501240721
 30
0.0
 11
1029.499999999998
 21
52.54466501240721
 31
0.0
  0
ARC
  5
5811
330
1D9
100
AcDbEntity
  8
0
100
AcDbCircle
 10
1009.5
 20
62.54466501240721
 30
0.0
 40
10.0
100
AcDbArc
 50
180.0
 51
270.0
  0
ARC
  5
5812
330
1D9
100
AcDbEntity
  8
0
100
AcDbCircle
 10
1029.499999999998
 20
62.54466501240721
 30
0.0
 40
10.0
100
AcDbArc
 50
270.0
 51
0.0
  0
LINE
  5
5813
330
1D9
100
AcDbEntity
  8
0
100
AcDbLine
 10
1097.499999999999
 20
192.0446650124072
 30
0.0
 11
1097.499999999999
 21
25.034665012407
 31
0.0
  0
LINE
  5
5814
330
1D9
100
AcDbEntity
  8
0
100
AcDbLine
 10
1177.490000000002
 20
192.0446650124072
 30
0.0
 11
1177.490000000002
 21
30.034665012407
 31
0.0
  0
LINE
  5
5815
330
1D9
100
AcDbEntity
  8
0
100
AcDbLine
 10
1203.440000000001
 20
30.034665012407
 30
0.0
 11
1203.440000000001
 21
192.0446650124072
 31
0.0
  0
LINE
  5
5816
330
1D9
100
AcDbEntity
  8
0
100
AcDbLine
 10
1177.490000000002
 20
30.034665012407
 30
0.0
 11
1203.440000000001
 21
30.034665012407
 31
0.0
  0
LINE
  5
5817
330
1D9
100
AcDbEntity
  8
0
100
AcDbLine
 10
1172.5
 20
25.034665012407
 30
0.0
 11
1097.499999999999
 21
25.034665012407
 31
0.0
  0
LINE
  5
5818
330
1D9
100
AcDbEntity
  8
0
100
AcDbLine
 10
1177.490000000002
 20
30.04466501240722
 30
0.0
 11
1172.5
 21
25.034665012407
 31
0.0
  0
ARC
  5
5819
330
1D9
100
AcDbEntity
  8
0
100
AcDbCircle
 10
1177.499999999999
 20
192.034665012407
 30
0.0
 40
144.0
100
AcDbArc
 50
229.8090000000146
 51
236.2499999999886
  0
ARC
  5
581A
330
1D9
100
AcDbEntity
  8
0
100
AcDbCircle
 10
1177.490000000002
 20
192.0446650124072
 30
0.0
 40
153.0
100
AcDbArc
 50
279.7649999999896
 51
311.7062000000217
  0
LINE
  5
581B
330
1D9
100
AcDbEntity
  8
0
100
AcDbLine
 10
1039.499999999998
 20
302.0446650124089
 30
0.0
 11
1084.570000000002
 21
302.0446650124071
 31
0.0
  0
LINE
  5
581C
330
1D9
100
AcDbEntity
  8
0
100
AcDbLine
 10
1009.5
 20
331.5446650124071
 30
0.0
 11
1029.499999999998
 21
331.5446650124071
 31
0.0
  0
ARC
  5
581D
330
1D9
100
AcDbEntity
  8
0
100
AcDbCircle
 10
1009.5
 20
321.5446650124071
 30
0.0
 40
10.0
100
AcDbArc
 50
90.0
 51
180.0
  0
ARC
  5
581E
330
1D9
100
AcDbEntity
  8
0
100
AcDbCircle
 10
1029.499999999998
 20
321.5446650124071
 30
0.0
 40
10.0
100
AcDbArc
 50
0.0
 51
90.0
  0
ARC
  5
581F
330
1D9
100
AcDbEntity
  8
0
100
AcDbCircle
 10
1177.490000000002
 20
192.0446650124072
 30
0.0
 40
153.0
100
AcDbArc
 50
48.29379999997811
 51
80.23500000001041
  0
ARC
  5
5820
330
1D9
100
AcDbEntity
  8
0
100
AcDbCircle
 10
1177.490000000002
 20
192.034665012407
 30
0.0
 40
144.0
100
AcDbArc
 50
123.7479999999812
 51
130.1909999999853
  0
LINE
  5
5821
330
1D9
100
AcDbEntity
  8
0
100
AcDbLine
 10
1177.490000000002
 20
354.0446650124071
 30
0.0
 11
1203.440000000001
 21
354.0446650124071
 31
0.0
  0
LINE
  5
5822
330
1D9
100
AcDbEntity
  8
0
100
AcDbLine
 10
1172.5
 20
359.0446650124071
 30
0.0
 11
1097.499999999999
 21
359.0446650124071
 31
0.0
  0
LINE
  5
5823
330
1D9
100
AcDbEntity
  8
0
100
AcDbLine
 10
1177.490000000002
 20
354.0446650124071
 30
0.0
 11
1172.5
 21
359.0446650124071
 31
0.0
  0
LINE
  5
5825
330
1D9
100
AcDbEntity
  8
0
100
AcDbLine
 10
423.5000000000012
 20
938.5446650124071
 30
0.0
 11
988.5000000000003
 21
938.5446650124071
 31
0.0
  0
LINE
  5
5826
330
1D9
100
AcDbEntity
  8
0
100
AcDbLine
 10
423.5000000000012
 20
1077.544665012407
 30
0.0
 11
988.5000000000003
 21
1077.544665012407
 31
0.0
  0
LINE
  5
5827
330
1D9
100
AcDbEntity
  8
0
100
AcDbLine
 10
162.5000000000013
 20
1008.044665012407
 30
0.0
 11
1302.499999999999
 21
1008.044665012407
 31
0.0
  0
LINE
  5
5828
330
1D9
100
AcDbEntity
  8
0
100
AcDbLine
 10
3033.5
 20
913.0446650124072
 30
0.0
 11
3598.5
 21
913.0446650124072
 31
0.0
  0
LINE
  5
5829
330
1D9
100
AcDbEntity
  8
0
100
AcDbLine
 10
3033.5
 20
1103.044665012407
 30
0.0
 11
3598.5
 21
1103.044665012407
 31
0.0
  0
LINE
  5
582B
330
1D9
100
AcDbEntity
  8
0
100
AcDbLine
 10
2913.5
 20
1158.044665012406
 30
0.0
 11
2913.5
 21
858.0446650124072
 31
0.0
  0
LINE
  5
582C
330
1D9
100
AcDbEntity
  8
0
100
AcDbLine
 10
2983.5
 20
1148.044665012406
 30
0.0
 11
2983.5
 21
1008.044665012407
 31
0.0
  0
LINE
  5
582D
330
1D9
100
AcDbEntity
  8
0
100
AcDbLine
 10
2913.5
 20
1008.044665012407
 30
0.0
 11
2913.5
 21
1141.544665012407
 31
0.0
  0
LINE
  5
582E
330
1D9
100
AcDbEntity
  8
0
100
AcDbLine
 10
2890.500000000001
 20
1141.544665012407
 30
0.0
 11
2890.500000000001
 21
1008.044665012407
 31
0.0
  0
LINE
  5
582F
330
1D9
100
AcDbEntity
  8
0
100
AcDbLine
 10
2763.5
 20
1008.044665012407
 30
0.0
 11
2763.5
 21
1148.044665012406
 31
0.0
  0
LINE
  5
5830
330
1D9
100
AcDbEntity
  8
0
100
AcDbLine
 10
2785.500000000001
 20
1148.044665012406
 30
0.0
 11
2785.500000000001
 21
1008.044665012407
 31
0.0
  0
ARC
  5
5831
330
1D9
100
AcDbEntity
  8
0
100
AcDbCircle
 10
2913.51
 20
1008.044665012407
 30
0.0
 40
125.0
100
AcDbArc
 50
225.822000000008
 51
259.3969999999866
  0
LINE
  5
5832
330
1D9
100
AcDbEntity
  8
0
100
AcDbLine
 10
2763.5
 20
1008.044665012407
 30
0.0
 11
2763.5
 21
868.044665012408
 31
0.0
  0
LINE
  5
5833
330
1D9
100
AcDbEntity
  8
0
100
AcDbLine
 10
2785.500000000001
 20
868.044665012408
 30
0.0
 11
2785.500000000001
 21
1008.044665012407
 31
0.0
  0
LINE
  5
5834
330
1D9
100
AcDbEntity
  8
0
100
AcDbLine
 10
2763.5
 20
1008.044665012407
 30
0.0
 11
2763.5
 21
906.0446650124079
 31
0.0
  0
LINE
  5
5835
330
1D9
100
AcDbEntity
  8
0
100
AcDbLine
 10
2983.5
 20
868.0446650124071
 30
0.0
 11
2983.5
 21
1008.044665012407
 31
0.0
  0
LINE
  5
5836
330
1D9
100
AcDbEntity
  8
0
100
AcDbLine
 10
2913.5
 20
1008.044665012407
 30
0.0
 11
2913.5
 21
874.5346650124069
 31
0.0
  0
LINE
  5
5837
330
1D9
100
AcDbEntity
  8
0
100
AcDbLine
 10
2890.500000000001
 20
874.5446650124073
 30
0.0
 11
2890.500000000001
 21
1008.044665012407
 31
0.0
  0
LINE
  5
5838
330
1D9
100
AcDbEntity
  8
0
100
AcDbLine
 10
3015.500000000001
 20
923.5446650124073
 30
0.0
 11
3033.5
 21
913.0446650124072
 31
0.0
  0
LINE
  5
5839
330
1D9
100
AcDbEntity
  8
0
100
AcDbLine
 10
2763.5
 20
868.044665012408
 30
0.0
 11
2785.500000000001
 21
868.044665012408
 31
0.0
  0
LINE
  5
583A
330
1D9
100
AcDbEntity
  8
0
100
AcDbLine
 10
2920.009999999999
 20
868.0446650124071
 30
0.0
 11
2983.5
 21
868.0446650124071
 31
0.0
  0
LINE
  5
583B
330
1D9
100
AcDbEntity
  8
0
100
AcDbLine
 10
2890.500000000001
 20
874.5446650124073
 30
0.0
 11
2913.5
 21
874.5446650124073
 31
0.0
  0
LINE
  5
583C
330
1D9
100
AcDbEntity
  8
0
100
AcDbLine
 10
2913.5
 20
874.5446650124073
 30
0.0
 11
2920.009999999999
 21
868.0446650124071
 31
0.0
  0
ARC
  5
583D
330
1D9
100
AcDbEntity
  8
0
100
AcDbCircle
 10
2913.51
 20
1008.044665012407
 30
0.0
 40
125.0
100
AcDbArc
 50
100.6030000000131
 51
134.1779999999919
  0
LINE
  5
583E
330
1D9
100
AcDbEntity
  8
0
100
AcDbLine
 10
2763.5
 20
1008.044665012407
 30
0.0
 11
2763.5
 21
1110.044665012406
 31
0.0
  0
LINE
  5
583F
330
1D9
100
AcDbEntity
  8
0
100
AcDbLine
 10
2821.39
 20
1094.474665012407
 30
0.0
 11
2821.39
 21
1008.044665012407
 31
0.0
  0
LINE
  5
5840
330
1D9
100
AcDbEntity
  8
0
100
AcDbLine
 10
2821.39
 20
921.6146650124079
 30
0.0
 11
2821.39
 21
1008.044665012407
 31
0.0
  0
ARC
  5
5841
330
1D9
100
AcDbEntity
  8
0
100
AcDbCircle
 10
2815.94
 20
907.6446650124077
 30
0.0
 40
15.0
100
AcDbArc
 50
45.82300000000642
 51
97.93399999999905
  0
LINE
  5
5842
330
1D9
100
AcDbEntity
  8
0
100
AcDbLine
 10
2785.500000000001
 20
918.5544118478503
 30
0.0
 11
2813.87
 21
922.5046650124079
 31
0.0
  0
ARC
  5
5843
330
1D9
100
AcDbEntity
  8
0
100
AcDbCircle
 10
2815.94
 20
907.6446650124077
 30
0.0
 40
15.0
100
AcDbArc
 50
45.82300000000642
 51
97.93399999999905
  0
ARC
  5
5844
330
1D9
100
AcDbEntity
  8
0
100
AcDbCircle
 10
2815.94
 20
1108.444665012407
 30
0.0
 40
15.0
100
AcDbArc
 50
262.0660000000009
 51
314.1769999999937
  0
LINE
  5
5845
330
1D9
100
AcDbEntity
  8
0
100
AcDbLine
 10
2785.500000000001
 20
1097.534918176964
 30
0.0
 11
2813.87
 21
1093.584665012406
 31
0.0
  0
ARC
  5
5846
330
1D9
100
AcDbEntity
  8
0
100
AcDbCircle
 10
2815.94
 20
1108.444665012407
 30
0.0
 40
15.0
100
AcDbArc
 50
262.0660000000009
 51
314.1769999999937
  0
LINE
  5
5847
330
1D9
100
AcDbEntity
  8
0
100
AcDbLine
 10
2992.98
 20
923.5446650124073
 30
0.0
 11
3015.500000000001
 21
923.5446650124073
 31
0.0
  0
ARC
  5
5848
330
1D9
100
AcDbEntity
  8
0
100
AcDbCircle
 10
2913.51
 20
1008.044665012407
 30
0.0
 40
116.0
100
AcDbArc
 50
308.9949999999867
 51
313.239999999995
  0
LINE
  5
5849
330
1D9
100
AcDbEntity
  8
0
100
AcDbLine
 10
2992.98
 20
1092.544665012405
 30
0.0
 11
3015.500000000001
 21
1092.544665012405
 31
0.0
  0
ARC
  5
584A
330
1D9
100
AcDbEntity
  8
0
100
AcDbCircle
 10
2913.51
 20
1008.044665012407
 30
0.0
 40
116.0
100
AcDbArc
 50
46.75569999998972
 51
51.00039999999835
  0
LINE
  5
584B
330
1D9
100
AcDbEntity
  8
0
100
AcDbLine
 10
3015.500000000001
 20
1092.544665012405
 30
0.0
 11
3033.5
 21
1103.044665012407
 31
0.0
  0
LINE
  5
584C
330
1D9
100
AcDbEntity
  8
0
100
AcDbLine
 10
2763.5
 20
1148.044665012406
 30
0.0
 11
2785.500000000001
 21
1148.044665012406
 31
0.0
  0
LINE
  5
584D
330
1D9
100
AcDbEntity
  8
0
100
AcDbLine
 10
2920.009999999999
 20
1148.044665012406
 30
0.0
 11
2983.5
 21
1148.044665012406
 31
0.0
  0
LINE
  5
584E
330
1D9
100
AcDbEntity
  8
0
100
AcDbLine
 10
2890.500000000001
 20
1141.544665012407
 30
0.0
 11
2913.5
 21
1141.544665012407
 31
0.0
  0
LINE
  5
584F
330
1D9
100
AcDbEntity
  8
0
100
AcDbLine
 10
2913.5
 20
1141.544665012407
 30
0.0
 11
2920.009999999999
 21
1148.044665012406
 31
0.0
  0
ARC
  5
5850
330
1D9
100
AcDbEntity
  8
0
100
AcDbCircle
 10
322.5000000000004
 20
1008.054665012407
 30
0.0
 40
99.0
100
AcDbArc
 50
220.475999999971
 51
256.5199999999634
  0
LINE
  5
5851
330
1D9
100
AcDbEntity
  8
0
100
AcDbLine
 10
172.5000000000004
 20
1008.044665012407
 30
0.0
 11
172.5000000000004
 21
903.0446650124062
 31
0.0
  0
LINE
  5
5852
330
1D9
100
AcDbEntity
  8
0
100
AcDbLine
 10
190.5000000000004
 20
903.0446650124062
 30
0.0
 11
190.5000000000004
 21
1008.044665012407
 31
0.0
  0
LINE
  5
5853
330
1D9
100
AcDbEntity
  8
0
100
AcDbLine
 10
243.519999999999
 20
946.8995123471684
 30
0.0
 11
243.519999999999
 21
1008.044665012407
 31
0.0
  0
LINE
  5
5854
330
1D9
100
AcDbEntity
  8
0
100
AcDbLine
 10
172.5000000000004
 20
903.0446650124073
 30
0.0
 11
190.5000000000004
 21
903.0446650124082
 31
0.0
  0
LINE
  5
5855
330
1D9
100
AcDbEntity
  8
0
100
AcDbLine
 10
190.5000000000004
 20
943.4652466678867
 30
0.0
 11
219.5000000000013
 21
949.0446650124072
 31
0.0
  0
ARC
  5
5856
330
1D9
100
AcDbEntity
  8
0
100
AcDbCircle
 10
235.7899999999986
 20
934.0446650124071
 30
0.0
 40
15.0
100
AcDbArc
 50
40.475999999971
 51
90.0
  0
LINE
  5
5857
330
1D9
100
AcDbEntity
  8
0
100
AcDbLine
 10
219.5000000000013
 20
949.0446650124072
 30
0.0
 11
235.7899999999986
 21
949.0446650124072
 31
0.0
  0
LINE
  5
5858
330
1D9
100
AcDbEntity
  8
0
100
AcDbLine
 10
243.519999999999
 20
1069.189817677645
 30
0.0
 11
243.519999999999
 21
1008.044665012407
 31
0.0
  0
LINE
  5
5859
330
1D9
100
AcDbEntity
  8
0
100
AcDbLine
 10
190.5000000000004
 20
1072.62408335693
 30
0.0
 11
219.5000000000013
 21
1067.044665012407
 31
0.0
  0
ARC
  5
585A
330
1D9
100
AcDbEntity
  8
0
100
AcDbCircle
 10
235.7899999999986
 20
1082.044665012407
 30
0.0
 40
15.0
100
AcDbArc
 50
270.0
 51
319.524000000029
  0
LINE
  5
585B
330
1D9
100
AcDbEntity
  8
0
100
AcDbLine
 10
219.5000000000013
 20
1067.044665012407
 30
0.0
 11
235.7899999999986
 21
1067.044665012407
 31
0.0
  0
LINE
  5
585C
330
1D9
100
AcDbEntity
  8
0
100
AcDbLine
 10
299.4299999999988
 20
901.0446650124071
 30
0.0
 11
299.4299999999988
 21
1008.044665012407
 31
0.0
  0
LINE
  5
585D
330
1D9
100
AcDbEntity
  8
0
100
AcDbLine
 10
383.5000000000004
 20
1008.044665012407
 30
0.0
 11
383.5000000000004
 21
897.0446650124072
 31
0.0
  0
LINE
  5
585E
330
1D9
100
AcDbEntity
  8
0
100
AcDbLine
 10
322.5000000000004
 20
900.9646650124071
 30
0.0
 11
322.5000000000004
 21
1008.044665012407
 31
0.0
  0
LINE
  5
585F
330
1D9
100
AcDbEntity
  8
0
100
AcDbLine
 10
383.5000000000004
 20
1008.044665012407
 30
0.0
 11
383.5000000000004
 21
917.0346650124072
 31
0.0
  0
LINE
  5
5860
330
1D9
100
AcDbEntity
  8
0
100
AcDbLine
 10
383.5000000000004
 20
897.0446650124072
 30
0.0
 11
324.1699999999996
 21
897.0446650124072
 31
0.0
  0
LINE
  5
5861
330
1D9
100
AcDbEntity
  8
0
100
AcDbLine
 10
299.2599999999997
 20
901.0446650124071
 30
0.0
 11
321.3799999999995
 21
901.0446650124071
 31
0.0
  0
LINE
  5
5862
330
1D9
100
AcDbEntity
  8
0
100
AcDbLine
 10
321.3799999999995
 20
901.0446650124071
 30
0.0
 11
324.1699999999996
 21
897.0446650124072
 31
0.0
  0
LINE
  5
5863
330
1D9
100
AcDbEntity
  8
0
100
AcDbLine
 10
410.5000000000003
 20
946.0446650124072
 30
0.0
 11
423.5000000000012
 21
938.5446650124071
 31
0.0
  0
ARC
  5
5864
330
1D9
100
AcDbEntity
  8
0
100
AcDbCircle
 10
322.519999999999
 20
1008.054665012407
 30
0.0
 40
90.0
100
AcDbArc
 50
312.6600000000113
 51
316.4479999999671
  0
LINE
  5
5865
330
1D9
100
AcDbEntity
  8
0
100
AcDbLine
 10
387.7500000000003
 20
946.0446650124072
 30
0.0
 11
410.5000000000003
 21
946.0446650124072
 31
0.0
  0
LINE
  5
5866
330
1D9
100
AcDbEntity
  8
0
100
AcDbLine
 10
349.5000000000004
 20
1008.044665012407
 30
0.0
 11
349.5000000000004
 21
1008.044665012407
 31
0.0
  0
LINE
  5
5867
330
1D9
100
AcDbEntity
  8
0
100
AcDbLine
 10
349.5000000000004
 20
1008.044665012407
 30
0.0
 11
349.5000000000004
 21
1008.044665012407
 31
0.0
  0
LINE
  5
586C
330
1D9
100
AcDbEntity
  8
0
100
AcDbLine
 10
410.5000000000003
 20
1070.044665012406
 30
0.0
 11
423.5000000000012
 21
1077.544665012407
 31
0.0
  0
ARC
  5
586D
330
1D9
100
AcDbEntity
  8
0
100
AcDbCircle
 10
322.5100000000006
 20
1008.034665012407
 30
0.0
 40
90.0
100
AcDbArc
 50
43.5393000000244
 51
47.3309999999861
  0
LINE
  5
586E
330
1D9
100
AcDbEntity
  8
0
100
AcDbLine
 10
387.7500000000003
 20
1070.044665012406
 30
0.0
 11
410.5000000000003
 21
1070.044665012406
 31
0.0
  0
LINE
  5
586F
330
1D9
100
AcDbEntity
  8
0
100
AcDbLine
 10
3763.5
 20
1158.044665012406
 30
0.0
 11
3763.5
 21
858.0446650124072
 31
0.0
  0
LINE
  5
5870
330
1D9
100
AcDbEntity
  8
0
100
AcDbLine
 10
3693.499999999998
 20
1148.044665012406
 30
0.0
 11
3693.499999999998
 21
1008.044665012407
 31
0.0
  0
LINE
  5
5871
330
1D9
100
AcDbEntity
  8
0
100
AcDbLine
 10
3763.5
 20
1008.044665012407
 30
0.0
 11
3763.5
 21
1141.544665012407
 31
0.0
  0
LINE
  5
5872
330
1D9
100
AcDbEntity
  8
0
100
AcDbLine
 10
3786.499999999998
 20
1141.544665012407
 30
0.0
 11
3786.499999999998
 21
1008.044665012407
 31
0.0
  0
LINE
  5
5873
330
1D9
100
AcDbEntity
  8
0
100
AcDbLine
 10
3913.499999999999
 20
1008.044665012407
 30
0.0
 11
3913.499999999998
 21
1148.044665012406
 31
0.0
  0
LINE
  5
5874
330
1D9
100
AcDbEntity
  8
0
100
AcDbLine
 10
3891.5
 20
1148.044665012406
 30
0.0
 11
3891.5
 21
1008.044665012407
 31
0.0
  0
ARC
  5
5875
330
1D9
100
AcDbEntity
  8
0
100
AcDbCircle
 10
3763.5
 20
1008.044665012405
 30
0.0
 40
125.0
100
AcDbArc
 50
280.6030000000133
 51
314.1785999999859
  0
LINE
  5
5876
330
1D9
100
AcDbEntity
  8
0
100
AcDbLine
 10
3913.499999999999
 20
1008.044665012405
 30
0.0
 11
3913.499999999998
 21
868.0446650124062
 31
0.0
  0
LINE
  5
5877
330
1D9
100
AcDbEntity
  8
0
100
AcDbLine
 10
3891.5
 20
868.0446650124062
 30
0.0
 11
3891.5
 21
1008.044665012405
 31
0.0
  0
LINE
  5
5878
330
1D9
100
AcDbEntity
  8
0
100
AcDbLine
 10
3913.499999999999
 20
1008.044665012405
 30
0.0
 11
3913.499999999999
 21
906.0446650124063
 31
0.0
  0
LINE
  5
5879
330
1D9
100
AcDbEntity
  8
0
100
AcDbLine
 10
3693.499999999998
 20
868.0446650124071
 30
0.0
 11
3693.499999999998
 21
1008.044665012407
 31
0.0
  0
LINE
  5
587A
330
1D9
100
AcDbEntity
  8
0
100
AcDbLine
 10
3763.5
 20
1008.044665012407
 30
0.0
 11
3763.5
 21
874.5346650124069
 31
0.0
  0
LINE
  5
587B
330
1D9
100
AcDbEntity
  8
0
100
AcDbLine
 10
3786.499999999998
 20
874.5446650124073
 30
0.0
 11
3786.499999999998
 21
1008.044665012407
 31
0.0
  0
LINE
  5
587C
330
1D9
100
AcDbEntity
  8
0
100
AcDbLine
 10
3638.5
 20
905.6346650124073
 30
0.0
 11
3638.5
 21
1008.044665012407
 31
0.0
  0
LINE
  5
587D
330
1D9
100
AcDbEntity
  8
0
100
AcDbLine
 10
3598.5
 20
1008.044665012407
 30
0.0
 11
3598.5
 21
905.6346650124073
 31
0.0
  0
LINE
  5
587E
330
1D9
100
AcDbEntity
  8
0
100
AcDbLine
 10
3756.999999999998
 20
868.0446650124071
 30
0.0
 11
3693.499999999998
 21
868.0446650124071
 31
0.0
  0
ARC
  5
587F
330
1D9
100
AcDbEntity
  8
0
100
AcDbCircle
 10
3608.500000000001
 20
905.6346650124073
 30
0.0
 40
10.0
100
AcDbArc
 50
180.0
 51
270.0
  0
LINE
  5
5880
330
1D9
100
AcDbEntity
  8
0
100
AcDbLine
 10
3608.500000000001
 20
895.6346650124073
 30
0.0
 11
3628.499999999998
 21
895.6346650124073
 31
0.0
  0
ARC
  5
5881
330
1D9
100
AcDbEntity
  8
0
100
AcDbCircle
 10
3628.499999999998
 20
905.6346650124073
 30
0.0
 40
10.0
100
AcDbArc
 50
270.0
 51
0.0
  0
LINE
  5
5882
330
1D9
100
AcDbEntity
  8
0
100
AcDbLine
 10
3763.509999999998
 20
874.5446650124073
 30
0.0
 11
3756.999999999998
 21
868.0446650124071
 31
0.0
  0
LINE
  5
5883
330
1D9
100
AcDbEntity
  8
0
100
AcDbLine
 10
3786.499999999998
 20
874.5446650124073
 30
0.0
 11
3763.5
 21
874.5446650124073
 31
0.0
  0
LINE
  5
5884
330
1D9
100
AcDbEntity
  8
0
100
AcDbLine
 10
3891.5
 20
868.0446650124062
 30
0.0
 11
3913.499999999998
 21
868.0446650124062
 31
0.0
  0
LINE
  5
5885
330
1D9
100
AcDbEntity
  8
0
100
AcDbLine
 10
3638.5
 20
1110.444665012407
 30
0.0
 11
3638.5
 21
1008.044665012407
 31
0.0
  0
LINE
  5
5886
330
1D9
100
AcDbEntity
  8
0
100
AcDbLine
 10
3598.5
 20
1008.044665012407
 30
0.0
 11
3598.5
 21
1110.444665012407
 31
0.0
  0
LINE
  5
5887
330
1D9
100
AcDbEntity
  8
0
100
AcDbLine
 10
3638.5
 20
923.5446650124073
 30
0.0
 11
3684.039999999999
 21
923.5446650124073
 31
0.0
  0
ARC
  5
5888
330
1D9
100
AcDbEntity
  8
0
100
AcDbCircle
 10
3763.509999999998
 20
1008.034665012406
 30
0.0
 40
116.0
100
AcDbArc
 50
226.7560000000059
 51
232.8765420505694
  0
ARC
  5
5889
330
1D9
100
AcDbEntity
  8
0
100
AcDbCircle
 10
3608.500000000001
 20
1110.444665012407
 30
0.0
 40
10.0
100
AcDbArc
 50
90.0
 51
180.0
  0
LINE
  5
588A
330
1D9
100
AcDbEntity
  8
0
100
AcDbLine
 10
3638.5
 20
1092.544665012405
 30
0.0
 11
3684.039999999999
 21
1092.544665012405
 31
0.0
  0
ARC
  5
588B
330
1D9
100
AcDbEntity
  8
0
100
AcDbCircle
 10
3628.499999999998
 20
1110.444665012407
 30
0.0
 40
10.0
100
AcDbArc
 50
0.0
 51
90.0
  0
LINE
  5
588C
330
1D9
100
AcDbEntity
  8
0
100
AcDbLine
 10
3608.500000000001
 20
1120.444665012407
 30
0.0
 11
3628.499999999998
 21
1120.444665012407
 31
0.0
  0
ARC
  5
588D
330
1D9
100
AcDbEntity
  8
0
100
AcDbCircle
 10
3763.509999999998
 20
1008.034665012406
 30
0.0
 40
116.0
100
AcDbArc
 50
127.1234579494302
 51
133.2439999999751
  0
LINE
  5
588E
330
1D9
100
AcDbEntity
  8
0
100
AcDbLine
 10
3913.499999999999
 20
1008.044665012407
 30
0.0
 11
3913.499999999999
 21
1110.044665012406
 31
0.0
  0
LINE
  5
588F
330
1D9
100
AcDbEntity
  8
0
100
AcDbLine
 10
3855.62
 20
1094.474665012407
 30
0.0
 11
3855.62
 21
1008.044665012407
 31
0.0
  0
LINE
  5
5890
330
1D9
100
AcDbEntity
  8
0
100
AcDbLine
 10
3855.62
 20
921.6146650124059
 30
0.0
 11
3855.62
 21
1008.044665012405
 31
0.0
  0
LINE
  5
5891
330
1D9
100
AcDbEntity
  8
0
100
AcDbLine
 10
3891.5
 20
918.5558042529132
 30
0.0
 11
3863.139999999999
 21
922.5046650124063
 31
0.0
  0
ARC
  5
5892
330
1D9
100
AcDbEntity
  8
0
100
AcDbCircle
 10
3861.07
 20
907.6446650124056
 30
0.0
 40
15.0
100
AcDbArc
 50
82.06699999998411
 51
134.1779999999919
  0
ARC
  5
5893
330
1D9
100
AcDbEntity
  8
0
100
AcDbCircle
 10
3861.07
 20
907.6446650124056
 30
0.0
 40
15.0
100
AcDbArc
 50
82.06699999998411
 51
134.1779999999919
  0
ARC
  5
5894
330
1D9
100
AcDbEntity
  8
0
100
AcDbCircle
 10
3763.5
 20
1008.044665012407
 30
0.0
 40
125.0
100
AcDbArc
 50
45.821400000014
 51
79.39699999998669
  0
LINE
  5
5895
330
1D9
100
AcDbEntity
  8
0
100
AcDbLine
 10
3891.5
 20
1097.5335257719
 30
0.0
 11
3863.139999999999
 21
1093.584665012406
 31
0.0
  0
ARC
  5
5896
330
1D9
100
AcDbEntity
  8
0
100
AcDbCircle
 10
3861.07
 20
1108.444665012407
 30
0.0
 40
15.0
100
AcDbArc
 50
225.822000000008
 51
277.9329999999901
  0
ARC
  5
5897
330
1D9
100
AcDbEntity
  8
0
100
AcDbCircle
 10
3861.07
 20
1108.444665012407
 30
0.0
 40
15.0
100
AcDbArc
 50
225.822000000008
 51
277.9329999999901
  0
LINE
  5
5898
330
1D9
100
AcDbEntity
  8
0
100
AcDbLine
 10
3756.999999999998
 20
1148.044665012406
 30
0.0
 11
3693.499999999998
 21
1148.044665012406
 31
0.0
  0
LINE
  5
5899
330
1D9
100
AcDbEntity
  8
0
100
AcDbLine
 10
3763.509999999998
 20
1141.544665012407
 30
0.0
 11
3756.999999999998
 21
1148.044665012406
 31
0.0
  0
LINE
  5
589A
330
1D9
100
AcDbEntity
  8
0
100
AcDbLine
 10
3786.499999999998
 20
1141.544665012407
 30
0.0
 11
3763.5
 21
1141.544665012407
 31
0.0
  0
LINE
  5
589B
330
1D9
100
AcDbEntity
  8
0
100
AcDbLine
 10
3891.5
 20
1148.044665012406
 30
0.0
 11
3913.499999999998
 21
1148.044665012406
 31
0.0
  0
LINE
  5
589C
330
1D9
100
AcDbEntity
  8
0
100
AcDbLine
 10
1081.499999999999
 20
897.0446650124072
 30
0.0
 11
1140.839999999998
 21
897.0446650124072
 31
0.0
  0
LINE
  5
589D
330
1D9
100
AcDbEntity
  8
0
100
AcDbLine
 10
1081.499999999999
 20
1008.044665012407
 30
0.0
 11
1081.499999999999
 21
897.0446650124072
 31
0.0
  0
LINE
  5
589E
330
1D9
100
AcDbEntity
  8
0
100
AcDbLine
 10
1081.499999999999
 20
1008.044665012407
 30
0.0
 11
1081.499999999999
 21
917.0346650124072
 31
0.0
  0
LINE
  5
589F
330
1D9
100
AcDbEntity
  8
0
100
AcDbLine
 10
1028.499999999999
 20
1008.044665012407
 30
0.0
 11
1028.499999999999
 21
931.5446650124071
 31
0.0
  0
LINE
  5
58A0
330
1D9
100
AcDbEntity
  8
0
100
AcDbLine
 10
988.5000000000003
 20
1008.044665012407
 30
0.0
 11
988.5000000000003
 21
936.0446650124073
 31
0.0
  0
LINE
  5
58A1
330
1D9
100
AcDbEntity
  8
0
100
AcDbLine
 10
998.4999999999997
 20
921.5446650124071
 30
0.0
 11
1018.499999999999
 21
921.5446650124071
 31
0.0
  0
ARC
  5
58A2
330
1D9
100
AcDbEntity
  8
0
100
AcDbCircle
 10
998.4999999999997
 20
931.5446650124071
 30
0.0
 40
10.0
100
AcDbArc
 50
180.0
 51
270.0
  0
LINE
  5
58A3
330
1D9
100
AcDbEntity
  8
0
100
AcDbLine
 10
988.5000000000003
 20
936.0446650124073
 30
0.0
 11
988.5000000000003
 21
931.5446650124071
 31
0.0
  0
ARC
  5
58A4
330
1D9
100
AcDbEntity
  8
0
100
AcDbCircle
 10
1018.499999999999
 20
931.5446650124071
 30
0.0
 40
10.0
100
AcDbArc
 50
270.0
 51
0.0
  0
LINE
  5
58A5
330
1D9
100
AcDbEntity
  8
0
100
AcDbLine
 10
1028.499999999999
 20
949.0446650124072
 30
0.0
 11
1074.539999999997
 21
949.0446650124072
 31
0.0
  0
ARC
  5
58A6
330
1D9
100
AcDbEntity
  8
0
100
AcDbCircle
 10
1142.51
 20
1008.034665012407
 30
0.0
 40
90.0
100
AcDbArc
 50
220.9589999999575
 51
227.327000000039
  0
LINE
  5
58A7
330
1D9
100
AcDbEntity
  8
0
100
AcDbLine
 10
988.5000000000003
 20
1008.044665012407
 30
0.0
 11
988.5000000000003
 21
1080.044665012407
 31
0.0
  0
LINE
  5
58A8
330
1D9
100
AcDbEntity
  8
0
100
AcDbLine
 10
988.5000000000003
 20
1080.044665012407
 30
0.0
 11
988.5000000000003
 21
1084.544665012407
 31
0.0
  0
LINE
  5
58A9
330
1D9
100
AcDbEntity
  8
0
100
AcDbLine
 10
1028.499999999999
 20
1008.044665012407
 30
0.0
 11
1028.499999999999
 21
1084.544665012407
 31
0.0
  0
LINE
  5
58AA
330
1D9
100
AcDbEntity
  8
0
100
AcDbLine
 10
1081.499999999999
 20
1008.044665012407
 30
0.0
 11
1081.499999999999
 21
1008.044665012407
 31
0.0
  0
LINE
  5
58AB
330
1D9
100
AcDbEntity
  8
0
100
AcDbLine
 10
1095.490000000001
 20
1008.044665012407
 30
0.0
 11
1095.490000000001
 21
1008.044665012407
 31
0.0
  0
LINE
  5
58AC
330
1D9
100
AcDbEntity
  8
0
100
AcDbLine
 10
1081.499999999999
 20
1008.044665012407
 30
0.0
 11
1081.499999999999
 21
1008.044665012407
 31
0.0
  0
LINE
  5
58AD
330
1D9
100
AcDbEntity
  8
0
100
AcDbLine
 10
1095.490000000001
 20
1008.044665012407
 30
0.0
 11
1095.490000000001
 21
1008.044665012407
 31
0.0
  0
LINE
  5
58AE
330
1D9
100
AcDbEntity
  8
0
100
AcDbLine
 10
1028.499999999999
 20
1067.044665012407
 30
0.0
 11
1074.539999999997
 21
1067.044665012407
 31
0.0
  0
ARC
  5
58AF
330
1D9
100
AcDbEntity
  8
0
100
AcDbCircle
 10
1142.51
 20
1008.054665012407
 30
0.0
 40
90.0
100
AcDbArc
 50
132.6780000000035
 51
139.0460000000061
  0
LINE
  5
58B0
330
1D9
100
AcDbEntity
  8
0
100
AcDbLine
 10
1274.5
 20
903.0446650124062
 30
0.0
 11
1274.5
 21
1008.044665012405
 31
0.0
  0
LINE
  5
58B1
330
1D9
100
AcDbEntity
  8
0
100
AcDbLine
 10
1292.499999999998
 20
1008.044665012405
 30
0.0
 11
1292.499999999998
 21
903.0446650124062
 31
0.0
  0
LINE
  5
58B2
330
1D9
100
AcDbEntity
  8
0
100
AcDbLine
 10
1221.500000000001
 20
946.9055203494376
 30
0.0
 11
1221.5
 21
1008.044665012405
 31
0.0
  0
LINE
  5
58B3
330
1D9
100
AcDbEntity
  8
0
100
AcDbLine
 10
1165.579999999999
 20
901.0446650124071
 30
0.0
 11
1165.579999999999
 21
1008.044665012407
 31
0.0
  0
LINE
  5
58B4
330
1D9
100
AcDbEntity
  8
0
100
AcDbLine
 10
1142.5
 20
900.9646650124071
 30
0.0
 11
1142.5
 21
1008.044665012407
 31
0.0
  0
ARC
  5
58B5
330
1D9
100
AcDbEntity
  8
0
100
AcDbCircle
 10
1229.219999999998
 20
934.0446650124063
 30
0.0
 40
15.0
100
AcDbArc
 50
90.00099999999646
 51
139.5249999999887
  0
ARC
  5
58B6
330
1D9
100
AcDbEntity
  8
0
100
AcDbCircle
 10
1142.51
 20
1008.054665012406
 30
0.0
 40
99.0
100
AcDbArc
 50
283.4808000000125
 51
319.5241999999726
  0
LINE
  5
58B7
330
1D9
100
AcDbEntity
  8
0
100
AcDbLine
 10
1165.749999999998
 20
901.0446650124071
 30
0.0
 11
1143.629999999999
 21
901.0446650124071
 31
0.0
  0
LINE
  5
58B8
330
1D9
100
AcDbEntity
  8
0
100
AcDbLine
 10
1143.629999999999
 20
901.0446650124071
 30
0.0
 11
1140.839999999998
 21
897.0446650124072
 31
0.0
  0
LINE
  5
58B9
330
1D9
100
AcDbEntity
  8
0
100
AcDbLine
 10
1292.499999999998
 20
903.0446650124062
 30
0.0
 11
1274.5
 21
903.0446650124062
 31
0.0
  0
LINE
  5
58BA
330
1D9
100
AcDbEntity
  8
0
100
AcDbLine
 10
1245.509999999999
 20
949.0446650124063
 30
0.0
 11
1229.219999999998
 21
949.0446650124063
 31
0.0
  0
LINE
  5
58BB
330
1D9
100
AcDbEntity
  8
0
100
AcDbLine
 10
1274.5
 20
943.4671706052464
 30
0.0
 11
1245.509999999999
 21
949.0446650124063
 31
0.0
  0
ARC
  5
58BC
330
1D9
100
AcDbEntity
  8
0
100
AcDbCircle
 10
1229.219999999998
 20
1082.044665012407
 30
0.0
 40
15.0
100
AcDbArc
 50
220.4750000000111
 51
269.9990000000034
  0
LINE
  5
58BD
330
1D9
100
AcDbEntity
  8
0
100
AcDbLine
 10
1221.500000000001
 20
1069.183809675376
 30
0.0
 11
1221.5
 21
1008.044665012407
 31
0.0
  0
LINE
  5
58BE
330
1D9
100
AcDbEntity
  8
0
100
AcDbLine
 10
1115.499999999999
 20
1008.044665012407
 30
0.0
 11
1115.499999999999
 21
1008.044665012407
 31
0.0
  0
LINE
  5
58BF
330
1D9
100
AcDbEntity
  8
0
100
AcDbLine
 10
1115.499999999999
 20
1008.044665012407
 30
0.0
 11
1115.499999999999
 21
1008.044665012407
 31
0.0
  0
LINE
  5
58C0
330
1D9
100
AcDbEntity
  8
0
100
AcDbLine
 10
1245.509999999999
 20
1067.044665012407
 30
0.0
 11
1229.219999999998
 21
1067.044665012407
 31
0.0
  0
LINE
  5
58C1
330
1D9
100
AcDbEntity
  8
0
100
AcDbLine
 10
1274.5
 20
1072.622159419567
 30
0.0
 11
1245.509999999999
 21
1067.044665012407
 31
0.0
  0
LINE
  5
58C2
330
1D9
100
AcDbEntity
  8
0
100
AcDbLine
 10
1315.500000000001
 20
357.0446650124071
 30
0.0
 11
1315.500000000001
 21
192.0446650124072
 31
0.0
  0
LINE
  5
58C3
330
1D9
100
AcDbEntity
  8
0
100
AcDbLine
 10
1337.499999999999
 20
192.0446650124072
 30
0.0
 11
1337.499999999999
 21
357.0446650124071
 31
0.0
  0
LINE
  5
58C4
330
1D9
100
AcDbEntity
  8
0
100
AcDbLine
 10
1288.500000000001
 20
302.0960062096913
 30
0.0
 11
1288.500000000001
 21
192.0446650124072
 31
0.0
  0
LINE
  5
58C5
330
1D9
100
AcDbEntity
  8
0
100
AcDbLine
 10
1315.500000000001
 20
27.04466501240721
 30
0.0
 11
1315.500000000001
 21
192.0446650124072
 31
0.0
  0
LINE
  5
58C6
330
1D9
100
AcDbEntity
  8
0
100
AcDbLine
 10
1337.499999999999
 20
192.0446650124072
 30
0.0
 11
1337.499999999999
 21
27.04466501240721
 31
0.0
  0
LINE
  5
58C7
330
1D9
100
AcDbEntity
  8
0
100
AcDbLine
 10
1288.500000000001
 20
81.99332381512297
 30
0.0
 11
1288.500000000001
 21
192.0446650124072
 31
0.0
  0
LINE
  5
58C8
330
1D9
100
AcDbEntity
  8
0
100
AcDbLine
 10
1315.500000000001
 20
27.04466501240721
 30
0.0
 11
1337.499999999999
 21
27.04466501240721
 31
0.0
  0
LINE
  5
58C9
330
1D9
100
AcDbEntity
  8
0
100
AcDbLine
 10
1315.500000000001
 20
76.84665483716663
 30
0.0
 11
1288.69
 21
82.0146650124075
 31
0.0
  0
LINE
  5
58CA
330
1D9
100
AcDbEntity
  8
0
100
AcDbLine
 10
1315.500000000001
 20
307.2426751876478
 30
0.0
 11
1288.69
 21
302.0746650124066
 31
0.0
  0
LINE
  5
58CB
330
1D9
100
AcDbEntity
  8
0
100
AcDbLine
 10
1315.500000000001
 20
357.0446650124071
 30
0.0
 11
1337.499999999999
 21
357.0446650124071
 31
0.0
  0
ARC
  5
58CD
330
1D9
100
AcDbEntity
  8
0
100
AcDbCircle
 10
1175.999999999999
 20
1899.544665012406
 30
0.0
 40
2.0
100
AcDbArc
 50
90.0
 51
180.0
  0
ARC
  5
58CE
330
1D9
100
AcDbEntity
  8
0
100
AcDbCircle
 10
289.0000000000004
 20
1899.544665012406
 30
0.0
 40
2.0
100
AcDbArc
 50
0.0
 51
90.0
  0
LINE
  5
58D1
330
1D9
100
AcDbEntity
  8
0
100
AcDbLine
 10
3026.490000000001
 20
1767.044665012406
 30
0.0
 11
3578.490000000001
 21
1767.044665012406
 31
0.0
  0
LINE
  5
58D2
330
1D9
100
AcDbEntity
  8
0
100
AcDbLine
 10
3026.490000000001
 20
1881.044665012406
 30
0.0
 11
3578.490000000001
 21
1881.044665012406
 31
0.0
  0
LINE
  5
58D3
330
1D9
100
AcDbEntity
  8
0
100
AcDbLine
 10
265.0000000000013
 20
1824.044665012405
 30
0.0
 11
1199.999999999999
 21
1824.044665012405
 31
0.0
  0
LINE
  5
58D4
330
1D9
100
AcDbEntity
  8
0
100
AcDbLine
 10
539.0000000000005
 20
1873.044665012407
 30
0.0
 11
590.0000000000012
 21
1873.044665012407
 31
0.0
  0
LINE
  5
58D5
330
1D9
100
AcDbEntity
  8
0
100
AcDbLine
 10
539.0000000000005
 20
1775.044665012407
 30
0.0
 11
590.0000000000012
 21
1775.044665012407
 31
0.0
  0
LINE
  5
58D6
330
1D9
100
AcDbEntity
  8
0
100
AcDbLine
 10
2798.5
 20
1824.044665012405
 30
0.0
 11
3878.499999999998
 21
1824.044665012405
 31
0.0
  0
LINE
  5
58D8
330
1D9
100
AcDbEntity
  8
0
100
AcDbLine
 10
2826.5
 20
1916.544665012406
 30
0.0
 11
2826.5
 21
1824.044665012405
 31
0.0
  0
LINE
  5
58D9
330
1D9
100
AcDbEntity
  8
0
100
AcDbLine
 10
2943.490000000002
 20
1928.034665012407
 30
0.0
 11
2943.490000000002
 21
1720.044665012406
 31
0.0
  0
LINE
  5
58DA
330
1D9
100
AcDbEntity
  8
0
100
AcDbLine
 10
2994.5
 20
1824.034665012407
 30
0.0
 11
2994.5
 21
1918.034665012407
 31
0.0
  0
LINE
  5
58DB
330
1D9
100
AcDbEntity
  8
0
100
AcDbLine
 10
2923.0
 20
1913.544665012406
 30
0.0
 11
2923.0
 21
1824.034665012407
 31
0.0
  0
ARC
  5
58DC
330
1D9
100
AcDbEntity
  8
0
100
AcDbCircle
 10
2943.490000000002
 20
1824.034665012407
 30
0.0
 40
82.5
100
AcDbArc
 50
104.3870000000125
 51
140.8920000000051
  0
LINE
  5
58DD
330
1D9
100
AcDbEntity
  8
0
100
AcDbLine
 10
2943.5
 20
1913.714665012405
 30
0.0
 11
2943.5
 21
1824.034665012407
 31
0.0
  0
LINE
  5
58DE
330
1D9
100
AcDbEntity
  8
0
100
AcDbLine
 10
2808.5
 20
1824.034665012407
 30
0.0
 11
2808.5
 21
1916.544665012406
 31
0.0
  0
LINE
  5
58DF
330
1D9
100
AcDbEntity
  8
0
100
AcDbLine
 10
172.5000000000004
 20
1113.044665012407
 30
0.0
 11
190.5000000000004
 21
1113.044665012407
 31
0.0
  0
LINE
  5
58E0
330
1D9
100
AcDbEntity
  8
0
100
AcDbLine
 10
383.5000000000004
 20
1119.044665012407
 30
0.0
 11
324.1699999999996
 21
1119.044665012407
 31
0.0
  0
LINE
  5
58E1
330
1D9
100
AcDbEntity
  8
0
100
AcDbLine
 10
299.2599999999997
 20
1115.044665012407
 30
0.0
 11
321.3799999999995
 21
1115.044665012407
 31
0.0
  0
LINE
  5
58E2
330
1D9
100
AcDbEntity
  8
0
100
AcDbLine
 10
321.3799999999995
 20
1115.044665012407
 30
0.0
 11
324.1699999999996
 21
1119.044665012407
 31
0.0
  0
ARC
  5
58E3
330
1D9
100
AcDbEntity
  8
0
100
AcDbCircle
 10
2943.490000000002
 20
1824.044665012405
 30
0.0
 40
82.5
100
AcDbArc
 50
219.1069999999981
 51
255.6119999999912
  0
LINE
  5
58E4
330
1D9
100
AcDbEntity
  8
0
100
AcDbLine
 10
2826.5
 20
1731.544665012407
 30
0.0
 11
2826.5
 21
1824.044665012405
 31
0.0
  0
LINE
  5
58E5
330
1D9
100
AcDbEntity
  8
0
100
AcDbLine
 10
2808.5
 20
1824.054665012407
 30
0.0
 11
2808.5
 21
1731.544665012407
 31
0.0
  0
LINE
  5
58E6
330
1D9
100
AcDbEntity
  8
0
100
AcDbLine
 10
2875.35
 20
1824.044665012405
 30
0.0
 11
2875.350000000001
 21
1775.529267432196
 31
0.0
  0
LINE
  5
58E7
330
1D9
100
AcDbEntity
  8
0
100
AcDbLine
 10
2826.5
 20
1771.962155230405
 30
0.0
 11
2855.500000000001
 21
1777.554665012407
 31
0.0
  0
LINE
  5
58E8
330
1D9
100
AcDbEntity
  8
0
100
AcDbLine
 10
2808.5
 20
1731.544665012407
 30
0.0
 11
2826.5
 21
1731.544665012407
 31
0.0
  0
ARC
  5
58E9
330
1D9
100
AcDbEntity
  8
0
100
AcDbCircle
 10
2867.840000000001
 20
1762.544665012407
 30
0.0
 40
15.0
100
AcDbArc
 50
39.10630000002001
 51
89.99809999999081
  0
LINE
  5
58EA
330
1D9
100
AcDbEntity
  8
0
100
AcDbLine
 10
2855.500000000001
 20
1777.544665012405
 30
0.0
 11
2867.840000000001
 21
1777.544665012405
 31
0.0
  0
LINE
  5
58EB
330
1D9
100
AcDbEntity
  8
0
100
AcDbLine
 10
2855.500000000001
 20
1777.544665012405
 30
0.0
 11
2867.840000000001
 21
1777.544665012405
 31
0.0
  0
LINE
  5
58EC
330
1D9
100
AcDbEntity
  8
0
100
AcDbLine
 10
2875.35
 20
1824.034665012407
 30
0.0
 11
2875.350000000001
 21
1872.550062592618
 31
0.0
  0
LINE
  5
58ED
330
1D9
100
AcDbEntity
  8
0
100
AcDbLine
 10
2826.5
 20
1876.127174794408
 30
0.0
 11
2855.500000000001
 21
1870.534665012407
 31
0.0
  0
ARC
  5
58EE
330
1D9
100
AcDbEntity
  8
0
100
AcDbCircle
 10
2867.840000000001
 20
1885.534665012406
 30
0.0
 40
15.0
100
AcDbArc
 50
270.0009999999963
 51
320.8930000000018
  0
LINE
  5
58EF
330
1D9
100
AcDbEntity
  8
0
100
AcDbLine
 10
2855.500000000001
 20
1870.534665012407
 30
0.0
 11
2867.840000000001
 21
1870.534665012407
 31
0.0
  0
LINE
  5
58F0
330
1D9
100
AcDbEntity
  8
0
100
AcDbLine
 10
2855.500000000001
 20
1870.534665012407
 30
0.0
 11
2867.840000000001
 21
1870.534665012407
 31
0.0
  0
LINE
  5
58F1
330
1D9
100
AcDbEntity
  8
0
100
AcDbLine
 10
2994.5
 20
1824.044665012405
 30
0.0
 11
2994.5
 21
1730.044665012407
 31
0.0
  0
LINE
  5
58F2
330
1D9
100
AcDbEntity
  8
0
100
AcDbLine
 10
2923.0
 20
1734.544665012406
 30
0.0
 11
2923.0
 21
1824.044665012405
 31
0.0
  0
LINE
  5
58F3
330
1D9
100
AcDbEntity
  8
0
100
AcDbLine
 10
2943.5
 20
1734.364665012406
 30
0.0
 11
2943.5
 21
1824.044665012405
 31
0.0
  0
LINE
  5
58F4
330
1D9
100
AcDbEntity
  8
0
100
AcDbLine
 10
2948.0
 20
1730.044665012407
 30
0.0
 11
2994.5
 21
1730.044665012407
 31
0.0
  0
LINE
  5
58F5
330
1D9
100
AcDbEntity
  8
0
100
AcDbLine
 10
2943.5
 20
1734.544665012406
 30
0.0
 11
2923.0
 21
1734.544665012406
 31
0.0
  0
LINE
  5
58F6
330
1D9
100
AcDbEntity
  8
0
100
AcDbLine
 10
2923.0
 20
1740.334665012406
 30
0.0
 11
2923.0
 21
1739.544665012406
 31
0.0
  0
LINE
  5
58F7
330
1D9
100
AcDbEntity
  8
0
100
AcDbLine
 10
2943.490000000002
 20
1734.544665012406
 30
0.0
 11
2948.0
 21
1730.044665012407
 31
0.0
  0
ARC
  5
58F8
330
1D9
100
AcDbEntity
  8
0
100
AcDbCircle
 10
3003.020000000001
 20
1758.544665012407
 30
0.0
 40
15.0
100
AcDbArc
 50
89.99919999999761
 51
124.612000000001
  0
LINE
  5
58F9
330
1D9
100
AcDbEntity
  8
0
100
AcDbLine
 10
3026.490000000001
 20
1767.044665012406
 30
0.0
 11
3015.490000000001
 21
1773.544665012406
 31
0.0
  0
LINE
  5
58FA
330
1D9
100
AcDbEntity
  8
0
100
AcDbLine
 10
3003.010000000001
 20
1773.544665012406
 30
0.0
 11
3015.490000000001
 21
1773.544665012406
 31
0.0
  0
ARC
  5
58FB
330
1D9
100
AcDbEntity
  8
0
100
AcDbCircle
 10
3003.010000000001
 20
1889.544665012406
 30
0.0
 40
15.0
100
AcDbArc
 50
235.3899999999955
 51
270.0009999999963
  0
LINE
  5
58FC
330
1D9
100
AcDbEntity
  8
0
100
AcDbLine
 10
3003.010000000001
 20
1874.544665012407
 30
0.0
 11
3015.490000000001
 21
1874.544665012407
 31
0.0
  0
LINE
  5
58FD
330
1D9
100
AcDbEntity
  8
0
100
AcDbLine
 10
3026.490000000001
 20
1881.044665012406
 30
0.0
 11
3015.490000000001
 21
1874.544665012407
 31
0.0
  0
LINE
  5
58FE
330
1D9
100
AcDbEntity
  8
0
100
AcDbLine
 10
2808.5
 20
1916.544665012406
 30
0.0
 11
2826.5
 21
1916.544665012406
 31
0.0
  0
LINE
  5
58FF
330
1D9
100
AcDbEntity
  8
0
100
AcDbLine
 10
2948.0
 20
1918.034665012407
 30
0.0
 11
2994.5
 21
1918.034665012407
 31
0.0
  0
LINE
  5
5900
330
1D9
100
AcDbEntity
  8
0
100
AcDbLine
 10
2943.5
 20
1913.544665012406
 30
0.0
 11
2923.0
 21
1913.544665012406
 31
0.0
  0
LINE
  5
5901
330
1D9
100
AcDbEntity
  8
0
100
AcDbLine
 10
2923.0
 20
1907.744665012407
 30
0.0
 11
2923.0
 21
1908.544665012406
 31
0.0
  0
LINE
  5
5902
330
1D9
100
AcDbEntity
  8
0
100
AcDbLine
 10
2943.490000000002
 20
1913.534665012407
 30
0.0
 11
2948.0
 21
1918.034665012407
 31
0.0
  0
ARC
  5
5903
330
1D9
100
AcDbEntity
  8
0
100
AcDbCircle
 10
375.0099999999997
 20
1824.044665012405
 30
0.0
 40
58.5
100
AcDbArc
 50
105.3330000000055
 51
145.8760000000042
  0
ARC
  5
5904
330
1D9
100
AcDbEntity
  8
0
100
AcDbCircle
 10
375.0099999999997
 20
1824.034665012407
 30
0.0
 40
58.5
100
AcDbArc
 50
214.121999999977
 51
254.6650000000005
  0
LINE
  5
5906
330
1D9
100
AcDbEntity
  8
0
100
AcDbLine
 10
275.0000000000003
 20
1746.544665012407
 30
0.0
 11
275.0000000000003
 21
1824.044665012405
 31
0.0
  0
LINE
  5
5907
330
1D9
100
AcDbEntity
  8
0
100
AcDbLine
 10
291.0000000000012
 20
1748.544665012406
 30
0.0
 11
291.0000000000012
 21
1824.044665012405
 31
0.0
  0
LINE
  5
5908
330
1D9
100
AcDbEntity
  8
0
100
AcDbLine
 10
291.0000000000012
 20
1788.026592723249
 30
0.0
 11
315.0000000000013
 21
1792.544665012407
 31
0.0
  0
LINE
  5
5909
330
1D9
100
AcDbEntity
  8
0
100
AcDbLine
 10
275.0000000000003
 20
1746.544665012407
 30
0.0
 11
289.0000000000004
 21
1746.544665012407
 31
0.0
  0
ARC
  5
590A
330
1D9
100
AcDbEntity
  8
0
100
AcDbCircle
 10
289.0000000000004
 20
1748.544665012406
 30
0.0
 40
2.0
100
AcDbArc
 50
270.0
 51
0.0
  0
LINE
  5
590B
330
1D9
100
AcDbEntity
  8
0
100
AcDbLine
 10
275.0000000000003
 20
1901.544665012407
 30
0.0
 11
275.0000000000003
 21
1824.044665012405
 31
0.0
  0
LINE
  5
590C
330
1D9
100
AcDbEntity
  8
0
100
AcDbLine
 10
325.7199999999996
 20
1824.044665012405
 30
0.0
 11
325.7199999999996
 21
1855.504665012405
 31
0.0
  0
LINE
  5
590D
330
1D9
100
AcDbEntity
  8
0
100
AcDbLine
 10
291.0000000000012
 20
1899.544665012406
 30
0.0
 11
291.0000000000012
 21
1824.044665012405
 31
0.0
  0
LINE
  5
590E
330
1D9
100
AcDbEntity
  8
0
100
AcDbLine
 10
325.7199999999996
 20
1824.044665012405
 30
0.0
 11
325.7199999999996
 21
1792.564665012408
 31
0.0
  0
ARC
  5
590F
330
1D9
100
AcDbEntity
  8
0
100
AcDbCircle
 10
324.0999999999999
 20
1789.544665012406
 30
0.0
 40
3.0
100
AcDbArc
 50
34.12740000001408
 51
90.00040000001421
  0
LINE
  5
5910
330
1D9
100
AcDbEntity
  8
0
100
AcDbLine
 10
315.0000000000013
 20
1792.544665012407
 30
0.0
 11
324.0999999999999
 21
1792.544665012407
 31
0.0
  0
LINE
  5
5911
330
1D9
100
AcDbEntity
  8
0
100
AcDbLine
 10
291.0000000000012
 20
1860.038640916022
 30
0.0
 11
315.0000000000013
 21
1855.544665012407
 31
0.0
  0
LINE
  5
5912
330
1D9
100
AcDbEntity
  8
0
100
AcDbLine
 10
275.0000000000003
 20
1901.544665012407
 30
0.0
 11
289.0000000000004
 21
1901.544665012407
 31
0.0
  0
ARC
  5
5913
330
1D9
100
AcDbEntity
  8
0
100
AcDbCircle
 10
324.0999999999999
 20
1858.544665012407
 30
0.0
 40
3.0
100
AcDbArc
 50
269.9990000000034
 51
325.872000000012
  0
LINE
  5
5914
330
1D9
100
AcDbEntity
  8
0
100
AcDbLine
 10
315.0000000000013
 20
1855.544665012407
 30
0.0
 11
324.0999999999999
 21
1855.544665012407
 31
0.0
  0
LINE
  5
5915
330
1D9
100
AcDbEntity
  8
0
100
AcDbLine
 10
375.0000000000003
 20
1901.544665012407
 30
0.0
 11
375.0000000000003
 21
1746.544665012407
 31
0.0
  0
LINE
  5
5916
330
1D9
100
AcDbEntity
  8
0
100
AcDbLine
 10
537.0000000000012
 20
1824.044665012405
 30
0.0
 11
537.0000000000012
 21
1777.044665012406
 31
0.0
  0
ARC
  5
5917
330
1D9
100
AcDbEntity
  8
0
100
AcDbCircle
 10
423.0000000000003
 20
1788.544665012406
 30
0.0
 40
2.0
100
AcDbArc
 50
0.0
 51
90.0
  0
LINE
  5
5918
330
1D9
100
AcDbEntity
  8
0
100
AcDbLine
 10
361.0000000000003
 20
1765.694665012408
 30
0.0
 11
361.0000000000003
 21
1824.044665012405
 31
0.0
  0
LINE
  5
5919
330
1D9
100
AcDbEntity
  8
0
100
AcDbLine
 10
404.0000000000013
 20
1824.044665012405
 30
0.0
 11
404.0000000000013
 21
1758.544665012407
 31
0.0
  0
LINE
  5
591A
330
1D9
100
AcDbEntity
  8
0
100
AcDbLine
 10
427.0000000000004
 20
1786.294665012406
 30
0.0
 11
537.0000000000012
 21
1786.294665012406
 31
0.0
  0
ARC
  5
591B
330
1D9
100
AcDbEntity
  8
0
100
AcDbCircle
 10
375.0000000000003
 20
1824.034665012407
 30
0.0
 40
51.5
100
AcDbArc
 50
304.2700000000106
 51
318.4269999999798
  0
ARC
  5
591C
330
1D9
100
AcDbEntity
  8
0
100
AcDbCircle
 10
402.0000000000012
 20
1758.544665012407
 30
0.0
 40
2.0
100
AcDbArc
 50
270.0
 51
0.0
  0
LINE
  5
591D
330
1D9
100
AcDbEntity
  8
0
100
AcDbLine
 10
383.7199999999997
 20
1756.544665012406
 30
0.0
 11
402.0000000000012
 21
1756.544665012406
 31
0.0
  0
ARC
  5
591E
330
1D9
100
AcDbEntity
  8
0
100
AcDbCircle
 10
380.0099999999988
 20
1757.044665012406
 30
0.0
 40
2.0
100
AcDbArc
 50
22.02430000000623
 51
90.01259999998872
  0
ARC
  5
591F
330
1D9
100
AcDbEntity
  8
0
100
AcDbCircle
 10
383.7099999999986
 20
1758.544665012407
 30
0.0
 40
2.0
100
AcDbArc
 50
202.0240000000153
 51
269.9980000000067
  0
LINE
  5
5920
330
1D9
100
AcDbEntity
  8
0
100
AcDbLine
 10
363.0000000000003
 20
1759.044665012407
 30
0.0
 11
380.0000000000013
 21
1759.044665012407
 31
0.0
  0
ARC
  5
5921
330
1D9
100
AcDbEntity
  8
0
100
AcDbCircle
 10
363.0000000000003
 20
1761.044665012406
 30
0.0
 40
2.0
100
AcDbArc
 50
180.0
 51
270.0
  0
LINE
  5
5922
330
1D9
100
AcDbEntity
  8
0
100
AcDbLine
 10
361.0000000000003
 20
1765.694665012408
 30
0.0
 11
361.0000000000003
 21
1761.044665012406
 31
0.0
  0
ARC
  5
5923
330
1D9
100
AcDbEntity
  8
0
100
AcDbCircle
 10
359.0000000000003
 20
1765.694665012408
 30
0.0
 40
2.0
100
AcDbArc
 50
359.9990000000035
 51
74.65390000000022
  0
ARC
  5
5924
330
1D9
100
AcDbEntity
  8
0
100
AcDbCircle
 10
427.0000000000004
 20
1788.294665012406
 30
0.0
 40
2.0
100
AcDbArc
 50
180.0
 51
270.0
  0
LINE
  5
5925
330
1D9
100
AcDbEntity
  8
0
100
AcDbLine
 10
425.0000000000004
 20
1788.544665012406
 30
0.0
 11
425.0000000000004
 21
1788.294665012406
 31
0.0
  0
LINE
  5
5926
330
1D9
100
AcDbEntity
  8
0
100
AcDbLine
 10
415.0400000000012
 20
1790.544665012407
 30
0.0
 11
423.0000000000003
 21
1790.544665012407
 31
0.0
  0
ARC
  5
5927
330
1D9
100
AcDbEntity
  8
0
100
AcDbCircle
 10
415.0400000000012
 20
1788.544665012406
 30
0.0
 40
2.0
100
AcDbArc
 50
89.98959999999051
 51
138.4260000000165
  0
ARC
  5
5928
330
1D9
100
AcDbEntity
  8
0
100
AcDbCircle
 10
539.0000000000005
 20
1777.044665012406
 30
0.0
 40
2.0
100
AcDbArc
 50
180.0
 51
270.0
  0
LINE
  5
5929
330
1D9
100
AcDbEntity
  8
0
100
AcDbLine
 10
427.0000000000004
 20
1861.794665012406
 30
0.0
 11
537.0000000000012
 21
1861.794665012406
 31
0.0
  0
LINE
  5
592A
330
1D9
100
AcDbEntity
  8
0
100
AcDbLine
 10
361.0000000000003
 20
1882.384665012408
 30
0.0
 11
361.0000000000003
 21
1824.044665012405
 31
0.0
  0
LINE
  5
592B
330
1D9
100
AcDbEntity
  8
0
100
AcDbLine
 10
404.0000000000013
 20
1824.044665012405
 30
0.0
 11
404.0000000000013
 21
1889.544665012406
 31
0.0
  0
ARC
  5
592C
330
1D9
100
AcDbEntity
  8
0
100
AcDbCircle
 10
375.0000000000003
 20
1824.044665012405
 30
0.0
 40
51.5
100
AcDbArc
 50
41.57199999998598
 51
55.72969999999928
  0
ARC
  5
592D
330
1D9
100
AcDbEntity
  8
0
100
AcDbCircle
 10
402.0000000000012
 20
1889.544665012406
 30
0.0
 40
2.0
100
AcDbArc
 50
0.0
 51
90.0
  0
LINE
  5
592E
330
1D9
100
AcDbEntity
  8
0
100
AcDbLine
 10
383.7199999999997
 20
1891.544665012406
 30
0.0
 11
402.0000000000012
 21
1891.544665012406
 31
0.0
  0
ARC
  5
592F
330
1D9
100
AcDbEntity
  8
0
100
AcDbCircle
 10
380.0099999999988
 20
1891.044665012406
 30
0.0
 40
2.0
100
AcDbArc
 50
269.986999999987
 51
337.9750000000076
  0
ARC
  5
5930
330
1D9
100
AcDbEntity
  8
0
100
AcDbCircle
 10
383.7099999999986
 20
1889.544665012406
 30
0.0
 40
2.0
100
AcDbArc
 50
90.00130000000067
 51
157.9750000000077
  0
LINE
  5
5931
330
1D9
100
AcDbEntity
  8
0
100
AcDbLine
 10
363.0000000000003
 20
1889.044665012407
 30
0.0
 11
380.0000000000013
 21
1889.044665012407
 31
0.0
  0
ARC
  5
5932
330
1D9
100
AcDbEntity
  8
0
100
AcDbCircle
 10
363.0000000000003
 20
1887.044665012407
 30
0.0
 40
2.0
100
AcDbArc
 50
90.0
 51
180.0
  0
LINE
  5
5933
330
1D9
100
AcDbEntity
  8
0
100
AcDbLine
 10
361.0000000000003
 20
1882.384665012408
 30
0.0
 11
361.0000000000003
 21
1887.044665012407
 31
0.0
  0
ARC
  5
5934
330
1D9
100
AcDbEntity
  8
0
100
AcDbCircle
 10
359.0000000000003
 20
1882.394665012408
 30
0.0
 40
2.0
100
AcDbArc
 50
285.3460000000044
 51
0.0006000000082866
  0
ARC
  5
5935
330
1D9
100
AcDbEntity
  8
0
100
AcDbCircle
 10
427.0000000000004
 20
1859.794665012406
 30
0.0
 40
2.0
100
AcDbArc
 50
90.0
 51
180.0
  0
LINE
  5
5936
330
1D9
100
AcDbEntity
  8
0
100
AcDbLine
 10
425.0000000000004
 20
1859.544665012406
 30
0.0
 11
425.0000000000004
 21
1859.794665012406
 31
0.0
  0
ARC
  5
5937
330
1D9
100
AcDbEntity
  8
0
100
AcDbCircle
 10
423.0000000000003
 20
1859.544665012406
 30
0.0
 40
2.0
100
AcDbArc
 50
270.0
 51
0.0
  0
LINE
  5
5938
330
1D9
100
AcDbEntity
  8
0
100
AcDbLine
 10
415.0400000000012
 20
1857.544665012406
 30
0.0
 11
423.0000000000003
 21
1857.544665012406
 31
0.0
  0
ARC
  5
5939
330
1D9
100
AcDbEntity
  8
0
100
AcDbCircle
 10
415.0400000000012
 20
1859.544665012406
 30
0.0
 40
2.0
100
AcDbArc
 50
221.57300000002
 51
270.010000000015
  0
LINE
  5
593A
330
1D9
100
AcDbEntity
  8
0
100
AcDbLine
 10
537.0000000000012
 20
1824.044665012405
 30
0.0
 11
537.0000000000012
 21
1871.044665012407
 31
0.0
  0
ARC
  5
593B
330
1D9
100
AcDbEntity
  8
0
100
AcDbCircle
 10
539.0000000000005
 20
1871.044665012407
 30
0.0
 40
2.0
100
AcDbArc
 50
90.0
 51
180.0
  0
LINE
  5
593C
330
1D9
100
AcDbEntity
  8
0
100
AcDbLine
 10
3850.499999999998
 20
1916.534665012407
 30
0.0
 11
3850.499999999998
 21
1824.034665012407
 31
0.0
  0
LINE
  5
593D
330
1D9
100
AcDbEntity
  8
0
100
AcDbLine
 10
3733.499999999998
 20
1720.034665012407
 30
0.0
 11
3733.499999999998
 21
1928.024665012407
 31
0.0
  0
LINE
  5
593E
330
1D9
100
AcDbEntity
  8
0
100
AcDbLine
 10
3682.499999999999
 20
1824.024665012407
 30
0.0
 11
3682.499999999999
 21
1918.024665012407
 31
0.0
  0
LINE
  5
593F
330
1D9
100
AcDbEntity
  8
0
100
AcDbLine
 10
3754.0
 20
1913.534665012407
 30
0.0
 11
3754.0
 21
1824.024665012407
 31
0.0
  0
ARC
  5
5940
330
1D9
100
AcDbEntity
  8
0
100
AcDbCircle
 10
3733.499999999998
 20
1824.024665012407
 30
0.0
 40
82.5
100
AcDbArc
 50
39.10679999998864
 51
75.61209999999674
  0
LINE
  5
5941
330
1D9
100
AcDbEntity
  8
0
100
AcDbLine
 10
3733.499999999998
 20
1913.704665012406
 30
0.0
 11
3733.499999999998
 21
1824.024665012407
 31
0.0
  0
LINE
  5
5942
330
1D9
100
AcDbEntity
  8
0
100
AcDbLine
 10
3868.499999999999
 20
1824.024665012407
 30
0.0
 11
3868.499999999999
 21
1916.534665012407
 31
0.0
  0
ARC
  5
5943
330
1D9
100
AcDbEntity
  8
0
100
AcDbCircle
 10
3608.489999999999
 20
1887.044665012407
 30
0.0
 40
10.0
100
AcDbArc
 50
0.0
 51
90.0
  0
ARC
  5
5944
330
1D9
100
AcDbEntity
  8
0
100
AcDbCircle
 10
3588.490000000001
 20
1887.044665012407
 30
0.0
 40
10.0
100
AcDbArc
 50
90.0
 51
180.0
  0
LINE
  5
5945
330
1D9
100
AcDbEntity
  8
0
100
AcDbLine
 10
1081.499999999999
 20
1119.044665012407
 30
0.0
 11
1140.839999999998
 21
1119.044665012407
 31
0.0
  0
LINE
  5
5946
330
1D9
100
AcDbEntity
  8
0
100
AcDbLine
 10
998.4999999999997
 20
1094.544665012407
 30
0.0
 11
1018.499999999999
 21
1094.544665012407
 31
0.0
  0
LINE
  5
5947
330
1D9
100
AcDbEntity
  8
0
100
AcDbLine
 10
1165.749999999998
 20
1115.044665012407
 30
0.0
 11
1143.629999999999
 21
1115.044665012407
 31
0.0
  0
LINE
  5
5948
330
1D9
100
AcDbEntity
  8
0
100
AcDbLine
 10
1143.629999999999
 20
1115.044665012407
 30
0.0
 11
1140.839999999998
 21
1119.044665012407
 31
0.0
  0
LINE
  5
5949
330
1D9
100
AcDbEntity
  8
0
100
AcDbLine
 10
1292.499999999998
 20
1113.044665012407
 30
0.0
 11
1274.5
 21
1113.044665012407
 31
0.0
  0
LINE
  5
594A
330
1D9
100
AcDbEntity
  8
0
100
AcDbLine
 10
3733.499999999998
 20
1734.534665012407
 30
0.0
 11
3754.0
 21
1734.534665012407
 31
0.0
  0
LINE
  5
594B
330
1D9
100
AcDbEntity
  8
0
100
AcDbLine
 10
3682.499999999999
 20
1824.034665012407
 30
0.0
 11
3682.499999999999
 21
1730.034665012406
 31
0.0
  0
LINE
  5
594C
330
1D9
100
AcDbEntity
  8
0
100
AcDbLine
 10
3733.499999999998
 20
1734.354665012406
 30
0.0
 11
3733.499999999998
 21
1824.034665012407
 31
0.0
  0
LINE
  5
594D
330
1D9
100
AcDbEntity
  8
0
100
AcDbLine
 10
3578.490000000001
 20
1824.044665012405
 30
0.0
 11
3578.490000000001
 21
1761.044665012406
 31
0.0
  0
LINE
  5
594E
330
1D9
100
AcDbEntity
  8
0
100
AcDbLine
 10
3618.490000000001
 20
1761.044665012406
 30
0.0
 11
3618.490000000001
 21
1824.044665012405
 31
0.0
  0
LINE
  5
594F
330
1D9
100
AcDbEntity
  8
0
100
AcDbLine
 10
3618.490000000001
 20
1777.534665012407
 30
0.0
 11
3676.599999999995
 21
1777.534665012407
 31
0.0
  0
ARC
  5
5950
330
1D9
100
AcDbEntity
  8
0
100
AcDbCircle
 10
3588.490000000001
 20
1761.044665012406
 30
0.0
 40
10.0
100
AcDbArc
 50
180.0
 51
270.0
  0
ARC
  5
5951
330
1D9
100
AcDbEntity
  8
0
100
AcDbCircle
 10
3608.489999999999
 20
1761.044665012406
 30
0.0
 40
10.0
100
AcDbArc
 50
270.0
 51
0.0
  0
LINE
  5
5952
330
1D9
100
AcDbEntity
  8
0
100
AcDbLine
 10
3588.490000000001
 20
1751.044665012406
 30
0.0
 11
3608.489999999999
 21
1751.044665012406
 31
0.0
  0
LINE
  5
5953
330
1D9
100
AcDbEntity
  8
0
100
AcDbLine
 10
3729.0
 20
1730.034665012406
 30
0.0
 11
3682.499999999999
 21
1730.034665012406
 31
0.0
  0
ARC
  5
5954
330
1D9
100
AcDbEntity
  8
0
100
AcDbCircle
 10
3733.549999999999
 20
1823.984665012407
 30
0.0
 40
73.5
100
AcDbArc
 50
219.1999999999878
 51
226.0180000000167
  0
LINE
  5
5955
330
1D9
100
AcDbEntity
  8
0
100
AcDbLine
 10
3733.499999999998
 20
1734.534665012407
 30
0.0
 11
3729.0
 21
1730.034665012406
 31
0.0
  0
LINE
  5
5956
330
1D9
100
AcDbEntity
  8
0
100
AcDbLine
 10
3618.490000000001
 20
1870.534665012407
 30
0.0
 11
3676.599999999995
 21
1870.534665012407
 31
0.0
  0
LINE
  5
5957
330
1D9
100
AcDbEntity
  8
0
100
AcDbLine
 10
3578.490000000001
 20
1824.044665012405
 30
0.0
 11
3578.490000000001
 21
1846.044665012406
 31
0.0
  0
LINE
  5
5958
330
1D9
100
AcDbEntity
  8
0
100
AcDbLine
 10
3618.490000000001
 20
1846.044665012406
 30
0.0
 11
3618.490000000001
 21
1824.044665012405
 31
0.0
  0
LINE
  5
5959
330
1D9
100
AcDbEntity
  8
0
100
AcDbLine
 10
3578.490000000001
 20
1846.044665012406
 30
0.0
 11
3578.490000000001
 21
1887.044665012407
 31
0.0
  0
LINE
  5
595A
330
1D9
100
AcDbEntity
  8
0
100
AcDbLine
 10
3618.490000000001
 20
1887.044665012407
 30
0.0
 11
3618.490000000001
 21
1846.044665012406
 31
0.0
  0
ARC
  5
595B
330
1D9
100
AcDbEntity
  8
0
100
AcDbCircle
 10
3733.549999999999
 20
1824.074665012407
 30
0.0
 40
73.5
100
AcDbArc
 50
133.9819999999832
 51
140.7989999999989
  0
LINE
  5
595C
330
1D9
100
AcDbEntity
  8
0
100
AcDbLine
 10
3850.499999999998
 20
1731.534665012407
 30
0.0
 11
3850.499999999998
 21
1824.034665012407
 31
0.0
  0
LINE
  5
595D
330
1D9
100
AcDbEntity
  8
0
100
AcDbLine
 10
3868.499999999999
 20
1824.044665012405
 30
0.0
 11
3868.499999999999
 21
1731.534665012407
 31
0.0
  0
LINE
  5
595E
330
1D9
100
AcDbEntity
  8
0
100
AcDbLine
 10
3754.0
 20
1734.534665012407
 30
0.0
 11
3754.0
 21
1824.034665012407
 31
0.0
  0
LINE
  5
595F
330
1D9
100
AcDbEntity
  8
0
100
AcDbLine
 10
3801.649999999998
 20
1824.034665012407
 30
0.0
 11
3801.649999999998
 21
1775.519267432196
 31
0.0
  0
LINE
  5
5960
330
1D9
100
AcDbEntity
  8
0
100
AcDbLine
 10
3850.499999999998
 20
1731.534665012407
 30
0.0
 11
3868.499999999999
 21
1731.534665012407
 31
0.0
  0
ARC
  5
5961
330
1D9
100
AcDbEntity
  8
0
100
AcDbCircle
 10
3809.159999999999
 20
1762.534665012406
 30
0.0
 40
15.0
100
AcDbArc
 50
90.0
 51
140.8930000000018
  0
ARC
  5
5962
330
1D9
100
AcDbEntity
  8
0
100
AcDbCircle
 10
3733.509999999998
 20
1824.034665012407
 30
0.0
 40
82.5
100
AcDbArc
 50
284.3870000000126
 51
320.8920000000051
  0
LINE
  5
5963
330
1D9
100
AcDbEntity
  8
0
100
AcDbLine
 10
3754.0
 20
1740.324665012407
 30
0.0
 11
3754.0
 21
1739.534665012407
 31
0.0
  0
LINE
  5
5964
330
1D9
100
AcDbEntity
  8
0
100
AcDbLine
 10
3821.499999999998
 20
1777.544665012405
 30
0.0
 11
3809.159999999999
 21
1777.544665012405
 31
0.0
  0
LINE
  5
5965
330
1D9
100
AcDbEntity
  8
0
100
AcDbLine
 10
3821.499999999998
 20
1777.544665012405
 30
0.0
 11
3809.159999999999
 21
1777.544665012405
 31
0.0
  0
LINE
  5
5966
330
1D9
100
AcDbEntity
  8
0
100
AcDbLine
 10
3850.499999999998
 20
1771.952155230404
 30
0.0
 11
3821.499999999998
 21
1777.544665012405
 31
0.0
  0
LINE
  5
5967
330
1D9
100
AcDbEntity
  8
0
100
AcDbLine
 10
3801.649999999998
 20
1824.024665012407
 30
0.0
 11
3801.649999999998
 21
1872.540062592616
 31
0.0
  0
ARC
  5
5968
330
1D9
100
AcDbEntity
  8
0
100
AcDbCircle
 10
3809.159999999999
 20
1885.524665012407
 30
0.0
 40
15.0
100
AcDbArc
 50
219.1059999999902
 51
269.9990000000034
  0
LINE
  5
5969
330
1D9
100
AcDbEntity
  8
0
100
AcDbLine
 10
3821.499999999998
 20
1870.524665012407
 30
0.0
 11
3809.159999999999
 21
1870.524665012407
 31
0.0
  0
LINE
  5
596A
330
1D9
100
AcDbEntity
  8
0
100
AcDbLine
 10
3821.499999999998
 20
1870.524665012407
 30
0.0
 11
3809.159999999999
 21
1870.524665012407
 31
0.0
  0
LINE
  5
596B
330
1D9
100
AcDbEntity
  8
0
100
AcDbLine
 10
3850.499999999998
 20
1876.117174794408
 30
0.0
 11
3821.499999999998
 21
1870.524665012407
 31
0.0
  0
LINE
  5
596C
330
1D9
100
AcDbEntity
  8
0
100
AcDbLine
 10
1004.0
 20
1865.294665012406
 30
0.0
 11
901.0000000000012
 21
1865.294665012406
 31
0.0
  0
LINE
  5
596D
330
1D9
100
AcDbEntity
  8
0
100
AcDbLine
 10
1004.0
 20
1782.794665012408
 30
0.0
 11
901.0000000000012
 21
1782.794665012408
 31
0.0
  0
LINE
  5
596E
330
1D9
100
AcDbEntity
  8
0
100
AcDbLine
 10
734.0000000000003
 20
1861.794665012406
 30
0.0
 11
844.0000000000011
 21
1861.794665012406
 31
0.0
  0
LINE
  5
596F
330
1D9
100
AcDbEntity
  8
0
100
AcDbLine
 10
734.0000000000003
 20
1786.294665012406
 30
0.0
 11
844.0000000000011
 21
1786.294665012406
 31
0.0
  0
LINE
  5
5970
330
1D9
100
AcDbEntity
  8
0
100
AcDbLine
 10
699.0000000000003
 20
1824.044665012405
 30
0.0
 11
699.0000000000003
 21
1784.794665012406
 31
0.0
  0
LINE
  5
5971
330
1D9
100
AcDbEntity
  8
0
100
AcDbLine
 10
592.0000000000003
 20
1824.044665012405
 30
0.0
 11
592.0000000000003
 21
1777.044665012406
 31
0.0
  0
LINE
  5
5972
330
1D9
100
AcDbEntity
  8
0
100
AcDbLine
 10
732.0000000000003
 20
1791.794665012407
 30
0.0
 11
732.0000000000003
 21
1788.294665012406
 31
0.0
  0
LINE
  5
5973
330
1D9
100
AcDbEntity
  8
0
100
AcDbLine
 10
697.0000000000013
 20
1782.794665012408
 30
0.0
 11
594.0000000000012
 21
1782.794665012408
 31
0.0
  0
ARC
  5
5974
330
1D9
100
AcDbEntity
  8
0
100
AcDbCircle
 10
594.0000000000012
 20
1780.794665012407
 30
0.0
 40
2.0
100
AcDbArc
 50
90.0
 51
180.0
  0
ARC
  5
5975
330
1D9
100
AcDbEntity
  8
0
100
AcDbCircle
 10
590.0000000000012
 20
1777.044665012406
 30
0.0
 40
2.0
100
AcDbArc
 50
270.0
 51
0.0
  0
ARC
  5
5976
330
1D9
100
AcDbEntity
  8
0
100
AcDbCircle
 10
697.0000000000013
 20
1784.794665012406
 30
0.0
 40
2.0
100
AcDbArc
 50
270.0
 51
0.0
  0
ARC
  5
5977
330
1D9
100
AcDbEntity
  8
0
100
AcDbCircle
 10
734.0000000000003
 20
1788.294665012406
 30
0.0
 40
2.0
100
AcDbArc
 50
180.0
 51
270.0
  0
LINE
  5
5978
330
1D9
100
AcDbEntity
  8
0
100
AcDbLine
 10
697.0000000000013
 20
1865.294665012406
 30
0.0
 11
594.0000000000012
 21
1865.294665012406
 31
0.0
  0
LINE
  5
5979
330
1D9
100
AcDbEntity
  8
0
100
AcDbLine
 10
592.0000000000003
 20
1824.044665012405
 30
0.0
 11
592.0000000000003
 21
1871.044665012407
 31
0.0
  0
ARC
  5
597A
330
1D9
100
AcDbEntity
  8
0
100
AcDbCircle
 10
594.0000000000012
 20
1867.294665012406
 30
0.0
 40
2.0
100
AcDbArc
 50
180.0
 51
270.0
  0
ARC
  5
597B
330
1D9
100
AcDbEntity
  8
0
100
AcDbCircle
 10
590.0000000000012
 20
1871.044665012407
 30
0.0
 40
2.0
100
AcDbArc
 50
0.0
 51
90.0
  0
LINE
  5
597C
330
1D9
100
AcDbEntity
  8
0
100
AcDbLine
 10
699.0000000000003
 20
1824.044665012405
 30
0.0
 11
699.0000000000003
 21
1863.294665012406
 31
0.0
  0
LINE
  5
597D
330
1D9
100
AcDbEntity
  8
0
100
AcDbLine
 10
732.0000000000003
 20
1856.294665012407
 30
0.0
 11
732.0000000000003
 21
1824.044665012405
 31
0.0
  0
LINE
  5
597E
330
1D9
100
AcDbEntity
  8
0
100
AcDbLine
 10
699.0000000000003
 20
1793.794665012407
 30
0.0
 11
730.0000000000014
 21
1793.794665012407
 31
0.0
  0
LINE
  5
597F
330
1D9
100
AcDbEntity
  8
0
100
AcDbLine
 10
732.0000000000003
 20
1791.794665012407
 30
0.0
 11
732.0000000000003
 21
1824.044665012405
 31
0.0
  0
ARC
  5
5980
330
1D9
100
AcDbEntity
  8
0
100
AcDbCircle
 10
730.0000000000014
 20
1791.794665012407
 30
0.0
 40
2.0
100
AcDbArc
 50
0.0
 51
90.0
  0
LINE
  5
5981
330
1D9
100
AcDbEntity
  8
0
100
AcDbLine
 10
699.0000000000003
 20
1854.294665012407
 30
0.0
 11
730.0000000000014
 21
1854.294665012407
 31
0.0
  0
ARC
  5
5982
330
1D9
100
AcDbEntity
  8
0
100
AcDbCircle
 10
697.0000000000013
 20
1863.294665012406
 30
0.0
 40
2.0
100
AcDbArc
 50
0.0
 51
90.0
  0
ARC
  5
5983
330
1D9
100
AcDbEntity
  8
0
100
AcDbCircle
 10
734.0000000000003
 20
1859.794665012406
 30
0.0
 40
2.0
100
AcDbArc
 50
90.0
 51
180.0
  0
LINE
  5
5984
330
1D9
100
AcDbEntity
  8
0
100
AcDbLine
 10
732.0000000000003
 20
1856.294665012407
 30
0.0
 11
732.0000000000003
 21
1859.794665012406
 31
0.0
  0
ARC
  5
5985
330
1D9
100
AcDbEntity
  8
0
100
AcDbCircle
 10
730.0000000000014
 20
1856.294665012407
 30
0.0
 40
2.0
100
AcDbArc
 50
270.0
 51
0.0
  0
LINE
  5
5986
330
1D9
100
AcDbEntity
  8
0
100
AcDbLine
 10
899.0000000000005
 20
1824.044665012405
 30
0.0
 11
899.0000000000005
 21
1777.044665012406
 31
0.0
  0
LINE
  5
5987
330
1D9
100
AcDbEntity
  8
0
100
AcDbLine
 10
844.0000000000011
 20
1824.044665012405
 30
0.0
 11
844.0000000000011
 21
1777.044665012406
 31
0.0
  0
LINE
  5
5988
330
1D9
100
AcDbEntity
  8
0
100
AcDbLine
 10
846.0000000000004
 20
1775.044665012407
 30
0.0
 11
897.0000000000013
 21
1775.044665012407
 31
0.0
  0
ARC
  5
5989
330
1D9
100
AcDbEntity
  8
0
100
AcDbCircle
 10
846.0000000000004
 20
1777.044665012406
 30
0.0
 40
2.0
100
AcDbArc
 50
180.0
 51
270.0
  0
ARC
  5
598A
330
1D9
100
AcDbEntity
  8
0
100
AcDbCircle
 10
901.0000000000012
 20
1780.794665012407
 30
0.0
 40
2.0
100
AcDbArc
 50
90.0
 51
180.0
  0
ARC
  5
598B
330
1D9
100
AcDbEntity
  8
0
100
AcDbCircle
 10
897.0000000000013
 20
1777.044665012406
 30
0.0
 40
2.0
100
AcDbArc
 50
270.0
 51
0.0
  0
LINE
  5
598C
330
1D9
100
AcDbEntity
  8
0
100
AcDbLine
 10
846.0000000000004
 20
1873.044665012407
 30
0.0
 11
897.0000000000013
 21
1873.044665012407
 31
0.0
  0
LINE
  5
598D
330
1D9
100
AcDbEntity
  8
0
100
AcDbLine
 10
844.0000000000011
 20
1824.044665012405
 30
0.0
 11
844.0000000000011
 21
1871.044665012407
 31
0.0
  0
ARC
  5
598E
330
1D9
100
AcDbEntity
  8
0
100
AcDbCircle
 10
846.0000000000004
 20
1871.044665012407
 30
0.0
 40
2.0
100
AcDbArc
 50
90.0
 51
180.0
  0
LINE
  5
598F
330
1D9
100
AcDbEntity
  8
0
100
AcDbLine
 10
899.0000000000005
 20
1824.044665012405
 30
0.0
 11
899.0000000000005
 21
1871.044665012407
 31
0.0
  0
ARC
  5
5990
330
1D9
100
AcDbEntity
  8
0
100
AcDbCircle
 10
901.0000000000012
 20
1867.294665012406
 30
0.0
 40
2.0
100
AcDbArc
 50
180.0
 51
270.0
  0
ARC
  5
5991
330
1D9
100
AcDbEntity
  8
0
100
AcDbCircle
 10
897.0000000000013
 20
1871.044665012407
 30
0.0
 40
2.0
100
AcDbArc
 50
0.0
 51
90.0
  0
LINE
  5
5992
330
1D9
100
AcDbEntity
  8
0
100
AcDbLine
 10
3733.499999999998
 20
1913.534665012407
 30
0.0
 11
3754.0
 21
1913.534665012407
 31
0.0
  0
LINE
  5
5993
330
1D9
100
AcDbEntity
  8
0
100
AcDbLine
 10
3588.490000000001
 20
1897.044665012406
 30
0.0
 11
3608.489999999999
 21
1897.044665012406
 31
0.0
  0
LINE
  5
5994
330
1D9
100
AcDbEntity
  8
0
100
AcDbLine
 10
3729.0
 20
1918.024665012407
 30
0.0
 11
3682.499999999999
 21
1918.024665012407
 31
0.0
  0
LINE
  5
5995
330
1D9
100
AcDbEntity
  8
0
100
AcDbLine
 10
3733.499999999998
 20
1913.524665012407
 30
0.0
 11
3729.0
 21
1918.024665012407
 31
0.0
  0
LINE
  5
5996
330
1D9
100
AcDbEntity
  8
0
100
AcDbLine
 10
3850.499999999998
 20
1916.534665012407
 30
0.0
 11
3868.499999999999
 21
1916.534665012407
 31
0.0
  0
LINE
  5
5997
330
1D9
100
AcDbEntity
  8
0
100
AcDbLine
 10
3754.0
 20
1907.734665012404
 30
0.0
 11
3754.0
 21
1908.534665012407
 31
0.0
  0
LINE
  5
5998
330
1D9
100
AcDbEntity
  8
0
100
AcDbLine
 10
1090.0
 20
1901.544665012407
 30
0.0
 11
1090.0
 21
1746.544665012407
 31
0.0
  0
LINE
  5
5999
330
1D9
100
AcDbEntity
  8
0
100
AcDbLine
 10
1189.999999999999
 20
1746.544665012407
 30
0.0
 11
1189.999999999999
 21
1824.044665012405
 31
0.0
  0
ARC
  5
599A
330
1D9
100
AcDbEntity
  8
0
100
AcDbCircle
 10
1044.089999999998
 20
1792.544665012407
 30
0.0
 40
2.0
100
AcDbArc
 50
224.9929999999793
 51
269.9909999999952
  0
LINE
  5
599B
330
1D9
100
AcDbEntity
  8
0
100
AcDbLine
 10
1103.999999999998
 20
1765.694665012408
 30
0.0
 11
1103.999999999998
 21
1824.044665012405
 31
0.0
  0
LINE
  5
599C
330
1D9
100
AcDbEntity
  8
0
100
AcDbLine
 10
1173.999999999999
 20
1748.544665012406
 30
0.0
 11
1173.999999999999
 21
1824.044665012405
 31
0.0
  0
LINE
  5
599D
330
1D9
100
AcDbEntity
  8
0
100
AcDbLine
 10
1061.0
 20
1824.044665012405
 30
0.0
 11
1061.0
 21
1758.544665012407
 31
0.0
  0
ARC
  5
599E
330
1D9
100
AcDbEntity
  8
0
100
AcDbCircle
 10
1090.009999999999
 20
1824.034665012407
 30
0.0
 40
58.5
100
AcDbArc
 50
285.3339999999998
 51
325.8760000000043
  0
LINE
  5
599F
330
1D9
100
AcDbEntity
  8
0
100
AcDbLine
 10
1173.999999999999
 20
1788.028859693793
 30
0.0
 11
1149.999999999999
 21
1792.544665012407
 31
0.0
  0
LINE
  5
59A0
330
1D9
100
AcDbEntity
  8
0
100
AcDbLine
 10
1006.000000000001
 20
1824.044665012405
 30
0.0
 11
1006.000000000001
 21
1784.794665012406
 31
0.0
  0
ARC
  5
59A1
330
1D9
100
AcDbEntity
  8
0
100
AcDbCircle
 10
1090.0
 20
1824.034665012407
 30
0.0
 40
51.5
100
AcDbArc
 50
221.5699999999833
 51
235.7279999999878
  0
LINE
  5
59A2
330
1D9
100
AcDbEntity
  8
0
100
AcDbLine
 10
1044.079999999999
 20
1790.544665012407
 30
0.0
 11
1049.98
 21
1790.544665012407
 31
0.0
  0
ARC
  5
59A3
330
1D9
100
AcDbEntity
  8
0
100
AcDbCircle
 10
1049.989999999999
 20
1788.544665012406
 30
0.0
 40
2.0
100
AcDbArc
 50
41.57300000002011
 51
90.01029999999778
  0
ARC
  5
59A4
330
1D9
100
AcDbEntity
  8
0
100
AcDbCircle
 10
1004.0
 20
1784.794665012406
 30
0.0
 40
2.0
100
AcDbArc
 50
270.0
 51
0.0
  0
ARC
  5
59A5
330
1D9
100
AcDbEntity
  8
0
100
AcDbCircle
 10
1063.0
 20
1758.544665012407
 30
0.0
 40
2.0
100
AcDbArc
 50
180.0
 51
270.0
  0
LINE
  5
59A6
330
1D9
100
AcDbEntity
  8
0
100
AcDbLine
 10
1081.289999999998
 20
1756.544665012406
 30
0.0
 11
1063.0
 21
1756.544665012406
 31
0.0
  0
ARC
  5
59A7
330
1D9
100
AcDbEntity
  8
0
100
AcDbCircle
 10
1085.0
 20
1757.044665012406
 30
0.0
 40
2.0
100
AcDbArc
 50
90.00130000000067
 51
157.9750000000077
  0
ARC
  5
59A8
330
1D9
100
AcDbEntity
  8
0
100
AcDbCircle
 10
1081.289999999998
 20
1758.544665012407
 30
0.0
 40
2.0
100
AcDbArc
 50
270.0009999999963
 51
337.9750000000076
  0
LINE
  5
59A9
330
1D9
100
AcDbEntity
  8
0
100
AcDbLine
 10
1102.0
 20
1759.044665012407
 30
0.0
 11
1085.0
 21
1759.044665012407
 31
0.0
  0
ARC
  5
59AA
330
1D9
100
AcDbEntity
  8
0
100
AcDbCircle
 10
1102.0
 20
1761.044665012406
 30
0.0
 40
2.0
100
AcDbArc
 50
270.0
 51
0.0
  0
LINE
  5
59AB
330
1D9
100
AcDbEntity
  8
0
100
AcDbLine
 10
1103.999999999998
 20
1765.694665012408
 30
0.0
 11
1103.999999999998
 21
1761.044665012406
 31
0.0
  0
ARC
  5
59AC
330
1D9
100
AcDbEntity
  8
0
100
AcDbCircle
 10
1106.0
 20
1765.684665012408
 30
0.0
 40
2.0
100
AcDbArc
 50
105.3309999999975
 51
179.9960000000109
  0
LINE
  5
59AD
330
1D9
100
AcDbEntity
  8
0
100
AcDbLine
 10
1175.999999999999
 20
1746.544665012407
 30
0.0
 11
1189.999999999999
 21
1746.544665012407
 31
0.0
  0
ARC
  5
59AE
330
1D9
100
AcDbEntity
  8
0
100
AcDbCircle
 10
1175.999999999999
 20
1748.544665012406
 30
0.0
 40
2.0
100
AcDbArc
 50
180.0
 51
270.0
  0
ARC
  5
59AF
330
1D9
100
AcDbEntity
  8
0
100
AcDbCircle
 10
1090.0
 20
1824.044665012405
 30
0.0
 40
58.5
100
AcDbArc
 50
34.12299999998735
 51
74.66419999999806
  0
LINE
  5
59B0
330
1D9
100
AcDbEntity
  8
0
100
AcDbLine
 10
1103.999999999998
 20
1882.384665012408
 30
0.0
 11
1103.999999999998
 21
1824.044665012405
 31
0.0
  0
LINE
  5
59B1
330
1D9
100
AcDbEntity
  8
0
100
AcDbLine
 10
1061.0
 20
1824.044665012405
 30
0.0
 11
1061.0
 21
1889.544665012406
 31
0.0
  0
LINE
  5
59B2
330
1D9
100
AcDbEntity
  8
0
100
AcDbLine
 10
1006.000000000001
 20
1824.044665012405
 30
0.0
 11
1006.000000000001
 21
1863.294665012406
 31
0.0
  0
LINE
  5
59B3
330
1D9
100
AcDbEntity
  8
0
100
AcDbLine
 10
1006.000000000001
 20
1793.794665012407
 30
0.0
 11
1039.179999999997
 21
1793.794665012407
 31
0.0
  0
ARC
  5
59B4
330
1D9
100
AcDbEntity
  8
0
100
AcDbCircle
 10
1039.169999999998
 20
1791.794665012407
 30
0.0
 40
2.0
100
AcDbArc
 50
44.99380000001929
 51
89.9913000000029
  0
LINE
  5
59B5
330
1D9
100
AcDbEntity
  8
0
100
AcDbLine
 10
1040.599999999999
 20
1793.194665012408
 30
0.0
 11
1042.679999999998
 21
1791.134665012407
 31
0.0
  0
ARC
  5
59B6
330
1D9
100
AcDbEntity
  8
0
100
AcDbCircle
 10
1090.009999999999
 20
1824.044665012405
 30
0.0
 40
51.5
100
AcDbArc
 50
124.2709999999789
 51
138.429000000004
  0
LINE
  5
59B7
330
1D9
100
AcDbEntity
  8
0
100
AcDbLine
 10
1006.000000000001
 20
1854.294665012407
 30
0.0
 11
1039.179999999997
 21
1854.294665012407
 31
0.0
  0
ARC
  5
59B8
330
1D9
100
AcDbEntity
  8
0
100
AcDbCircle
 10
1039.169999999998
 20
1856.294665012407
 30
0.0
 40
2.0
100
AcDbArc
 50
270.0079999999973
 51
315.0059999999985
  0
LINE
  5
59B9
330
1D9
100
AcDbEntity
  8
0
100
AcDbLine
 10
1040.599999999999
 20
1854.884665012407
 30
0.0
 11
1042.679999999998
 21
1856.944665012408
 31
0.0
  0
LINE
  5
59BA
330
1D9
100
AcDbEntity
  8
0
100
AcDbLine
 10
1044.079999999999
 20
1857.544665012406
 30
0.0
 11
1049.98
 21
1857.544665012406
 31
0.0
  0
ARC
  5
59BB
330
1D9
100
AcDbEntity
  8
0
100
AcDbCircle
 10
1044.089999999998
 20
1855.544665012407
 30
0.0
 40
2.0
100
AcDbArc
 50
90.00859999998587
 51
135.0059999999984
  0
ARC
  5
59BC
330
1D9
100
AcDbEntity
  8
0
100
AcDbCircle
 10
1049.989999999999
 20
1859.544665012406
 30
0.0
 40
2.0
100
AcDbArc
 50
269.9889999999978
 51
318.4260000000166
  0
ARC
  5
59BD
330
1D9
100
AcDbEntity
  8
0
100
AcDbCircle
 10
1004.0
 20
1863.294665012406
 30
0.0
 40
2.0
100
AcDbArc
 50
0.0
 51
90.0
  0
ARC
  5
59BE
330
1D9
100
AcDbEntity
  8
0
100
AcDbCircle
 10
1063.0
 20
1889.544665012406
 30
0.0
 40
2.0
100
AcDbArc
 50
90.0
 51
180.0
  0
LINE
  5
59BF
330
1D9
100
AcDbEntity
  8
0
100
AcDbLine
 10
1081.289999999998
 20
1891.544665012406
 30
0.0
 11
1063.0
 21
1891.544665012406
 31
0.0
  0
ARC
  5
59C0
330
1D9
100
AcDbEntity
  8
0
100
AcDbCircle
 10
1085.0
 20
1891.044665012406
 30
0.0
 40
2.0
100
AcDbArc
 50
202.0240000000153
 51
269.9980000000067
  0
ARC
  5
59C1
330
1D9
100
AcDbEntity
  8
0
100
AcDbCircle
 10
1081.289999999998
 20
1889.544665012406
 30
0.0
 40
2.0
100
AcDbArc
 50
22.02430000000623
 51
89.99859999998923
  0
LINE
  5
59C2
330
1D9
100
AcDbEntity
  8
0
100
AcDbLine
 10
1102.0
 20
1889.044665012407
 30
0.0
 11
1085.0
 21
1889.044665012407
 31
0.0
  0
ARC
  5
59C3
330
1D9
100
AcDbEntity
  8
0
100
AcDbCircle
 10
1102.0
 20
1887.044665012407
 30
0.0
 40
2.0
100
AcDbArc
 50
0.0
 51
90.0
  0
LINE
  5
59C4
330
1D9
100
AcDbEntity
  8
0
100
AcDbLine
 10
1103.999999999998
 20
1882.384665012408
 30
0.0
 11
1103.999999999998
 21
1887.044665012407
 31
0.0
  0
ARC
  5
59C5
330
1D9
100
AcDbEntity
  8
0
100
AcDbCircle
 10
1106.0
 20
1882.384665012408
 30
0.0
 40
2.0
100
AcDbArc
 50
180.0029999999905
 51
254.6679999999873
  0
LINE
  5
59C6
330
1D9
100
AcDbEntity
  8
0
100
AcDbLine
 10
1189.999999999999
 20
1901.544665012407
 30
0.0
 11
1189.999999999999
 21
1824.044665012405
 31
0.0
  0
LINE
  5
59C7
330
1D9
100
AcDbEntity
  8
0
100
AcDbLine
 10
1139.31
 20
1824.044665012405
 30
0.0
 11
1139.31
 21
1855.504665012405
 31
0.0
  0
LINE
  5
59C8
330
1D9
100
AcDbEntity
  8
0
100
AcDbLine
 10
1173.999999999999
 20
1899.544665012406
 30
0.0
 11
1173.999999999999
 21
1824.044665012405
 31
0.0
  0
LINE
  5
59C9
330
1D9
100
AcDbEntity
  8
0
100
AcDbLine
 10
1139.31
 20
1824.044665012405
 30
0.0
 11
1139.31
 21
1792.564665012408
 31
0.0
  0
ARC
  5
59CA
330
1D9
100
AcDbEntity
  8
0
100
AcDbCircle
 10
1140.91
 20
1789.544665012406
 30
0.0
 40
3.0
100
AcDbArc
 50
89.99020000000809
 51
145.872000000012
  0
LINE
  5
59CB
330
1D9
100
AcDbEntity
  8
0
100
AcDbLine
 10
1149.999999999999
 20
1792.544665012407
 30
0.0
 11
1140.91
 21
1792.544665012407
 31
0.0
  0
LINE
  5
59CC
330
1D9
100
AcDbEntity
  8
0
100
AcDbLine
 10
1173.999999999999
 20
1860.03638603599
 30
0.0
 11
1149.999999999999
 21
1855.544665012407
 31
0.0
  0
ARC
  5
59CD
330
1D9
100
AcDbEntity
  8
0
100
AcDbCircle
 10
1140.91
 20
1858.544665012407
 30
0.0
 40
3.0
100
AcDbArc
 50
214.1270000000074
 51
270.0090000000046
  0
LINE
  5
59CE
330
1D9
100
AcDbEntity
  8
0
100
AcDbLine
 10
1149.999999999999
 20
1855.544665012407
 30
0.0
 11
1140.91
 21
1855.544665012407
 31
0.0
  0
LINE
  5
59CF
330
1D9
100
AcDbEntity
  8
0
100
AcDbLine
 10
1175.999999999999
 20
1901.544665012407
 30
0.0
 11
1189.999999999999
 21
1901.544665012407
 31
0.0
  0
LINE
  5
5CD4
330
1D9
100
AcDbEntity
  8
0
100
AcDbLine
 10
1735.967000000003
 20
1767.044665012406
 30
0.0
 11
2215.490999999999
 21
1767.044665012406
 31
0.0
  0
LINE
  5
5CD5
330
1D9
100
AcDbEntity
  8
0
100
AcDbLine
 10
1735.967000000003
 20
1881.044665012406
 30
0.0
 11
2215.490999999999
 21
1881.044665012406
 31
0.0
  0
LINE
  5
5CD6
330
1D9
100
AcDbEntity
  8
0
100
AcDbLine
 10
1746.697555209674
 20
1103.040905551387
 30
0.0
 11
2220.499999999995
 21
1103.040905551387
 31
0.0
  0
LINE
  5
5CD7
330
1D9
100
AcDbEntity
  8
0
100
AcDbLine
 10
1746.705185022352
 20
913.043973749362
 30
0.0
 11
2220.499999999995
 21
913.0409055513878
 31
0.0
  0
LINE
  5
5CD8
330
1D9
100
AcDbEntity
  8
0
100
AcDbLine
 10
1425.988645947846
 20
1008.044665012407
 30
0.0
 11
2650.026685674184
 21
1008.044665012407
 31
0.0
  0
LINE
  5
5CD9
330
1D9
100
AcDbEntity
  8
0
100
AcDbLine
 10
1490.498999999998
 20
1824.044665012405
 30
0.0
 11
2580.498999999999
 21
1824.044665012405
 31
0.0
  0
LINE
  5
5CDC
330
1D9
100
AcDbEntity
  8
0
100
AcDbLine
 10
1610.499999999995
 20
831.5439983457391
 30
0.0
 11
1610.499999999995
 21
1008.043998345738
 31
0.0
  0
LINE
  5
5CDD
330
1D9
100
AcDbEntity
  8
0
100
AcDbLine
 10
1491.499999999994
 20
936.0439983457393
 30
0.0
 11
1491.499999999994
 21
1008.043998345738
 31
0.0
  0
LINE
  5
5CDE
330
1D9
100
AcDbEntity
  8
0
100
AcDbLine
 10
1508.318788419784
 20
934.0316626129713
 30
0.0
 11
1508.318788419784
 21
1008.043998345738
 31
0.0
  0
LINE
  5
5CDF
330
1D9
100
AcDbEntity
  8
0
100
AcDbLine
 10
1465.499999999994
 20
886.0439983457391
 30
0.0
 11
1465.500000000004
 21
1008.043998345738
 31
0.0
  0
LINE
  5
5CE0
330
1D9
100
AcDbEntity
  8
0
100
AcDbLine
 10
1447.499999999994
 20
883.0439983457399
 30
0.0
 11
1447.499999999994
 21
1008.043998345738
 31
0.0
  0
LINE
  5
5CE1
330
1D9
100
AcDbEntity
  8
0
100
AcDbLine
 10
1445.500000000004
 20
917.04399834574
 30
0.0
 11
1445.500000000004
 21
1008.043998345738
 31
0.0
  0
LINE
  5
5CE2
330
1D9
100
AcDbEntity
  8
0
100
AcDbLine
 10
1599.499999999995
 20
844.5439983457388
 30
0.0
 11
1599.499999999995
 21
1008.043998345738
 31
0.0
  0
LINE
  5
5CE3
330
1D9
100
AcDbEntity
  8
0
100
AcDbLine
 10
1620.499999999995
 20
841.5439983457391
 30
0.0
 11
1620.499999999995
 21
1008.043998345738
 31
0.0
  0
LINE
  5
5CE4
330
1D9
100
AcDbEntity
  8
0
100
AcDbLine
 10
1578.314851053362
 20
887.258584543898
 30
0.0
 11
1578.314851053362
 21
1008.043998345738
 31
0.0
  0
LINE
  5
5CE5
330
1D9
100
AcDbEntity
  8
0
100
AcDbLine
 10
1646.499999999995
 20
844.5439983457388
 30
0.0
 11
1646.499999999995
 21
1008.043998345738
 31
0.0
  0
LINE
  5
5CE6
330
1D9
100
AcDbEntity
  8
0
100
AcDbLine
 10
1625.499999999993
 20
841.5439983457391
 30
0.0
 11
1625.499999999993
 21
1008.043998345738
 31
0.0
  0
LINE
  5
5CE7
330
1D9
100
AcDbEntity
  8
0
100
AcDbLine
 10
1683.499999999994
 20
1134.043998345739
 30
0.0
 11
1683.500000000003
 21
882.0439983457388
 31
0.0
  0
LINE
  5
5CE8
330
1D9
100
AcDbEntity
  8
0
100
AcDbLine
 10
1610.499999999995
 20
831.5446650124071
 30
0.0
 11
1610.499999999995
 21
1184.543331679073
 31
0.0
  0
LINE
  5
5CE9
330
1D9
100
AcDbEntity
  8
0
100
AcDbLine
 10
1651.499999999994
 20
879.0439983457391
 30
0.0
 11
1680.499999999994
 21
879.0439983457391
 31
0.0
  0
LINE
  5
5CEA
330
1D9
100
AcDbEntity
  8
0
100
AcDbLine
 10
1659.500000000003
 20
851.0439983457397
 30
0.0
 11
1677.999945140195
 21
851.0439983457397
 31
0.0
  0
LINE
  5
5CEB
330
1D9
100
AcDbEntity
  8
0
100
AcDbLine
 10
1659.500000000003
 20
867.0439983457399
 30
0.0
 11
1678.000050001303
 21
867.0439983457399
 31
0.0
  0
ARC
  5
5CEF
330
1D9
100
AcDbEntity
  8
0
100
AcDbCircle
 10
1593.476000000006
 20
848.6439983457401
 30
0.0
 40
3.975619999999998
100
AcDbArc
 50
119.7970000000867
 51
240.2020000000284
  0
ARC
  5
5CF0
330
1D9
100
AcDbEntity
  8
0
100
AcDbCircle
 10
1655.523999999993
 20
848.6439983457401
 30
0.0
 40
3.975619999999998
100
AcDbArc
 50
299.7970000000866
 51
60.20289999998767
  0
LINE
  5
5CF1
330
1D9
100
AcDbEntity
  8
0
100
AcDbLine
 10
1620.499999999995
 20
841.5439983457391
 30
0.0
 11
1602.499999999995
 21
841.5439983457391
 31
0.0
  0
ARC
  5
5CF2
330
1D9
100
AcDbEntity
  8
0
100
AcDbCircle
 10
1602.500000000003
 20
844.5439983457388
 30
0.0
 40
3.0
100
AcDbArc
 50
180.0
 51
270.0
  0
LINE
  5
5CF3
330
1D9
100
AcDbEntity
  8
0
100
AcDbLine
 10
1591.501000000003
 20
845.19399834574
 30
0.0
 11
1599.499999999995
 21
845.19399834574
 31
0.0
  0
LINE
  5
5CF4
330
1D9
100
AcDbEntity
  8
0
100
AcDbLine
 10
1625.499999999993
 20
841.5439983457391
 30
0.0
 11
1643.499999999995
 21
841.5439983457391
 31
0.0
  0
ARC
  5
5CF5
330
1D9
100
AcDbEntity
  8
0
100
AcDbCircle
 10
1643.499999999995
 20
844.5439983457388
 30
0.0
 40
3.0
100
AcDbArc
 50
270.0
 51
0.0
  0
LINE
  5
5CF6
330
1D9
100
AcDbEntity
  8
0
100
AcDbLine
 10
1657.499999999993
 20
845.19399834574
 30
0.0
 11
1646.499999999995
 21
845.19399834574
 31
0.0
  0
ARC
  5
5CF7
330
1D9
100
AcDbEntity
  8
0
100
AcDbCircle
 10
1610.499999999995
 20
1008.043998345738
 30
0.0
 40
125.0
100
AcDbArc
 50
218.4205315394981
 51
255.0793427037993
  0
LINE
  5
5CF8
330
1D9
100
AcDbEntity
  8
0
100
AcDbLine
 10
1447.499999999994
 20
883.0439983457399
 30
0.0
 11
1462.500000000003
 21
883.0439983457399
 31
0.0
  0
LINE
  5
5CF9
330
1D9
100
AcDbEntity
  8
0
100
AcDbLine
 10
1445.500000000004
 20
917.04399834574
 30
0.0
 11
1447.499999999994
 21
917.04399834574
 31
0.0
  0
ARC
  5
5CFA
330
1D9
100
AcDbEntity
  8
0
100
AcDbCircle
 10
1462.500000000003
 20
886.0439983457391
 30
0.0
 40
3.0
100
AcDbArc
 50
270.0
 51
0.0
  0
LINE
  5
5CFB
330
1D9
100
AcDbEntity
  8
0
100
AcDbLine
 10
1500.814084769283
 20
936.0439983457393
 30
0.0
 11
1491.499999999994
 21
936.0439983457393
 31
0.0
  0
ARC
  5
5CFC
330
1D9
100
AcDbEntity
  8
0
100
AcDbCircle
 10
1475.500000000003
 20
922.7838427343
 30
0.0
 40
10.0
100
AcDbArc
 50
100.8855270546862
 51
180.0
  0
LINE
  5
5CFD
330
1D9
100
AcDbEntity
  8
0
100
AcDbLine
 10
1473.61152606349
 20
932.6039072041092
 30
0.0
 11
1491.499999999994
 21
936.0439983457393
 31
0.0
  0
ARC
  5
5CFE
330
1D9
100
AcDbEntity
  8
0
100
AcDbCircle
 10
1500.814084769283
 20
921.0439983457401
 30
0.0
 40
15.0
100
AcDbArc
 50
38.42053153949827
 51
90.0
  0
LINE
  5
5CFF
330
1D9
100
AcDbEntity
  8
0
100
AcDbLine
 10
1599.499999999995
 20
872.0439983457389
 30
0.0
 11
1578.314851053362
 21
887.258584543898
 31
0.0
  0
LINE
  5
5D00
330
1D9
100
AcDbEntity
  8
0
100
AcDbLine
 10
1578.314851053362
 20
887.258584543898
 30
0.0
 11
1599.499999999995
 21
866.0734355972723
 31
0.0
  0
ARC
  5
5D01
330
1D9
100
AcDbEntity
  8
0
100
AcDbCircle
 10
1602.576000000001
 20
859.043998345739
 30
0.0
 40
13.0756
100
AcDbArc
 50
147.8910000000108
 51
212.1079999999746
  0
LINE
  5
5D02
330
1D9
100
AcDbEntity
  8
0
100
AcDbLine
 10
1589.501000000005
 20
869.4439983457391
 30
0.0
 11
1589.501000000005
 21
848.6439983457401
 31
0.0
  0
ARC
  5
5D03
330
1D9
100
AcDbEntity
  8
0
100
AcDbCircle
 10
1593.476000000006
 20
869.4439983457391
 30
0.0
 40
3.975619999999998
100
AcDbArc
 50
119.7970000000867
 51
240.2020000000284
  0
LINE
  5
5D04
330
1D9
100
AcDbEntity
  8
0
100
AcDbLine
 10
1591.501000000003
 20
865.9939983457402
 30
0.0
 11
1599.501000000003
 21
865.9939983457402
 31
0.0
  0
LINE
  5
5D05
330
1D9
100
AcDbEntity
  8
0
100
AcDbLine
 10
1591.501000000003
 20
872.8939983457403
 30
0.0
 11
1592.679437251524
 21
872.8939983457403
 31
0.0
  0
LINE
  5
5D06
330
1D9
100
AcDbEntity
  8
0
100
AcDbLine
 10
1591.501000000003
 20
852.0939983457386
 30
0.0
 11
1599.501000000003
 21
852.0939983457386
 31
0.0
  0
ARC
  5
5D07
330
1D9
100
AcDbEntity
  8
0
100
AcDbCircle
 10
1651.499999999994
 20
874.0439983457399
 30
0.0
 40
5.0
100
AcDbArc
 50
90.0
 51
180.0
  0
LINE
  5
5D08
330
1D9
100
AcDbEntity
  8
0
100
AcDbLine
 10
1620.499999999995
 20
879.0439983457391
 30
0.0
 11
1625.499999999993
 21
879.0439983457391
 31
0.0
  0
LINE
  5
5D09
330
1D9
100
AcDbEntity
  8
0
100
AcDbLine
 10
1620.499999999995
 20
867.0439983457399
 30
0.0
 11
1625.499999999993
 21
867.0439983457399
 31
0.0
  0
LINE
  5
5D0A
330
1D9
100
AcDbEntity
  8
0
100
AcDbLine
 10
1620.499999999995
 20
851.0439983457397
 30
0.0
 11
1625.499999999993
 21
851.0439983457397
 31
0.0
  0
ARC
  5
5D0B
330
1D9
100
AcDbEntity
  8
0
100
AcDbCircle
 10
1646.424000000001
 20
859.043998345739
 30
0.0
 40
13.0756
100
AcDbArc
 50
327.8910000000108
 51
32.10849999999879
  0
LINE
  5
5D0C
330
1D9
100
AcDbEntity
  8
0
100
AcDbLine
 10
1659.500000000003
 20
869.4439983457391
 30
0.0
 11
1659.500000000003
 21
848.6439983457401
 31
0.0
  0
ARC
  5
5D0D
330
1D9
100
AcDbEntity
  8
0
100
AcDbCircle
 10
1655.523999999993
 20
869.4439983457391
 30
0.0
 40
3.975619999999998
100
AcDbArc
 50
299.7970000000866
 51
60.20289999998767
  0
LINE
  5
5D0E
330
1D9
100
AcDbEntity
  8
0
100
AcDbLine
 10
1657.499999999993
 20
865.9939983457402
 30
0.0
 11
1646.499999999995
 21
865.9939983457402
 31
0.0
  0
LINE
  5
5D0F
330
1D9
100
AcDbEntity
  8
0
100
AcDbLine
 10
1657.499999999993
 20
872.8939983457403
 30
0.0
 11
1646.499999999995
 21
872.8939983457403
 31
0.0
  0
LINE
  5
5D10
330
1D9
100
AcDbEntity
  8
0
100
AcDbLine
 10
1657.499999999993
 20
852.0939983457386
 30
0.0
 11
1646.499999999995
 21
852.0939983457386
 31
0.0
  0
ARC
  5
5D11
330
1D9
100
AcDbEntity
  8
0
100
AcDbCircle
 10
1610.509999999993
 20
1008.043998345738
 30
0.0
 40
116.0
100
AcDbArc
 50
308.9929040086965
 51
313.2440158352288
  0
LINE
  5
5D12
330
1D9
100
AcDbEntity
  8
0
100
AcDbLine
 10
1728.703999999993
 20
923.5446650124073
 30
0.0
 11
1746.705185022352
 21
913.043973749362
 31
0.0
  0
ARC
  5
5D13
330
1D9
100
AcDbEntity
  8
0
100
AcDbCircle
 10
1657.416700000414
 20
859.0441332449472
 30
0.0
 40
22.0833
100
AcDbArc
 50
338.7600000000241
 51
21.23929999997212
  0
ARC
  5
5D14
330
1D9
100
AcDbEntity
  8
0
100
AcDbCircle
 10
1680.499999999994
 20
882.0439983457388
 30
0.0
 40
3.0
100
AcDbArc
 50
270.0
 51
0.0
  0
LINE
  5
5D15
330
1D9
100
AcDbEntity
  8
0
100
AcDbLine
 10
1689.982401915515
 20
923.5446650124073
 30
0.0
 11
1728.703999999993
 21
923.5446650124073
 31
0.0
  0
LINE
  5
5D16
330
1D9
100
AcDbEntity
  8
0
100
AcDbLine
 10
1640.498999999998
 20
1823.993665012406
 30
0.0
 11
1640.498999999998
 21
1691.044665012403
 31
0.0
  0
LINE
  5
5D17
330
1D9
100
AcDbEntity
  8
0
100
AcDbLine
 10
1693.499999999999
 20
1741.494665012405
 30
0.0
 11
1693.499999999999
 21
1906.494665012406
 31
0.0
  0
LINE
  5
5D18
330
1D9
100
AcDbEntity
  8
0
100
AcDbLine
 10
1552.499999999999
 20
1782.994665012406
 30
0.0
 11
1552.499999999999
 21
1823.994665012406
 31
0.0
  0
LINE
  5
5D19
330
1D9
100
AcDbEntity
  8
0
100
AcDbLine
 10
1568.908999999999
 20
1781.791665012407
 30
0.0
 11
1568.908999999999
 21
1823.994665012406
 31
0.0
  0
LINE
  5
5D1A
330
1D9
100
AcDbEntity
  8
0
100
AcDbLine
 10
1505.499999999999
 20
1823.994665012406
 30
0.0
 11
1505.499999999999
 21
1765.994665012406
 31
0.0
  0
LINE
  5
5D1C
330
1D9
100
AcDbEntity
  8
0
100
AcDbLine
 10
1674.499999999999
 20
1703.994665012405
 30
0.0
 11
1674.499999999999
 21
1823.994665012406
 31
0.0
  0
LINE
  5
5D1D
330
1D9
100
AcDbEntity
  8
0
100
AcDbLine
 10
1650.498999999999
 20
1823.994665012406
 30
0.0
 11
1650.498999999999
 21
1745.494665012406
 31
0.0
  0
LINE
  5
5D1E
330
1D9
100
AcDbEntity
  8
0
100
AcDbLine
 10
1627.998999999998
 20
1731.494665012406
 30
0.0
 11
1627.998999999998
 21
1823.994665012406
 31
0.0
  0
LINE
  5
5D1F
330
1D9
100
AcDbEntity
  8
0
100
AcDbLine
 10
1604.030999999987
 20
1749.992665012404
 30
0.0
 11
1604.030999999987
 21
1823.994665012406
 31
0.0
  0
LINE
  5
5D20
330
1D9
100
AcDbEntity
  8
0
100
AcDbLine
 10
1646.998999999999
 20
1731.494665012406
 30
0.0
 11
1646.998999999999
 21
1823.994665012406
 31
0.0
  0
LINE
  5
5D21
330
1D9
100
AcDbEntity
  8
0
100
AcDbLine
 10
1507.499999999999
 20
1823.994665012406
 30
0.0
 11
1507.499999999999
 21
1736.494665012406
 31
0.0
  0
LINE
  5
5D22
330
1D9
100
AcDbEntity
  8
0
100
AcDbLine
 10
1523.499999999998
 20
1738.494665012406
 30
0.0
 11
1523.499999999998
 21
1823.994665012406
 31
0.0
  0
LINE
  5
5D25
330
1D9
100
AcDbEntity
  8
0
100
AcDbLine
 10
1651.499999999994
 20
1137.04399834574
 30
0.0
 11
1680.499999999994
 21
1137.04399834574
 31
0.0
  0
LINE
  5
5D26
330
1D9
100
AcDbEntity
  8
0
100
AcDbLine
 10
1659.500000000003
 20
1149.043998345739
 30
0.0
 11
1677.999945140195
 21
1149.043998345739
 31
0.0
  0
LINE
  5
5D27
330
1D9
100
AcDbEntity
  8
0
100
AcDbLine
 10
1659.500000000003
 20
1165.043998345739
 30
0.0
 11
1678.000050001303
 21
1165.043998345739
 31
0.0
  0
ARC
  5
5D28
330
1D9
100
AcDbEntity
  8
0
100
AcDbCircle
 10
1735.967000000003
 20
1787.044665012406
 30
0.0
 40
20.0
100
AcDbArc
 50
239.4200000000565
 51
270.0
  0
LINE
  5
5D2D
330
1D9
100
AcDbEntity
  8
0
100
AcDbLine
 10
1620.499999999995
 20
1174.543998345739
 30
0.0
 11
1620.499999999995
 21
1008.043998345738
 31
0.0
  0
LINE
  5
5D2E
330
1D9
100
AcDbEntity
  8
0
100
AcDbLine
 10
1599.499999999995
 20
1171.543998345738
 30
0.0
 11
1599.499999999995
 21
1008.043998345738
 31
0.0
  0
LINE
  5
5D2F
330
1D9
100
AcDbEntity
  8
0
100
AcDbLine
 10
1578.314851053362
 20
1128.829412147589
 30
0.0
 11
1599.499999999995
 21
1150.014561094222
 31
0.0
  0
LINE
  5
5D30
330
1D9
100
AcDbEntity
  8
0
100
AcDbLine
 10
1610.499999999995
 20
1184.543998345738
 30
0.0
 11
1610.499999999995
 21
1008.043998345738
 31
0.0
  0
LINE
  5
5D31
330
1D9
100
AcDbEntity
  8
0
100
AcDbLine
 10
1599.499999999995
 20
1144.043998345739
 30
0.0
 11
1578.314851053362
 21
1128.829412147589
 31
0.0
  0
LINE
  5
5D32
330
1D9
100
AcDbEntity
  8
0
100
AcDbLine
 10
1625.499999999993
 20
1174.543998345739
 30
0.0
 11
1625.499999999993
 21
1008.043998345738
 31
0.0
  0
LINE
  5
5D33
330
1D9
100
AcDbEntity
  8
0
100
AcDbLine
 10
1646.499999999995
 20
1171.543998345738
 30
0.0
 11
1646.500000000004
 21
1008.043998345738
 31
0.0
  0
ARC
  5
5D34
330
1D9
100
AcDbEntity
  8
0
100
AcDbCircle
 10
1593.476000000006
 20
1146.64399834574
 30
0.0
 40
3.975619999999998
100
AcDbArc
 50
119.7970000000867
 51
240.2020000000284
  0
ARC
  5
5D35
330
1D9
100
AcDbEntity
  8
0
100
AcDbCircle
 10
1655.523999999993
 20
1146.64399834574
 30
0.0
 40
3.975619999999998
100
AcDbArc
 50
299.7970000000866
 51
60.20289999998767
  0
ARC
  5
5D36
330
1D9
100
AcDbEntity
  8
0
100
AcDbCircle
 10
1610.499999999995
 20
1008.043998345738
 30
0.0
 40
125.0
100
AcDbArc
 50
104.9206572962005
 51
141.5794684605016
  0
LINE
  5
5D37
330
1D9
100
AcDbEntity
  8
0
100
AcDbLine
 10
1465.499999999994
 20
1130.043998345739
 30
0.0
 11
1465.500000000004
 21
1008.043998345738
 31
0.0
  0
LINE
  5
5D38
330
1D9
100
AcDbEntity
  8
0
100
AcDbLine
 10
1447.499999999994
 20
1133.043998345738
 30
0.0
 11
1447.499999999994
 21
1008.043998345738
 31
0.0
  0
LINE
  5
5D39
330
1D9
100
AcDbEntity
  8
0
100
AcDbLine
 10
1445.500000000004
 20
1099.04399834574
 30
0.0
 11
1445.500000000004
 21
1008.043998345738
 31
0.0
  0
LINE
  5
5D3A
330
1D9
100
AcDbEntity
  8
0
100
AcDbLine
 10
1508.318788419784
 20
1082.05633407852
 30
0.0
 11
1508.318788419784
 21
1008.043998345738
 31
0.0
  0
LINE
  5
5D3B
330
1D9
100
AcDbEntity
  8
0
100
AcDbLine
 10
1491.499999999994
 20
1080.043998345739
 30
0.0
 11
1491.499999999994
 21
1008.043998345738
 31
0.0
  0
LINE
  5
5D3C
330
1D9
100
AcDbEntity
  8
0
100
AcDbLine
 10
1500.814084769283
 20
1080.043998345739
 30
0.0
 11
1491.499999999994
 21
1080.043998345739
 31
0.0
  0
LINE
  5
5D3D
330
1D9
100
AcDbEntity
  8
0
100
AcDbLine
 10
1447.499999999994
 20
1133.043998345738
 30
0.0
 11
1462.500000000003
 21
1133.043998345738
 31
0.0
  0
LINE
  5
5D3E
330
1D9
100
AcDbEntity
  8
0
100
AcDbLine
 10
1445.500000000004
 20
1099.04399834574
 30
0.0
 11
1447.499999999994
 21
1099.04399834574
 31
0.0
  0
ARC
  5
5D3F
330
1D9
100
AcDbEntity
  8
0
100
AcDbCircle
 10
1462.500000000003
 20
1130.043998345739
 30
0.0
 40
3.0
100
AcDbArc
 50
0.0
 51
90.0
  0
LINE
  5
5D40
330
1D9
100
AcDbEntity
  8
0
100
AcDbLine
 10
1473.61152606349
 20
1083.484089487381
 30
0.0
 11
1491.499999999994
 21
1080.043998345739
 31
0.0
  0
ARC
  5
5D41
330
1D9
100
AcDbEntity
  8
0
100
AcDbCircle
 10
1475.500000000003
 20
1093.304153957179
 30
0.0
 40
10.0
100
AcDbArc
 50
180.0
 51
259.1144729453137
  0
ARC
  5
5D42
330
1D9
100
AcDbEntity
  8
0
100
AcDbCircle
 10
1500.814084769283
 20
1095.04399834574
 30
0.0
 40
15.0
100
AcDbArc
 50
270.0
 51
321.5794684605016
  0
LINE
  5
5D43
330
1D9
100
AcDbEntity
  8
0
100
AcDbLine
 10
1578.314851053362
 20
1128.829412147589
 30
0.0
 11
1578.314851053362
 21
1008.043998345738
 31
0.0
  0
LINE
  5
5D44
330
1D9
100
AcDbEntity
  8
0
100
AcDbLine
 10
1591.501000000003
 20
1143.193998345739
 30
0.0
 11
1592.679437251513
 21
1143.193998345739
 31
0.0
  0
ARC
  5
5D45
330
1D9
100
AcDbEntity
  8
0
100
AcDbCircle
 10
1651.499999999994
 20
1142.043998345739
 30
0.0
 40
5.0
100
AcDbArc
 50
180.0
 51
270.0
  0
LINE
  5
5D46
330
1D9
100
AcDbEntity
  8
0
100
AcDbLine
 10
1620.499999999995
 20
1137.04399834574
 30
0.0
 11
1625.499999999993
 21
1137.04399834574
 31
0.0
  0
LINE
  5
5D47
330
1D9
100
AcDbEntity
  8
0
100
AcDbLine
 10
1657.499999999993
 20
1143.193998345739
 30
0.0
 11
1646.499999999995
 21
1143.193998345739
 31
0.0
  0
LINE
  5
5D49
330
1D9
100
AcDbEntity
  8
0
100
AcDbLine
 10
1620.499999999995
 20
1174.543998345739
 30
0.0
 11
1602.499999999995
 21
1174.543998345739
 31
0.0
  0
ARC
  5
5D4A
330
1D9
100
AcDbEntity
  8
0
100
AcDbCircle
 10
1602.500000000003
 20
1171.543998345752
 30
0.0
 40
3.0
100
AcDbArc
 50
90.0
 51
180.0
  0
ARC
  5
5D4B
330
1D9
100
AcDbEntity
  8
0
100
AcDbCircle
 10
1602.576000000001
 20
1157.043998345739
 30
0.0
 40
13.0756
100
AcDbArc
 50
147.8910000000108
 51
212.1079999999746
  0
LINE
  5
5D4C
330
1D9
100
AcDbEntity
  8
0
100
AcDbLine
 10
1589.501000000005
 20
1167.443998345738
 30
0.0
 11
1589.501000000005
 21
1146.64399834574
 31
0.0
  0
ARC
  5
5D4D
330
1D9
100
AcDbEntity
  8
0
100
AcDbCircle
 10
1593.476000000006
 20
1167.443998345738
 30
0.0
 40
3.975619999999998
100
AcDbArc
 50
119.7970000000867
 51
240.2020000000284
  0
LINE
  5
5D4E
330
1D9
100
AcDbEntity
  8
0
100
AcDbLine
 10
1591.501000000003
 20
1163.99399834574
 30
0.0
 11
1599.501000000003
 21
1163.99399834574
 31
0.0
  0
LINE
  5
5D4F
330
1D9
100
AcDbEntity
  8
0
100
AcDbLine
 10
1591.501000000003
 20
1170.89399834574
 30
0.0
 11
1599.501000000003
 21
1170.89399834574
 31
0.0
  0
LINE
  5
5D50
330
1D9
100
AcDbEntity
  8
0
100
AcDbLine
 10
1591.501000000003
 20
1150.093998345738
 30
0.0
 11
1599.501000000003
 21
1150.093998345738
 31
0.0
  0
ARC
  5
5D51
330
1D9
100
AcDbEntity
  8
0
100
AcDbCircle
 10
1643.499999999995
 20
1171.543998345738
 30
0.0
 40
3.0
100
AcDbArc
 50
0.0
 51
90.0
  0
LINE
  5
5D52
330
1D9
100
AcDbEntity
  8
0
100
AcDbLine
 10
1625.499999999993
 20
1174.543998345739
 30
0.0
 11
1643.499999999995
 21
1174.543998345739
 31
0.0
  0
LINE
  5
5D53
330
1D9
100
AcDbEntity
  8
0
100
AcDbLine
 10
1620.499999999995
 20
1165.043998345739
 30
0.0
 11
1625.499999999993
 21
1165.043998345739
 31
0.0
  0
LINE
  5
5D54
330
1D9
100
AcDbEntity
  8
0
100
AcDbLine
 10
1620.499999999995
 20
1149.043998345739
 30
0.0
 11
1625.499999999993
 21
1149.043998345739
 31
0.0
  0
ARC
  5
5D55
330
1D9
100
AcDbEntity
  8
0
100
AcDbCircle
 10
1646.424000000001
 20
1157.043998345739
 30
0.0
 40
13.0756
100
AcDbArc
 50
327.8910000000108
 51
32.10849999999879
  0
LINE
  5
5D56
330
1D9
100
AcDbEntity
  8
0
100
AcDbLine
 10
1659.500000000003
 20
1167.443998345738
 30
0.0
 11
1659.500000000003
 21
1146.64399834574
 31
0.0
  0
ARC
  5
5D57
330
1D9
100
AcDbEntity
  8
0
100
AcDbCircle
 10
1655.523999999993
 20
1167.443998345738
 30
0.0
 40
3.975619999999998
100
AcDbArc
 50
299.7970000000866
 51
60.20289999998767
  0
LINE
  5
5D58
330
1D9
100
AcDbEntity
  8
0
100
AcDbLine
 10
1657.499999999993
 20
1163.99399834574
 30
0.0
 11
1646.499999999995
 21
1163.99399834574
 31
0.0
  0
LINE
  5
5D59
330
1D9
100
AcDbEntity
  8
0
100
AcDbLine
 10
1657.499999999993
 20
1170.89399834574
 30
0.0
 11
1646.499999999995
 21
1170.89399834574
 31
0.0
  0
LINE
  5
5D5A
330
1D9
100
AcDbEntity
  8
0
100
AcDbLine
 10
1657.499999999993
 20
1150.093998345738
 30
0.0
 11
1646.499999999995
 21
1150.093998345738
 31
0.0
  0
LINE
  5
5D5D
330
1D9
100
AcDbEntity
  8
0
100
AcDbLine
 10
1627.998999999998
 20
1726.004665012406
 30
0.0
 11
1604.030999999987
 21
1749.992665012404
 31
0.0
  0
LINE
  5
5D5E
330
1D9
100
AcDbEntity
  8
0
100
AcDbLine
 10
1627.998999999998
 20
1731.494665012406
 30
0.0
 11
1604.030999999987
 21
1749.992665012404
 31
0.0
  0
LINE
  5
5D5F
330
1D9
100
AcDbEntity
  8
0
100
AcDbLine
 10
1552.499999999999
 20
1782.994665012406
 30
0.0
 11
1560.684999999998
 21
1782.994665012406
 31
0.0
  0
LINE
  5
5D60
330
1D9
100
AcDbEntity
  8
0
100
AcDbLine
 10
1552.499999999999
 20
1782.994665012406
 30
0.0
 11
1531.800999999989
 21
1779.425665012405
 31
0.0
  0
LINE
  5
5D61
330
1D9
100
AcDbEntity
  8
0
100
AcDbLine
 10
1505.499999999999
 20
1765.994665012406
 30
0.0
 11
1507.499999999999
 21
1765.994665012406
 31
0.0
  0
ARC
  5
5D62
330
1D9
100
AcDbEntity
  8
0
100
AcDbCircle
 10
1533.499999999999
 20
1769.570665012405
 30
0.0
 40
10.0
100
AcDbArc
 50
99.7824999999956
 51
180.0
  0
LINE
  5
5D64
330
1D9
100
AcDbEntity
  8
0
100
AcDbLine
 10
1507.499999999999
 20
1736.494665012406
 30
0.0
 11
1521.499999999999
 21
1736.494665012406
 31
0.0
  0
ARC
  5
5D65
330
1D9
100
AcDbEntity
  8
0
100
AcDbCircle
 10
1521.499999999999
 20
1738.494665012406
 30
0.0
 40
2.0
100
AcDbArc
 50
270.0
 51
0.0
  0
ARC
  5
5D66
330
1D9
100
AcDbEntity
  8
0
100
AcDbCircle
 10
1560.684999999998
 20
1767.994665012405
 30
0.0
 40
15.0
100
AcDbArc
 50
41.81029999999986
 51
90.0
  0
ARC
  5
5D67
330
1D9
100
AcDbEntity
  8
0
100
AcDbCircle
 10
1640.498999999998
 20
1823.994665012406
 30
0.0
 40
82.5
100
AcDbArc
 50
213.888000000007
 51
243.7650000000762
  0
ARC
  5
5D68
330
1D9
100
AcDbEntity
  8
0
100
AcDbCircle
 10
1685.916
 20
1718.816665012406
 30
0.0
 40
22.0833
100
AcDbArc
 50
338.7600000000241
 51
21.23929999997212
  0
ARC
  5
5D69
330
1D9
100
AcDbEntity
  8
0
100
AcDbCircle
 10
1674.423999999997
 20
1718.816665012406
 30
0.0
 40
13.0756
100
AcDbArc
 50
327.8910000000108
 51
32.10849999999879
  0
LINE
  5
5D6A
330
1D9
100
AcDbEntity
  8
0
100
AcDbLine
 10
1687.499999999999
 20
1708.416665012406
 30
0.0
 11
1687.499999999999
 21
1729.216665012406
 31
0.0
  0
ARC
  5
5D6B
330
1D9
100
AcDbEntity
  8
0
100
AcDbCircle
 10
1631.074999999994
 20
1718.816665012406
 30
0.0
 40
13.0756
100
AcDbArc
 50
147.8910000000108
 51
212.1080000000038
  0
LINE
  5
5D6C
330
1D9
100
AcDbEntity
  8
0
100
AcDbLine
 10
1617.999999999997
 20
1708.416665012406
 30
0.0
 11
1617.999999999997
 21
1729.216665012406
 31
0.0
  0
LINE
  5
5D6D
330
1D9
100
AcDbEntity
  8
0
100
AcDbLine
 10
1627.998999999998
 20
1703.994665012405
 30
0.0
 11
1627.998999999998
 21
1731.494665012406
 31
0.0
  0
ARC
  5
5D6F
330
1D9
100
AcDbEntity
  8
0
100
AcDbCircle
 10
1621.975000000002
 20
1708.416665012406
 30
0.0
 40
3.975619999999998
100
AcDbArc
 50
119.7969999999817
 51
240.2020000000284
  0
LINE
  5
5D70
330
1D9
100
AcDbEntity
  8
0
100
AcDbLine
 10
1619.999999999999
 20
1711.866665012404
 30
0.0
 11
1627.999999999999
 21
1711.866665012404
 31
0.0
  0
LINE
  5
5D71
330
1D9
100
AcDbEntity
  8
0
100
AcDbLine
 10
1619.999999999999
 20
1704.966665012405
 30
0.0
 11
1627.999999999999
 21
1704.966665012405
 31
0.0
  0
ARC
  5
5D72
330
1D9
100
AcDbEntity
  8
0
100
AcDbCircle
 10
1630.998999999998
 20
1703.994665012405
 30
0.0
 40
3.0
100
AcDbArc
 50
180.0
 51
270.0
  0
LINE
  5
5D73
330
1D9
100
AcDbEntity
  8
0
100
AcDbLine
 10
1646.999999999999
 20
1710.816665012407
 30
0.0
 11
1655.499999999999
 21
1710.816665012407
 31
0.0
  0
ARC
  5
5D74
330
1D9
100
AcDbEntity
  8
0
100
AcDbCircle
 10
1683.524
 20
1708.416665012406
 30
0.0
 40
3.975619999999998
100
AcDbArc
 50
299.7969999999816
 51
60.20289999998767
  0
ARC
  5
5D75
330
1D9
100
AcDbEntity
  8
0
100
AcDbCircle
 10
1671.499999999999
 20
1703.994665012405
 30
0.0
 40
3.0
100
AcDbArc
 50
270.0
 51
0.0
  0
LINE
  5
5D76
330
1D9
100
AcDbEntity
  8
0
100
AcDbLine
 10
1685.499999999999
 20
1711.866665012404
 30
0.0
 11
1674.499999999999
 21
1711.866665012404
 31
0.0
  0
LINE
  5
5D77
330
1D9
100
AcDbEntity
  8
0
100
AcDbLine
 10
1685.499999999999
 20
1704.966665012405
 30
0.0
 11
1674.499999999999
 21
1704.966665012405
 31
0.0
  0
LINE
  5
5D78
330
1D9
100
AcDbEntity
  8
0
100
AcDbLine
 10
1687.499999999999
 20
1710.816665012407
 30
0.0
 11
1706.499999999999
 21
1710.816665012407
 31
0.0
  0
LINE
  5
5D79
330
1D9
100
AcDbEntity
  8
0
100
AcDbLine
 10
1650.498999999999
 20
1745.494665012406
 30
0.0
 11
1650.498999999999
 21
1735.494665012406
 31
0.0
  0
LINE
  5
5D7A
330
1D9
100
AcDbEntity
  8
0
100
AcDbLine
 10
1650.498999999999
 20
1735.494665012406
 30
0.0
 11
1650.498999999999
 21
1731.494665012406
 31
0.0
  0
LINE
  5
5D7B
330
1D9
100
AcDbEntity
  8
0
100
AcDbLine
 10
1650.498999999999
 20
1735.494665012406
 30
0.0
 11
1650.498999999999
 21
1731.494665012406
 31
0.0
  0
LINE
  5
5D7C
330
1D9
100
AcDbEntity
  8
0
100
AcDbLine
 10
1650.498999999999
 20
1735.494665012406
 30
0.0
 11
1650.498999999999
 21
1731.494665012406
 31
0.0
  0
LINE
  5
5D7D
330
1D9
100
AcDbEntity
  8
0
100
AcDbLine
 10
1650.498999999999
 20
1735.494665012406
 30
0.0
 11
1650.498999999999
 21
1731.494665012406
 31
0.0
  0
ARC
  5
5D7E
330
1D9
100
AcDbEntity
  8
0
100
AcDbCircle
 10
1621.975000000002
 20
1729.216665012406
 30
0.0
 40
3.975619999999998
100
AcDbArc
 50
119.7969999999817
 51
240.2020000000284
  0
LINE
  5
5D7F
330
1D9
100
AcDbEntity
  8
0
100
AcDbLine
 10
1619.999999999999
 20
1732.666665012406
 30
0.0
 11
1621.342554443887
 21
1732.666665012406
 31
0.0
  0
LINE
  5
5D80
330
1D9
100
AcDbEntity
  8
0
100
AcDbLine
 10
1619.999999999999
 20
1725.766665012405
 30
0.0
 11
1627.999999999999
 21
1725.766665012405
 31
0.0
  0
LINE
  5
5D81
330
1D9
100
AcDbEntity
  8
0
100
AcDbLine
 10
1646.999999999999
 20
1726.816665012407
 30
0.0
 11
1655.499999999999
 21
1726.816665012407
 31
0.0
  0
LINE
  5
5D82
330
1D9
100
AcDbEntity
  8
0
100
AcDbLine
 10
1650.499999999999
 20
1737.494665012405
 30
0.0
 11
1655.499999999999
 21
1737.494665012405
 31
0.0
  0
ARC
  5
5D83
330
1D9
100
AcDbEntity
  8
0
100
AcDbCircle
 10
1700.018999999999
 20
1758.494665012405
 30
0.0
 40
15.0
100
AcDbArc
 50
90.15902656710293
 51
115.7598439907125
  0
ARC
  5
5D84
330
1D9
100
AcDbEntity
  8
0
100
AcDbCircle
 10
1690.499999999999
 20
1741.494665012405
 30
0.0
 40
3.0
100
AcDbArc
 50
269.9999999998957
 51
0.0
  0
LINE
  5
5D85
330
1D9
100
AcDbEntity
  8
0
100
AcDbLine
 10
1679.499999999999
 20
1738.494665012406
 30
0.0
 11
1690.499999999999
 21
1738.494665012406
 31
0.0
  0
ARC
  5
5D86
330
1D9
100
AcDbEntity
  8
0
100
AcDbCircle
 10
1683.524
 20
1729.216665012406
 30
0.0
 40
3.975619999999998
100
AcDbArc
 50
299.7969999999816
 51
60.20289999998767
  0
ARC
  5
5D87
330
1D9
100
AcDbEntity
  8
0
100
AcDbCircle
 10
1679.499999999999
 20
1733.494665012406
 30
0.0
 40
5.0
100
AcDbArc
 50
90.0
 51
180.0
  0
LINE
  5
5D88
330
1D9
100
AcDbEntity
  8
0
100
AcDbLine
 10
1685.499999999999
 20
1732.666665012406
 30
0.0
 11
1674.499999999999
 21
1732.666665012406
 31
0.0
  0
LINE
  5
5D89
330
1D9
100
AcDbEntity
  8
0
100
AcDbLine
 10
1685.499999999999
 20
1725.766665012405
 30
0.0
 11
1674.499999999999
 21
1725.766665012405
 31
0.0
  0
LINE
  5
5D8A
330
1D9
100
AcDbEntity
  8
0
100
AcDbLine
 10
1687.499999999999
 20
1726.816665012407
 30
0.0
 11
1706.499999999999
 21
1726.816665012407
 31
0.0
  0
LINE
  5
5D8B
330
1D9
100
AcDbEntity
  8
0
100
AcDbLine
 10
1699.977366995686
 20
1773.494607235392
 30
0.0
 11
1715.399
 21
1773.544665012406
 31
0.0
  0
LINE
  5
5D8C
330
1D9
100
AcDbEntity
  8
0
100
AcDbLine
 10
1723.030000000001
 20
1771.458665012406
 30
0.0
 11
1725.791999999998
 21
1769.825665012406
 31
0.0
  0
ARC
  5
5D8D
330
1D9
100
AcDbEntity
  8
0
100
AcDbCircle
 10
1715.399
 20
1758.544665012407
 30
0.0
 40
15.0
100
AcDbArc
 50
59.42060000001481
 51
89.99979999997988
  0
LINE
  5
5D8E
330
1D9
100
AcDbEntity
  8
0
100
AcDbLine
 10
1689.970349983842
 20
1092.544665012407
 30
0.0
 11
1728.703999999993
 21
1092.544665012407
 31
0.0
  0
ARC
  5
5D8F
330
1D9
100
AcDbEntity
  8
0
100
AcDbCircle
 10
1680.499999999994
 20
1134.043998345739
 30
0.0
 40
3.0
100
AcDbArc
 50
0.0
 51
90.0
  0
ARC
  5
5D90
330
1D9
100
AcDbEntity
  8
0
100
AcDbCircle
 10
1610.509999999993
 20
1008.033998345738
 30
0.0
 40
116.0
100
AcDbArc
 50
46.75400000005693
 51
51.00709599130339
  0
LINE
  5
5D91
330
1D9
100
AcDbEntity
  8
0
100
AcDbLine
 10
1728.703999999993
 20
1092.544665012407
 30
0.0
 11
1746.703999999993
 21
1103.044665012407
 31
0.0
  0
ARC
  5
5D92
330
1D9
100
AcDbEntity
  8
0
100
AcDbCircle
 10
1657.416700000414
 20
1157.044133244937
 30
0.0
 40
22.0833
100
AcDbArc
 50
338.7600000000241
 51
21.23929999997212
  0
ARC
  5
5D94
330
1D9
100
AcDbEntity
  8
0
100
AcDbCircle
 10
1735.967000000003
 20
1861.044665012406
 30
0.0
 40
20.0
100
AcDbArc
 50
89.99979999997988
 51
120.579000000062
  0
LINE
  5
5D98
330
1D9
100
AcDbEntity
  8
0
100
AcDbLine
 10
1640.498999999998
 20
1823.993665012406
 30
0.0
 11
1640.498999999998
 21
1956.942665012406
 31
0.0
  0
LINE
  5
5D9A
330
1D9
100
AcDbEntity
  8
0
100
AcDbLine
 10
1674.499999999999
 20
1943.994665012406
 30
0.0
 11
1674.499999999999
 21
1823.994665012406
 31
0.0
  0
ARC
  5
5D9B
330
1D9
100
AcDbEntity
  8
0
100
AcDbCircle
 10
1685.916
 20
1929.164665012405
 30
0.0
 40
22.0833
100
AcDbArc
 50
338.7600000000241
 51
21.23929999997212
  0
ARC
  5
5D9C
330
1D9
100
AcDbEntity
  8
0
100
AcDbCircle
 10
1674.423999999997
 20
1929.164665012405
 30
0.0
 40
13.0756
100
AcDbArc
 50
327.8910000000108
 51
32.10849999999879
  0
LINE
  5
5D9D
330
1D9
100
AcDbEntity
  8
0
100
AcDbLine
 10
1687.499999999999
 20
1939.564665012406
 30
0.0
 11
1687.499999999999
 21
1918.764665012407
 31
0.0
  0
LINE
  5
5D9E
330
1D9
100
AcDbEntity
  8
0
100
AcDbLine
 10
1674.499999999999
 20
1943.994665012406
 30
0.0
 11
1674.499999999999
 21
1914.494665012405
 31
0.0
  0
ARC
  5
5DA0
330
1D9
100
AcDbEntity
  8
0
100
AcDbCircle
 10
1631.074999999994
 20
1929.164665012405
 30
0.0
 40
13.0756
100
AcDbArc
 50
147.8910000000108
 51
212.1080000000038
  0
LINE
  5
5DA1
330
1D9
100
AcDbEntity
  8
0
100
AcDbLine
 10
1617.999999999997
 20
1939.564665012406
 30
0.0
 11
1617.999999999997
 21
1918.764665012407
 31
0.0
  0
LINE
  5
5DA2
330
1D9
100
AcDbEntity
  8
0
100
AcDbLine
 10
1627.998999999998
 20
1943.894665012407
 30
0.0
 11
1627.998999999998
 21
1916.164665012405
 31
0.0
  0
LINE
  5
5DA3
330
1D9
100
AcDbEntity
  8
0
100
AcDbLine
 10
1627.998999999998
 20
1921.964665012405
 30
0.0
 11
1604.030999999987
 21
1897.994665012407
 31
0.0
  0
LINE
  5
5DA4
330
1D9
100
AcDbEntity
  8
0
100
AcDbLine
 10
1604.030999999987
 20
1897.994665012407
 30
0.0
 11
1627.998999999998
 21
1916.164665012405
 31
0.0
  0
LINE
  5
5DA5
330
1D9
100
AcDbEntity
  8
0
100
AcDbLine
 10
1523.499999999998
 20
1909.494665012405
 30
0.0
 11
1523.499999999998
 21
1823.994665012406
 31
0.0
  0
LINE
  5
5DA6
330
1D9
100
AcDbEntity
  8
0
100
AcDbLine
 10
1568.908999999999
 20
1867.450111453187
 30
0.0
 11
1568.908999999999
 21
1823.994665012406
 31
0.0
  0
LINE
  5
5DA7
330
1D9
100
AcDbEntity
  8
0
100
AcDbLine
 10
1552.499999999999
 20
1864.994665012407
 30
0.0
 11
1552.499999999999
 21
1823.994665012406
 31
0.0
  0
LINE
  5
5DA8
330
1D9
100
AcDbEntity
  8
0
100
AcDbLine
 10
1604.030999999987
 20
1897.996665012406
 30
0.0
 11
1604.030999999987
 21
1823.994665012406
 31
0.0
  0
LINE
  5
5DA9
330
1D9
100
AcDbEntity
  8
0
100
AcDbLine
 10
1505.499999999999
 20
1823.994665012406
 30
0.0
 11
1505.499999999999
 21
1881.994665012405
 31
0.0
  0
LINE
  5
5DAA
330
1D9
100
AcDbEntity
  8
0
100
AcDbLine
 10
1507.499999999999
 20
1823.994665012406
 30
0.0
 11
1507.499999999999
 21
1911.494665012406
 31
0.0
  0
LINE
  5
5DAB
330
1D9
100
AcDbEntity
  8
0
100
AcDbLine
 10
1552.499999999999
 20
1864.994665012407
 30
0.0
 11
1560.684999999998
 21
1864.994665012407
 31
0.0
  0
LINE
  5
5DAC
330
1D9
100
AcDbEntity
  8
0
100
AcDbLine
 10
1507.499999999999
 20
1911.494665012406
 30
0.0
 11
1521.499999999999
 21
1911.494665012406
 31
0.0
  0
ARC
  5
5DAD
330
1D9
100
AcDbEntity
  8
0
100
AcDbCircle
 10
1521.499999999999
 20
1909.494665012405
 30
0.0
 40
2.0
100
AcDbArc
 50
0.0
 51
90.0
  0
LINE
  5
5DAE
330
1D9
100
AcDbEntity
  8
0
100
AcDbLine
 10
1552.499999999999
 20
1864.994665012407
 30
0.0
 11
1531.800999999989
 21
1868.554665012405
 31
0.0
  0
LINE
  5
5DAF
330
1D9
100
AcDbEntity
  8
0
100
AcDbLine
 10
1505.499999999999
 20
1881.994665012405
 30
0.0
 11
1507.499999999999
 21
1881.994665012405
 31
0.0
  0
ARC
  5
5DB0
330
1D9
100
AcDbEntity
  8
0
100
AcDbCircle
 10
1533.499999999999
 20
1878.414665012406
 30
0.0
 40
10.0
100
AcDbArc
 50
179.9990000000035
 51
260.2170000000217
  0
LINE
  5
5DB2
330
1D9
100
AcDbEntity
  8
0
100
AcDbLine
 10
1523.499999999998
 20
1909.494665012405
 30
0.0
 11
1523.499999999998
 21
1878.414665012406
 31
0.0
  0
ARC
  5
5DB3
330
1D9
100
AcDbEntity
  8
0
100
AcDbCircle
 10
1640.498999999998
 20
1823.993665012406
 30
0.0
 40
82.5
100
AcDbArc
 50
116.2339999999975
 51
144.9449999999909
  0
ARC
  5
5DB4
330
1D9
100
AcDbEntity
  8
0
100
AcDbCircle
 10
1560.684999999998
 20
1879.994665012405
 30
0.0
 40
15.0
100
AcDbArc
 50
270.0
 51
324.9449999999908
  0
LINE
  5
5DB5
330
1D9
100
AcDbEntity
  8
0
100
AcDbLine
 10
1646.998999999999
 20
1916.494665012405
 30
0.0
 11
1646.998999999999
 21
1823.994665012406
 31
0.0
  0
LINE
  5
5DB6
330
1D9
100
AcDbEntity
  8
0
100
AcDbLine
 10
1650.498999999999
 20
1823.994665012406
 30
0.0
 11
1650.498999999999
 21
1916.494665012405
 31
0.0
  0
LINE
  5
5DB7
330
1D9
100
AcDbEntity
  8
0
100
AcDbLine
 10
1627.998999999998
 20
1916.494665012405
 30
0.0
 11
1627.998999999998
 21
1823.994665012406
 31
0.0
  0
LINE
  5
5DB8
330
1D9
100
AcDbEntity
  8
0
100
AcDbLine
 10
1655.499999999999
 20
1910.494665012405
 30
0.0
 11
1655.499999999999
 21
1921.164665012405
 31
0.0
  0
LINE
  5
5DB9
330
1D9
100
AcDbEntity
  8
0
100
AcDbLine
 10
1655.499999999999
 20
1895.944665012406
 30
0.0
 11
1655.499999999999
 21
1902.494665012406
 31
0.0
  0
ARC
  5
5DBA
330
1D9
100
AcDbEntity
  8
0
100
AcDbCircle
 10
1621.975000000002
 20
1918.764665012407
 30
0.0
 40
3.975619999999998
100
AcDbArc
 50
119.7969999999817
 51
240.2020000000284
  0
LINE
  5
5DBB
330
1D9
100
AcDbEntity
  8
0
100
AcDbLine
 10
1619.999999999999
 20
1915.314665012406
 30
0.0
 11
1621.34955486024
 21
1915.314665012406
 31
0.0
  0
LINE
  5
5DBC
330
1D9
100
AcDbEntity
  8
0
100
AcDbLine
 10
1619.999999999999
 20
1922.214665012406
 30
0.0
 11
1627.999999999999
 21
1922.214665012406
 31
0.0
  0
LINE
  5
5DBD
330
1D9
100
AcDbEntity
  8
0
100
AcDbLine
 10
1650.498999999999
 20
1910.494665012405
 30
0.0
 11
1655.499999999999
 21
1910.494665012405
 31
0.0
  0
LINE
  5
5DBE
330
1D9
100
AcDbEntity
  8
0
100
AcDbLine
 10
1646.998999999999
 20
1921.164665012405
 30
0.0
 11
1655.499999999999
 21
1921.164665012405
 31
0.0
  0
LINE
  5
5DBF
330
1D9
100
AcDbEntity
  8
0
100
AcDbLine
 10
1700.008999999999
 20
1874.494665012406
 30
0.0
 11
1715.135868938017
 21
1874.494665012406
 31
0.0
  0
ARC
  5
5DC0
330
1D9
100
AcDbEntity
  8
0
100
AcDbCircle
 10
1700.008999999999
 20
1889.494665012406
 30
0.0
 40
15.0
100
AcDbArc
 50
244.282560373252
 51
270.0019999999931
  0
ARC
  5
5DC1
330
1D9
100
AcDbEntity
  8
0
100
AcDbCircle
 10
1690.499999999999
 20
1906.494665012406
 30
0.0
 40
3.0
100
AcDbArc
 50
0.0
 51
90.0
  0
LINE
  5
5DC2
330
1D9
100
AcDbEntity
  8
0
100
AcDbLine
 10
1679.499999999999
 20
1909.494665012405
 30
0.0
 11
1690.499999999999
 21
1909.494665012405
 31
0.0
  0
ARC
  5
5DC3
330
1D9
100
AcDbEntity
  8
0
100
AcDbCircle
 10
1683.524
 20
1918.764665012407
 30
0.0
 40
3.975619999999998
100
AcDbArc
 50
299.7969999999816
 51
60.20289999998767
  0
ARC
  5
5DC4
330
1D9
100
AcDbEntity
  8
0
100
AcDbCircle
 10
1679.499999999999
 20
1914.494665012405
 30
0.0
 40
5.0
100
AcDbArc
 50
180.0
 51
270.0
  0
LINE
  5
5DC5
330
1D9
100
AcDbEntity
  8
0
100
AcDbLine
 10
1685.499999999999
 20
1915.314665012406
 30
0.0
 11
1674.499999999999
 21
1915.314665012406
 31
0.0
  0
LINE
  5
5DC6
330
1D9
100
AcDbEntity
  8
0
100
AcDbLine
 10
1685.499999999999
 20
1922.214665012406
 30
0.0
 11
1674.499999999999
 21
1922.214665012406
 31
0.0
  0
LINE
  5
5DC7
330
1D9
100
AcDbEntity
  8
0
100
AcDbLine
 10
1687.499999999999
 20
1921.164665012405
 30
0.0
 11
1706.499999999999
 21
1921.164665012405
 31
0.0
  0
LINE
  5
5DC8
330
1D9
100
AcDbEntity
  8
0
100
AcDbLine
 10
1723.030000000001
 20
1876.630665012406
 30
0.0
 11
1725.791999999998
 21
1878.262665012407
 31
0.0
  0
ARC
  5
5DC9
330
1D9
100
AcDbEntity
  8
0
100
AcDbCircle
 10
1715.116649293998
 20
1890.220210184044
 30
0.0
 40
15.72555691668666
100
AcDbArc
 50
270.0700264395599
 51
300.2125231886578
  0
LINE
  5
5DCC
330
1D9
100
AcDbEntity
  8
0
100
AcDbLine
 10
1646.998999999999
 20
1946.894665012407
 30
0.0
 11
1630.998999999998
 21
1946.894665012407
 31
0.0
  0
ARC
  5
5DCD
330
1D9
100
AcDbEntity
  8
0
100
AcDbCircle
 10
1621.975000000002
 20
1939.564665012406
 30
0.0
 40
3.975619999999998
100
AcDbArc
 50
119.7969999999817
 51
240.2020000000284
  0
LINE
  5
5DCE
330
1D9
100
AcDbEntity
  8
0
100
AcDbLine
 10
1619.999999999999
 20
1936.114665012405
 30
0.0
 11
1627.999999999999
 21
1936.114665012405
 31
0.0
  0
LINE
  5
5DCF
330
1D9
100
AcDbEntity
  8
0
100
AcDbLine
 10
1619.999999999999
 20
1943.014665012406
 30
0.0
 11
1627.999999999999
 21
1943.014665012406
 31
0.0
  0
ARC
  5
5DD0
330
1D9
100
AcDbEntity
  8
0
100
AcDbCircle
 10
1630.998999999998
 20
1943.894665012407
 30
0.0
 40
3.0
100
AcDbArc
 50
90.0
 51
180.0
  0
LINE
  5
5DD1
330
1D9
100
AcDbEntity
  8
0
100
AcDbLine
 10
1646.998999999999
 20
1937.164665012405
 30
0.0
 11
1655.499999999999
 21
1937.164665012405
 31
0.0
  0
ARC
  5
5DD2
330
1D9
100
AcDbEntity
  8
0
100
AcDbCircle
 10
1683.524
 20
1939.564665012406
 30
0.0
 40
3.975619999999998
100
AcDbArc
 50
299.7969999999816
 51
60.20289999998767
  0
LINE
  5
5DD3
330
1D9
100
AcDbEntity
  8
0
100
AcDbLine
 10
1685.499999999999
 20
1936.114665012405
 30
0.0
 11
1674.499999999999
 21
1936.114665012405
 31
0.0
  0
LINE
  5
5DD4
330
1D9
100
AcDbEntity
  8
0
100
AcDbLine
 10
1685.499999999999
 20
1943.014665012406
 30
0.0
 11
1674.499999999999
 21
1943.014665012406
 31
0.0
  0
ARC
  5
5DD5
330
1D9
100
AcDbEntity
  8
0
100
AcDbCircle
 10
1671.499999999999
 20
1943.994665012406
 30
0.0
 40
3.0
100
AcDbArc
 50
0.0
 51
90.0
  0
LINE
  5
5DD6
330
1D9
100
AcDbEntity
  8
0
100
AcDbLine
 10
1687.499999999999
 20
1937.164665012405
 30
0.0
 11
1706.499999999999
 21
1937.164665012405
 31
0.0
  0
LINE
  5
5DD8
330
1D9
100
AcDbEntity
  8
0
100
AcDbLine
 10
2460.499999999995
 20
831.5439983457391
 30
0.0
 11
2460.499999999995
 21
1008.043998345738
 31
0.0
  0
LINE
  5
5DD9
330
1D9
100
AcDbEntity
  8
0
100
AcDbLine
 10
2579.499999999995
 20
936.0439983457393
 30
0.0
 11
2579.499999999995
 21
1008.043998345738
 31
0.0
  0
LINE
  5
5DDA
330
1D9
100
AcDbEntity
  8
0
100
AcDbLine
 10
2562.681211580205
 20
934.0316626129713
 30
0.0
 11
2562.681211580205
 21
1008.043998345738
 31
0.0
  0
LINE
  5
5DDB
330
1D9
100
AcDbEntity
  8
0
100
AcDbLine
 10
2605.499999999995
 20
886.0439983457391
 30
0.0
 11
2605.499999999995
 21
1008.043998345738
 31
0.0
  0
LINE
  5
5DDC
330
1D9
100
AcDbEntity
  8
0
100
AcDbLine
 10
2623.499999999995
 20
883.0439983457399
 30
0.0
 11
2623.499999999995
 21
1008.043998345738
 31
0.0
  0
LINE
  5
5DDD
330
1D9
100
AcDbEntity
  8
0
100
AcDbLine
 10
2625.499999999995
 20
917.04399834574
 30
0.0
 11
2625.499999999995
 21
1008.043998345738
 31
0.0
  0
LINE
  5
5DDE
330
1D9
100
AcDbEntity
  8
0
100
AcDbLine
 10
2471.499999999995
 20
844.5439983457388
 30
0.0
 11
2471.499999999995
 21
1008.043998345738
 31
0.0
  0
LINE
  5
5DDF
330
1D9
100
AcDbEntity
  8
0
100
AcDbLine
 10
2450.499999999995
 20
841.5439983457391
 30
0.0
 11
2450.499999999995
 21
1008.043998345738
 31
0.0
  0
LINE
  5
5DE0
330
1D9
100
AcDbEntity
  8
0
100
AcDbLine
 10
2492.685148946621
 20
887.258584543898
 30
0.0
 11
2492.685148946621
 21
1008.043998345738
 31
0.0
  0
LINE
  5
5DE1
330
1D9
100
AcDbEntity
  8
0
100
AcDbLine
 10
2424.499999999995
 20
844.5439983457388
 30
0.0
 11
2424.499999999995
 21
1008.043998345738
 31
0.0
  0
LINE
  5
5DE2
330
1D9
100
AcDbEntity
  8
0
100
AcDbLine
 10
2445.499999999996
 20
841.5439983457391
 30
0.0
 11
2445.499999999996
 21
1008.043998345738
 31
0.0
  0
LINE
  5
5DE3
330
1D9
100
AcDbEntity
  8
0
100
AcDbLine
 10
2387.499999999995
 20
1134.043998345739
 30
0.0
 11
2387.499999999984
 21
882.0439983457388
 31
0.0
  0
LINE
  5
5DE4
330
1D9
100
AcDbEntity
  8
0
100
AcDbLine
 10
2460.499999999995
 20
1184.543331679073
 30
0.0
 11
2460.499999999995
 21
831.5459983457403
 31
0.0
  0
LINE
  5
5DE5
330
1D9
100
AcDbEntity
  8
0
100
AcDbLine
 10
2260.499999999995
 20
1008.045331679073
 30
0.0
 11
2260.499999999995
 21
905.6453316790735
 31
0.0
  0
LINE
  5
5DE6
330
1D9
100
AcDbEntity
  8
0
100
AcDbLine
 10
2220.499999999995
 20
1008.045331679073
 30
0.0
 11
2220.499999999995
 21
905.6453316790735
 31
0.0
  0
LINE
  5
5DE7
330
1D9
100
AcDbEntity
  8
0
100
AcDbLine
 10
2460.499999999995
 20
831.5446650124071
 30
0.0
 11
2460.499999999995
 21
1184.543331679073
 31
0.0
  0
LINE
  5
5DE8
330
1D9
100
AcDbEntity
  8
0
100
AcDbLine
 10
2570.185915230712
 20
936.0439983457393
 30
0.0
 11
2579.499999999995
 21
936.0439983457393
 31
0.0
  0
LINE
  5
5DE9
330
1D9
100
AcDbEntity
  8
0
100
AcDbLine
 10
2381.018306926244
 20
923.5446650124073
 30
0.0
 11
2342.300000000004
 21
923.5446650124082
 31
0.0
  0
LINE
  5
5DEA
330
1D9
100
AcDbEntity
  8
0
100
AcDbLine
 10
2260.499999999995
 20
923.5446650124073
 30
0.0
 11
2362.553333333335
 21
923.5446650124073
 31
0.0
  0
LINE
  5
5DEB
330
1D9
100
AcDbEntity
  8
0
100
AcDbLine
 10
2250.499999999994
 20
895.6453316790735
 30
0.0
 11
2230.499999999995
 21
895.6453316790735
 31
0.0
  0
ARC
  5
5DEC
330
1D9
100
AcDbEntity
  8
0
100
AcDbCircle
 10
2230.499999999995
 20
905.6453316790735
 30
0.0
 40
10.0
100
AcDbArc
 50
180.0
 51
270.0
  0
ARC
  5
5DED
330
1D9
100
AcDbEntity
  8
0
100
AcDbCircle
 10
2250.499999999994
 20
905.6453316790735
 30
0.0
 40
10.0
100
AcDbArc
 50
270.0
 51
0.0
  0
ARC
  5
5DEE
330
1D9
100
AcDbEntity
  8
0
100
AcDbCircle
 10
2477.523999999994
 20
848.6439983457401
 30
0.0
 40
3.975619999999998
100
AcDbArc
 50
299.7979999999714
 51
60.20299999991323
  0
ARC
  5
5DEF
330
1D9
100
AcDbEntity
  8
0
100
AcDbCircle
 10
2415.475999999992
 20
848.6439983457401
 30
0.0
 40
3.975619999999998
100
AcDbArc
 50
119.7971000000123
 51
240.2029999999131
  0
LINE
  5
5DF0
330
1D9
100
AcDbEntity
  8
0
100
AcDbLine
 10
2450.499999999995
 20
841.5439983457391
 30
0.0
 11
2468.499999999995
 21
841.5439983457391
 31
0.0
  0
LINE
  5
5DF1
330
1D9
100
AcDbEntity
  8
0
100
AcDbLine
 10
2445.499999999996
 20
841.5439983457391
 30
0.0
 11
2427.499999999994
 21
841.5439983457391
 31
0.0
  0
ARC
  5
5DF2
330
1D9
100
AcDbEntity
  8
0
100
AcDbCircle
 10
2427.499999999994
 20
844.5439983457388
 30
0.0
 40
3.0
100
AcDbArc
 50
180.0
 51
270.0
  0
LINE
  5
5DF3
330
1D9
100
AcDbEntity
  8
0
100
AcDbLine
 10
2413.499999999995
 20
845.19399834574
 30
0.0
 11
2424.499999999995
 21
845.19399834574
 31
0.0
  0
ARC
  5
5DF4
330
1D9
100
AcDbEntity
  8
0
100
AcDbCircle
 10
2468.499999999995
 20
844.5439983457388
 30
0.0
 40
3.0
100
AcDbArc
 50
270.0
 51
0.0
  0
LINE
  5
5DF5
330
1D9
100
AcDbEntity
  8
0
100
AcDbLine
 10
2479.498999999993
 20
845.19399834574
 30
0.0
 11
2471.499999999995
 21
845.19399834574
 31
0.0
  0
ARC
  5
5DF6
330
1D9
100
AcDbEntity
  8
0
100
AcDbCircle
 10
2460.489999999943
 20
1008.044665012408
 30
0.0
 40
116.0
100
AcDbArc
 50
226.7564648015555
 51
231.0070959913033
  0
LINE
  5
5DF7
330
1D9
100
AcDbEntity
  8
0
100
AcDbLine
 10
2419.499999999995
 20
879.0439983457391
 30
0.0
 11
2390.499999999995
 21
879.0439983457391
 31
0.0
  0
LINE
  5
5DF8
330
1D9
100
AcDbEntity
  8
0
100
AcDbLine
 10
2411.499999999995
 20
851.0439983457397
 30
0.0
 11
2393.000054859795
 21
851.0439983457397
 31
0.0
  0
LINE
  5
5DF9
330
1D9
100
AcDbEntity
  8
0
100
AcDbLine
 10
2411.499999999995
 20
867.0439983457399
 30
0.0
 11
2392.999949998695
 21
867.0439983457399
 31
0.0
  0
ARC
  5
5DFA
330
1D9
100
AcDbEntity
  8
0
100
AcDbCircle
 10
2413.583299999583
 20
859.0441332449472
 30
0.0
 40
22.0833
100
AcDbArc
 50
158.7607000000278
 51
201.2399999999758
  0
ARC
  5
5DFB
330
1D9
100
AcDbEntity
  8
0
100
AcDbCircle
 10
2390.499999999995
 20
882.0439983457388
 30
0.0
 40
3.0
100
AcDbArc
 50
180.0
 51
270.0
  0
ARC
  5
5DFC
330
1D9
100
AcDbEntity
  8
0
100
AcDbCircle
 10
2419.499999999995
 20
874.0439983457399
 30
0.0
 40
5.0
100
AcDbArc
 50
0.0
 51
90.0
  0
LINE
  5
5DFD
330
1D9
100
AcDbEntity
  8
0
100
AcDbLine
 10
2450.499999999995
 20
879.0439983457391
 30
0.0
 11
2445.499999999996
 21
879.0439983457391
 31
0.0
  0
LINE
  5
5DFE
330
1D9
100
AcDbEntity
  8
0
100
AcDbLine
 10
2450.499999999995
 20
867.0439983457399
 30
0.0
 11
2445.499999999996
 21
867.0439983457399
 31
0.0
  0
LINE
  5
5DFF
330
1D9
100
AcDbEntity
  8
0
100
AcDbLine
 10
2450.499999999995
 20
851.0439983457397
 30
0.0
 11
2445.499999999996
 21
851.0439983457397
 31
0.0
  0
ARC
  5
5E00
330
1D9
100
AcDbEntity
  8
0
100
AcDbCircle
 10
2424.575999999992
 20
859.043998345739
 30
0.0
 40
13.0756
100
AcDbArc
 50
147.8915000000011
 51
212.108999999989
  0
LINE
  5
5E01
330
1D9
100
AcDbEntity
  8
0
100
AcDbLine
 10
2411.499999999995
 20
869.4439983457391
 30
0.0
 11
2411.499999999995
 21
848.6439983457401
 31
0.0
  0
ARC
  5
5E02
330
1D9
100
AcDbEntity
  8
0
100
AcDbCircle
 10
2415.475999999992
 20
869.4439983457391
 30
0.0
 40
3.975619999999998
100
AcDbArc
 50
119.7971000000123
 51
240.2029999999131
  0
LINE
  5
5E03
330
1D9
100
AcDbEntity
  8
0
100
AcDbLine
 10
2413.499999999995
 20
865.9939983457402
 30
0.0
 11
2424.499999999995
 21
865.9939983457402
 31
0.0
  0
LINE
  5
5E04
330
1D9
100
AcDbEntity
  8
0
100
AcDbLine
 10
2413.499999999995
 20
872.8939983457403
 30
0.0
 11
2424.499999999995
 21
872.8939983457403
 31
0.0
  0
LINE
  5
5E05
330
1D9
100
AcDbEntity
  8
0
100
AcDbLine
 10
2413.499999999995
 20
852.0939983457386
 30
0.0
 11
2424.499999999995
 21
852.0939983457386
 31
0.0
  0
ARC
  5
5E06
330
1D9
100
AcDbEntity
  8
0
100
AcDbCircle
 10
2460.499999999995
 20
1008.043998345738
 30
0.0
 40
125.0
100
AcDbArc
 50
284.9206572962005
 51
321.5794684605016
  0
LINE
  5
5E07
330
1D9
100
AcDbEntity
  8
0
100
AcDbLine
 10
2471.499999999995
 20
872.0439983457389
 30
0.0
 11
2492.685148946621
 21
887.258584543898
 31
0.0
  0
LINE
  5
5E08
330
1D9
100
AcDbEntity
  8
0
100
AcDbLine
 10
2492.685148946621
 20
887.258584543898
 30
0.0
 11
2471.499999999995
 21
866.0734355972723
 31
0.0
  0
ARC
  5
5E09
330
1D9
100
AcDbEntity
  8
0
100
AcDbCircle
 10
2468.423999999993
 20
859.043998345739
 30
0.0
 40
13.0756
100
AcDbArc
 50
327.8920000000251
 51
32.10899999998916
  0
LINE
  5
5E0A
330
1D9
100
AcDbEntity
  8
0
100
AcDbLine
 10
2481.498999999995
 20
869.4439983457391
 30
0.0
 11
2481.498999999995
 21
848.6439983457401
 31
0.0
  0
ARC
  5
5E0B
330
1D9
100
AcDbEntity
  8
0
100
AcDbCircle
 10
2477.523999999994
 20
869.4439983457391
 30
0.0
 40
3.975619999999998
100
AcDbArc
 50
299.7979999999714
 51
60.20299999991323
  0
LINE
  5
5E0C
330
1D9
100
AcDbEntity
  8
0
100
AcDbLine
 10
2479.498999999993
 20
865.9939983457402
 30
0.0
 11
2471.498999999994
 21
865.9939983457402
 31
0.0
  0
LINE
  5
5E0D
330
1D9
100
AcDbEntity
  8
0
100
AcDbLine
 10
2479.498999999993
 20
872.8939983457403
 30
0.0
 11
2478.320562748467
 21
872.8939983457403
 31
0.0
  0
LINE
  5
5E0E
330
1D9
100
AcDbEntity
  8
0
100
AcDbLine
 10
2479.498999999993
 20
852.0939983457386
 30
0.0
 11
2471.498999999994
 21
852.0939983457386
 31
0.0
  0
ARC
  5
5E0F
330
1D9
100
AcDbEntity
  8
0
100
AcDbCircle
 10
2570.185915230712
 20
921.0439983457401
 30
0.0
 40
15.0
100
AcDbArc
 50
90.0
 51
141.5794684605016
  0
LINE
  5
5E11
330
1D9
100
AcDbEntity
  8
0
100
AcDbLine
 10
2623.499999999995
 20
883.0439983457399
 30
0.0
 11
2608.499999999995
 21
883.0439983457399
 31
0.0
  0
LINE
  5
5E12
330
1D9
100
AcDbEntity
  8
0
100
AcDbLine
 10
2625.499999999995
 20
917.04399834574
 30
0.0
 11
2623.499999999995
 21
917.04399834574
 31
0.0
  0
ARC
  5
5E13
330
1D9
100
AcDbEntity
  8
0
100
AcDbCircle
 10
2608.499999999995
 20
886.0439983457391
 30
0.0
 40
3.0
100
AcDbArc
 50
180.0
 51
270.0
  0
ARC
  5
5E14
330
1D9
100
AcDbEntity
  8
0
100
AcDbCircle
 10
2595.499999999995
 20
922.7838427343
 30
0.0
 40
10.0
100
AcDbArc
 50
0.0
 51
79.1144729453137
  0
LINE
  5
5E15
330
1D9
100
AcDbEntity
  8
0
100
AcDbLine
 10
2597.388473936494
 20
932.6039072041092
 30
0.0
 11
2579.499999999995
 21
936.0439983457393
 31
0.0
  0
LINE
  5
5E16
330
1D9
100
AcDbEntity
  8
0
100
AcDbLine
 10
2430.500999999987
 20
1824.044665012405
 30
0.0
 11
2430.500999999987
 21
1691.095665012406
 31
0.0
  0
LINE
  5
5E17
330
1D9
100
AcDbEntity
  8
0
100
AcDbLine
 10
2377.49999999999
 20
1741.544665012406
 30
0.0
 11
2377.49999999999
 21
1906.544665012407
 31
0.0
  0
LINE
  5
5E18
330
1D9
100
AcDbEntity
  8
0
100
AcDbLine
 10
2518.499999999999
 20
1783.044665012406
 30
0.0
 11
2518.499999999999
 21
1824.044665012405
 31
0.0
  0
LINE
  5
5E19
330
1D9
100
AcDbEntity
  8
0
100
AcDbLine
 10
2502.091
 20
1781.841665012406
 30
0.0
 11
2502.091
 21
1824.044665012405
 31
0.0
  0
LINE
  5
5E1A
330
1D9
100
AcDbEntity
  8
0
100
AcDbLine
 10
2565.5
 20
1824.044665012405
 30
0.0
 11
2565.5
 21
1766.044665012406
 31
0.0
  0
LINE
  5
5E1C
330
1D9
100
AcDbEntity
  8
0
100
AcDbLine
 10
2396.49999999999
 20
1704.044665012406
 30
0.0
 11
2396.49999999999
 21
1824.044665012405
 31
0.0
  0
LINE
  5
5E1D
330
1D9
100
AcDbEntity
  8
0
100
AcDbLine
 10
2420.500999999999
 20
1824.044665012405
 30
0.0
 11
2420.500999999999
 21
1745.544665012405
 31
0.0
  0
LINE
  5
5E1E
330
1D9
100
AcDbEntity
  8
0
100
AcDbLine
 10
2443.001
 20
1731.544665012407
 30
0.0
 11
2443.001
 21
1824.044665012405
 31
0.0
  0
LINE
  5
5E1F
330
1D9
100
AcDbEntity
  8
0
100
AcDbLine
 10
2466.968999999997
 20
1750.042665012405
 30
0.0
 11
2466.968999999997
 21
1824.044665012405
 31
0.0
  0
LINE
  5
5E20
330
1D9
100
AcDbEntity
  8
0
100
AcDbLine
 10
2424.001
 20
1731.544665012407
 30
0.0
 11
2424.001
 21
1824.044665012405
 31
0.0
  0
LINE
  5
5E21
330
1D9
100
AcDbEntity
  8
0
100
AcDbLine
 10
2563.49999999999
 20
1824.044665012405
 30
0.0
 11
2563.49999999999
 21
1736.544665012406
 31
0.0
  0
LINE
  5
5E22
330
1D9
100
AcDbEntity
  8
0
100
AcDbLine
 10
2547.499999999989
 20
1738.544665012406
 30
0.0
 11
2547.499999999989
 21
1824.044665012405
 31
0.0
  0
LINE
  5
5E23
330
1D9
100
AcDbEntity
  8
0
100
AcDbLine
 10
2255.485999999997
 20
1824.044665012405
 30
0.0
 11
2255.485999999997
 21
1770.044665012406
 31
0.0
  0
LINE
  5
5E24
330
1D9
100
AcDbEntity
  8
0
100
AcDbLine
 10
2215.490999999999
 20
1824.044665012405
 30
0.0
 11
2215.490999999999
 21
1761.044665012406
 31
0.0
  0
LINE
  5
5E25
330
1D9
100
AcDbEntity
  8
0
100
AcDbLine
 10
2570.185915230712
 20
1080.043998345739
 30
0.0
 11
2579.499999999995
 21
1080.043998345739
 31
0.0
  0
LINE
  5
5E26
330
1D9
100
AcDbEntity
  8
0
100
AcDbLine
 10
2381.028940983595
 20
1092.544665012407
 30
0.0
 11
2342.300000000004
 21
1092.544665012407
 31
0.0
  0
LINE
  5
5E27
330
1D9
100
AcDbEntity
  8
0
100
AcDbLine
 10
2260.499999999995
 20
1092.544665012407
 30
0.0
 11
2362.553333333335
 21
1092.544665012407
 31
0.0
  0
LINE
  5
5E28
330
1D9
100
AcDbEntity
  8
0
100
AcDbLine
 10
2250.499999999994
 20
1120.44399834574
 30
0.0
 11
2230.499999999995
 21
1120.44399834574
 31
0.0
  0
LINE
  5
5E29
330
1D9
100
AcDbEntity
  8
0
100
AcDbLine
 10
2220.499999999995
 20
1008.045331679073
 30
0.0
 11
2220.499999999995
 21
1110.445331679072
 31
0.0
  0
ARC
  5
5E2A
330
1D9
100
AcDbEntity
  8
0
100
AcDbCircle
 10
2230.499999999995
 20
1110.44399834574
 30
0.0
 40
10.0
100
AcDbArc
 50
90.0
 51
180.0
  0
LINE
  5
5E2B
330
1D9
100
AcDbEntity
  8
0
100
AcDbLine
 10
2220.499999999995
 20
1105.943998345739
 30
0.0
 11
2220.499999999995
 21
1110.44399834574
 31
0.0
  0
LINE
  5
5E2C
330
1D9
100
AcDbEntity
  8
0
100
AcDbLine
 10
2260.499999999995
 20
1008.045331679073
 30
0.0
 11
2260.499999999995
 21
1110.445331679072
 31
0.0
  0
ARC
  5
5E2D
330
1D9
100
AcDbEntity
  8
0
100
AcDbCircle
 10
2250.499999999994
 20
1110.44399834574
 30
0.0
 40
10.0
100
AcDbArc
 50
0.0
 51
90.0
  0
LINE
  5
5E2E
330
1D9
100
AcDbEntity
  8
0
100
AcDbLine
 10
2460.499999999995
 20
1184.543998345738
 30
0.0
 11
2460.499999999995
 21
1008.043998345738
 31
0.0
  0
LINE
  5
5E2F
330
1D9
100
AcDbEntity
  8
0
100
AcDbLine
 10
2450.499999999995
 20
1174.543998345739
 30
0.0
 11
2450.499999999995
 21
1008.043998345738
 31
0.0
  0
LINE
  5
5E30
330
1D9
100
AcDbEntity
  8
0
100
AcDbLine
 10
2471.499999999995
 20
1171.543998345738
 30
0.0
 11
2471.499999999995
 21
1008.043998345738
 31
0.0
  0
LINE
  5
5E31
330
1D9
100
AcDbEntity
  8
0
100
AcDbLine
 10
2492.685148946621
 20
1128.829412147589
 30
0.0
 11
2471.499999999995
 21
1150.014561094222
 31
0.0
  0
LINE
  5
5E32
330
1D9
100
AcDbEntity
  8
0
100
AcDbLine
 10
2471.499999999995
 20
1144.043998345739
 30
0.0
 11
2492.685148946621
 21
1128.829412147589
 31
0.0
  0
LINE
  5
5E33
330
1D9
100
AcDbEntity
  8
0
100
AcDbLine
 10
2445.499999999996
 20
1174.543998345739
 30
0.0
 11
2445.499999999996
 21
1008.043998345738
 31
0.0
  0
LINE
  5
5E34
330
1D9
100
AcDbEntity
  8
0
100
AcDbLine
 10
2424.499999999995
 20
1171.543998345738
 30
0.0
 11
2424.499999999995
 21
1008.043998345738
 31
0.0
  0
ARC
  5
5E35
330
1D9
100
AcDbEntity
  8
0
100
AcDbCircle
 10
2477.523999999994
 20
1146.64399834574
 30
0.0
 40
3.975619999999998
100
AcDbArc
 50
299.7979999999714
 51
60.20299999991323
  0
ARC
  5
5E36
330
1D9
100
AcDbEntity
  8
0
100
AcDbCircle
 10
2415.475999999992
 20
1146.64399834574
 30
0.0
 40
3.975619999999998
100
AcDbArc
 50
119.7971000000123
 51
240.2029999999131
  0
LINE
  5
5E37
330
1D9
100
AcDbEntity
  8
0
100
AcDbLine
 10
2419.499999999995
 20
1137.04399834574
 30
0.0
 11
2390.499999999995
 21
1137.04399834574
 31
0.0
  0
ARC
  5
5E38
330
1D9
100
AcDbEntity
  8
0
100
AcDbCircle
 10
2390.499999999995
 20
1134.043998345739
 30
0.0
 40
3.0
100
AcDbArc
 50
90.0
 51
180.0
  0
ARC
  5
5E39
330
1D9
100
AcDbEntity
  8
0
100
AcDbCircle
 10
2460.489999999943
 20
1008.034665012406
 30
0.0
 40
116.0
100
AcDbArc
 50
128.9929040086966
 51
133.2459999999429
  0
ARC
  5
5E3A
330
1D9
100
AcDbEntity
  8
0
100
AcDbCircle
 10
2419.499999999995
 20
1142.043998345739
 30
0.0
 40
5.0
100
AcDbArc
 50
270.0
 51
0.0
  0
LINE
  5
5E3B
330
1D9
100
AcDbEntity
  8
0
100
AcDbLine
 10
2450.499999999995
 20
1137.04399834574
 30
0.0
 11
2445.499999999996
 21
1137.04399834574
 31
0.0
  0
LINE
  5
5E3C
330
1D9
100
AcDbEntity
  8
0
100
AcDbLine
 10
2413.499999999995
 20
1143.193998345739
 30
0.0
 11
2424.499999999995
 21
1143.193998345739
 31
0.0
  0
LINE
  5
5E3D
330
1D9
100
AcDbEntity
  8
0
100
AcDbLine
 10
2562.681211580205
 20
1082.05633407852
 30
0.0
 11
2562.681211580205
 21
1008.043998345738
 31
0.0
  0
LINE
  5
5E3E
330
1D9
100
AcDbEntity
  8
0
100
AcDbLine
 10
2492.685148946621
 20
1128.829412147589
 30
0.0
 11
2492.685148946621
 21
1008.043998345738
 31
0.0
  0
ARC
  5
5E3F
330
1D9
100
AcDbEntity
  8
0
100
AcDbCircle
 10
2460.499999999995
 20
1008.043998345738
 30
0.0
 40
125.0
100
AcDbArc
 50
38.42053153949827
 51
75.07934270379941
  0
LINE
  5
5E40
330
1D9
100
AcDbEntity
  8
0
100
AcDbLine
 10
2479.498999999993
 20
1143.193998345739
 30
0.0
 11
2478.320562748475
 21
1143.193998345739
 31
0.0
  0
ARC
  5
5E41
330
1D9
100
AcDbEntity
  8
0
100
AcDbCircle
 10
2570.185915230712
 20
1095.04399834574
 30
0.0
 40
15.0
100
AcDbArc
 50
218.4205315394981
 51
270.0
  0
LINE
  5
5E42
330
1D9
100
AcDbEntity
  8
0
100
AcDbLine
 10
2450.499999999995
 20
1174.543998345739
 30
0.0
 11
2468.499999999995
 21
1174.543998345739
 31
0.0
  0
LINE
  5
5E43
330
1D9
100
AcDbEntity
  8
0
100
AcDbLine
 10
2411.499999999995
 20
1149.043998345739
 30
0.0
 11
2393.000054859795
 21
1149.043998345739
 31
0.0
  0
LINE
  5
5E44
330
1D9
100
AcDbEntity
  8
0
100
AcDbLine
 10
2411.499999999995
 20
1165.043998345739
 30
0.0
 11
2392.999949998695
 21
1165.043998345739
 31
0.0
  0
ARC
  5
5E45
330
1D9
100
AcDbEntity
  8
0
100
AcDbCircle
 10
2413.583299999583
 20
1157.044133244937
 30
0.0
 40
22.0833
100
AcDbArc
 50
158.7607000000278
 51
201.2399999999758
  0
ARC
  5
5E46
330
1D9
100
AcDbEntity
  8
0
100
AcDbCircle
 10
2427.499999999994
 20
1171.543998345738
 30
0.0
 40
3.0
100
AcDbArc
 50
90.0
 51
180.0
  0
LINE
  5
5E47
330
1D9
100
AcDbEntity
  8
0
100
AcDbLine
 10
2445.499999999996
 20
1174.543998345739
 30
0.0
 11
2427.499999999994
 21
1174.543998345739
 31
0.0
  0
LINE
  5
5E48
330
1D9
100
AcDbEntity
  8
0
100
AcDbLine
 10
2450.499999999995
 20
1165.043998345739
 30
0.0
 11
2445.499999999996
 21
1165.043998345739
 31
0.0
  0
LINE
  5
5E49
330
1D9
100
AcDbEntity
  8
0
100
AcDbLine
 10
2450.499999999995
 20
1149.043998345739
 30
0.0
 11
2445.499999999996
 21
1149.043998345739
 31
0.0
  0
ARC
  5
5E4A
330
1D9
100
AcDbEntity
  8
0
100
AcDbCircle
 10
2424.575999999992
 20
1157.043998345739
 30
0.0
 40
13.0756
100
AcDbArc
 50
147.8915000000011
 51
212.108999999989
  0
LINE
  5
5E4B
330
1D9
100
AcDbEntity
  8
0
100
AcDbLine
 10
2411.499999999995
 20
1167.443998345738
 30
0.0
 11
2411.499999999995
 21
1146.64399834574
 31
0.0
  0
ARC
  5
5E4C
330
1D9
100
AcDbEntity
  8
0
100
AcDbCircle
 10
2415.475999999992
 20
1167.443998345738
 30
0.0
 40
3.975619999999998
100
AcDbArc
 50
119.7971000000123
 51
240.2029999999131
  0
LINE
  5
5E4D
330
1D9
100
AcDbEntity
  8
0
100
AcDbLine
 10
2413.499999999995
 20
1163.99399834574
 30
0.0
 11
2424.499999999995
 21
1163.99399834574
 31
0.0
  0
LINE
  5
5E4E
330
1D9
100
AcDbEntity
  8
0
100
AcDbLine
 10
2413.499999999995
 20
1170.89399834574
 30
0.0
 11
2424.499999999995
 21
1170.89399834574
 31
0.0
  0
LINE
  5
5E4F
330
1D9
100
AcDbEntity
  8
0
100
AcDbLine
 10
2413.499999999995
 20
1150.093998345738
 30
0.0
 11
2424.499999999995
 21
1150.093998345738
 31
0.0
  0
ARC
  5
5E50
330
1D9
100
AcDbEntity
  8
0
100
AcDbCircle
 10
2468.499999999995
 20
1171.543998345752
 30
0.0
 40
3.0
100
AcDbArc
 50
0.0
 51
90.0
  0
ARC
  5
5E51
330
1D9
100
AcDbEntity
  8
0
100
AcDbCircle
 10
2468.423999999993
 20
1157.043998345739
 30
0.0
 40
13.0756
100
AcDbArc
 50
327.8920000000251
 51
32.10899999998916
  0
LINE
  5
5E52
330
1D9
100
AcDbEntity
  8
0
100
AcDbLine
 10
2481.498999999995
 20
1167.443998345738
 30
0.0
 11
2481.498999999995
 21
1146.64399834574
 31
0.0
  0
ARC
  5
5E53
330
1D9
100
AcDbEntity
  8
0
100
AcDbCircle
 10
2477.523999999994
 20
1167.443998345738
 30
0.0
 40
3.975619999999998
100
AcDbArc
 50
299.7979999999714
 51
60.20299999991323
  0
LINE
  5
5E54
330
1D9
100
AcDbEntity
  8
0
100
AcDbLine
 10
2479.498999999993
 20
1163.99399834574
 30
0.0
 11
2471.498999999994
 21
1163.99399834574
 31
0.0
  0
LINE
  5
5E55
330
1D9
100
AcDbEntity
  8
0
100
AcDbLine
 10
2479.498999999993
 20
1170.89399834574
 30
0.0
 11
2471.498999999994
 21
1170.89399834574
 31
0.0
  0
LINE
  5
5E56
330
1D9
100
AcDbEntity
  8
0
100
AcDbLine
 10
2479.498999999993
 20
1150.093998345738
 30
0.0
 11
2471.498999999994
 21
1150.093998345738
 31
0.0
  0
LINE
  5
5E57
330
1D9
100
AcDbEntity
  8
0
100
AcDbLine
 10
2373.576346411737
 20
1777.544665012405
 30
0.0
 11
2255.485999999997
 21
1777.544665012405
 31
0.0
  0
LINE
  5
5E58
330
1D9
100
AcDbEntity
  8
0
100
AcDbLine
 10
2245.490999999999
 20
1751.044665012406
 30
0.0
 11
2225.490999999999
 21
1751.044665012406
 31
0.0
  0
ARC
  5
5E59
330
1D9
100
AcDbEntity
  8
0
100
AcDbCircle
 10
2225.490999999999
 20
1761.044665012406
 30
0.0
 40
10.0
100
AcDbArc
 50
180.0
 51
270.0
  0
LINE
  5
5E5A
330
1D9
100
AcDbEntity
  8
0
100
AcDbLine
 10
2255.485999999997
 20
1770.044665012406
 30
0.0
 11
2255.485999999997
 21
1761.044665012406
 31
0.0
  0
ARC
  5
5E5B
330
1D9
100
AcDbEntity
  8
0
100
AcDbCircle
 10
2245.490999999999
 20
1761.044665012406
 30
0.0
 40
10.0
100
AcDbArc
 50
270.0
 51
0.0
  0
ARC
  5
5E5C
330
1D9
100
AcDbEntity
  8
0
100
AcDbCircle
 10
2385.083999999996
 20
1718.866665012407
 30
0.0
 40
22.0833
100
AcDbArc
 50
158.7607000000278
 51
201.2399999999758
  0
ARC
  5
5E5D
330
1D9
100
AcDbEntity
  8
0
100
AcDbCircle
 10
2396.575999999996
 20
1718.866665012407
 30
0.0
 40
13.0756
100
AcDbArc
 50
147.8915000000011
 51
212.108999999989
  0
LINE
  5
5E5E
330
1D9
100
AcDbEntity
  8
0
100
AcDbLine
 10
2383.499999999999
 20
1708.466665012406
 30
0.0
 11
2383.499999999999
 21
1729.266665012406
 31
0.0
  0
ARC
  5
5E5F
330
1D9
100
AcDbEntity
  8
0
100
AcDbCircle
 10
2387.476000000003
 20
1708.466665012406
 30
0.0
 40
3.975619999999998
100
AcDbArc
 50
119.7971000000123
 51
240.2030000000181
  0
ARC
  5
5E60
330
1D9
100
AcDbEntity
  8
0
100
AcDbCircle
 10
2399.49999999999
 20
1704.044665012406
 30
0.0
 40
3.0
100
AcDbArc
 50
180.0
 51
270.0
  0
LINE
  5
5E61
330
1D9
100
AcDbEntity
  8
0
100
AcDbLine
 10
2385.49999999999
 20
1711.916665012406
 30
0.0
 11
2396.49999999999
 21
1711.916665012406
 31
0.0
  0
LINE
  5
5E62
330
1D9
100
AcDbEntity
  8
0
100
AcDbLine
 10
2385.49999999999
 20
1705.016665012405
 30
0.0
 11
2396.49999999999
 21
1705.016665012405
 31
0.0
  0
LINE
  5
5E63
330
1D9
100
AcDbEntity
  8
0
100
AcDbLine
 10
2383.499999999999
 20
1710.866665012406
 30
0.0
 11
2364.499999999999
 21
1710.866665012406
 31
0.0
  0
ARC
  5
5E64
330
1D9
100
AcDbEntity
  8
0
100
AcDbCircle
 10
2430.480999999999
 20
1824.064665012405
 30
0.0
 40
73.5
100
AcDbArc
 50
219.2662675251195
 51
223.8769562687213
  0
ARC
  5
5E65
330
1D9
100
AcDbEntity
  8
0
100
AcDbCircle
 10
2380.499999999991
 20
1741.544665012406
 30
0.0
 40
3.0
100
AcDbArc
 50
180.0
 51
270.0
  0
LINE
  5
5E66
330
1D9
100
AcDbEntity
  8
0
100
AcDbLine
 10
2391.499999999999
 20
1738.544665012406
 30
0.0
 11
2380.499999999991
 21
1738.544665012406
 31
0.0
  0
ARC
  5
5E67
330
1D9
100
AcDbEntity
  8
0
100
AcDbCircle
 10
2387.476000000003
 20
1729.266665012406
 30
0.0
 40
3.975619999999998
100
AcDbArc
 50
119.7971000000123
 51
240.2030000000181
  0
ARC
  5
5E68
330
1D9
100
AcDbEntity
  8
0
100
AcDbCircle
 10
2391.499999999999
 20
1733.544665012407
 30
0.0
 40
5.0
100
AcDbArc
 50
0.0
 51
90.0
  0
LINE
  5
5E69
330
1D9
100
AcDbEntity
  8
0
100
AcDbLine
 10
2385.49999999999
 20
1732.716665012406
 30
0.0
 11
2396.49999999999
 21
1732.716665012406
 31
0.0
  0
LINE
  5
5E6A
330
1D9
100
AcDbEntity
  8
0
100
AcDbLine
 10
2385.49999999999
 20
1725.816665012405
 30
0.0
 11
2396.49999999999
 21
1725.816665012405
 31
0.0
  0
LINE
  5
5E6B
330
1D9
100
AcDbEntity
  8
0
100
AcDbLine
 10
2383.499999999999
 20
1726.866665012406
 30
0.0
 11
2364.499999999999
 21
1726.866665012406
 31
0.0
  0
LINE
  5
5E6C
330
1D9
100
AcDbEntity
  8
0
100
AcDbLine
 10
2518.499999999999
 20
1783.044665012406
 30
0.0
 11
2539.199000000003
 21
1779.475665012406
 31
0.0
  0
ARC
  5
5E6D
330
1D9
100
AcDbEntity
  8
0
100
AcDbCircle
 10
2439.925
 20
1718.866665012407
 30
0.0
 40
13.0756
100
AcDbArc
 50
327.8919999999962
 51
32.10899999998916
  0
LINE
  5
5E6E
330
1D9
100
AcDbEntity
  8
0
100
AcDbLine
 10
2452.999999999999
 20
1708.466665012406
 30
0.0
 11
2452.999999999999
 21
1729.266665012406
 31
0.0
  0
LINE
  5
5E6F
330
1D9
100
AcDbEntity
  8
0
100
AcDbLine
 10
2443.001
 20
1704.044665012406
 30
0.0
 11
2443.001
 21
1731.544665012407
 31
0.0
  0
ARC
  5
5E71
330
1D9
100
AcDbEntity
  8
0
100
AcDbCircle
 10
2449.02499999999
 20
1708.466665012406
 30
0.0
 40
3.975619999999998
100
AcDbArc
 50
299.7979999999714
 51
60.20300000001824
  0
LINE
  5
5E72
330
1D9
100
AcDbEntity
  8
0
100
AcDbLine
 10
2450.999999999999
 20
1711.916665012406
 30
0.0
 11
2442.999999999999
 21
1711.916665012406
 31
0.0
  0
LINE
  5
5E73
330
1D9
100
AcDbEntity
  8
0
100
AcDbLine
 10
2450.999999999999
 20
1705.016665012405
 30
0.0
 11
2442.999999999999
 21
1705.016665012405
 31
0.0
  0
ARC
  5
5E74
330
1D9
100
AcDbEntity
  8
0
100
AcDbCircle
 10
2440.001
 20
1704.044665012406
 30
0.0
 40
3.0
100
AcDbArc
 50
270.0
 51
0.0
  0
LINE
  5
5E75
330
1D9
100
AcDbEntity
  8
0
100
AcDbLine
 10
2423.99999999999
 20
1710.866665012406
 30
0.0
 11
2415.499999999999
 21
1710.866665012406
 31
0.0
  0
LINE
  5
5E76
330
1D9
100
AcDbEntity
  8
0
100
AcDbLine
 10
2443.001
 20
1726.054665012406
 30
0.0
 11
2466.968999999997
 21
1750.042665012405
 31
0.0
  0
LINE
  5
5E77
330
1D9
100
AcDbEntity
  8
0
100
AcDbLine
 10
2443.001
 20
1731.544665012407
 30
0.0
 11
2466.968999999997
 21
1750.042665012405
 31
0.0
  0
LINE
  5
5E78
330
1D9
100
AcDbEntity
  8
0
100
AcDbLine
 10
2420.500999999999
 20
1745.544665012405
 30
0.0
 11
2420.500999999999
 21
1735.544665012406
 31
0.0
  0
LINE
  5
5E79
330
1D9
100
AcDbEntity
  8
0
100
AcDbLine
 10
2420.500999999999
 20
1735.544665012406
 30
0.0
 11
2420.500999999999
 21
1731.544665012407
 31
0.0
  0
LINE
  5
5E7A
330
1D9
100
AcDbEntity
  8
0
100
AcDbLine
 10
2420.500999999999
 20
1735.544665012406
 30
0.0
 11
2420.500999999999
 21
1731.544665012407
 31
0.0
  0
LINE
  5
5E7B
330
1D9
100
AcDbEntity
  8
0
100
AcDbLine
 10
2420.500999999999
 20
1735.544665012406
 30
0.0
 11
2420.500999999999
 21
1731.544665012407
 31
0.0
  0
LINE
  5
5E7C
330
1D9
100
AcDbEntity
  8
0
100
AcDbLine
 10
2420.500999999999
 20
1735.544665012406
 30
0.0
 11
2420.500999999999
 21
1731.544665012407
 31
0.0
  0
ARC
  5
5E7D
330
1D9
100
AcDbEntity
  8
0
100
AcDbCircle
 10
2449.02499999999
 20
1729.266665012406
 30
0.0
 40
3.975619999999998
100
AcDbArc
 50
299.7979999999714
 51
60.20300000001824
  0
LINE
  5
5E7E
330
1D9
100
AcDbEntity
  8
0
100
AcDbLine
 10
2450.999999999999
 20
1732.716665012406
 30
0.0
 11
2449.657445556109
 21
1732.716665012406
 31
0.0
  0
LINE
  5
5E7F
330
1D9
100
AcDbEntity
  8
0
100
AcDbLine
 10
2450.999999999999
 20
1725.816665012405
 30
0.0
 11
2442.999999999999
 21
1725.816665012405
 31
0.0
  0
LINE
  5
5E80
330
1D9
100
AcDbEntity
  8
0
100
AcDbLine
 10
2423.99999999999
 20
1726.866665012406
 30
0.0
 11
2415.499999999999
 21
1726.866665012406
 31
0.0
  0
LINE
  5
5E81
330
1D9
100
AcDbEntity
  8
0
100
AcDbLine
 10
2420.499999999999
 20
1737.544665012406
 30
0.0
 11
2415.499999999999
 21
1737.544665012406
 31
0.0
  0
LINE
  5
5E82
330
1D9
100
AcDbEntity
  8
0
100
AcDbLine
 10
2518.499999999999
 20
1783.044665012406
 30
0.0
 11
2510.314999999986
 21
1783.044665012406
 31
0.0
  0
ARC
  5
5E83
330
1D9
100
AcDbEntity
  8
0
100
AcDbCircle
 10
2510.314999999986
 20
1768.044665012406
 30
0.0
 40
15.0
100
AcDbArc
 50
90.0
 51
138.1897000000001
  0
ARC
  5
5E84
330
1D9
100
AcDbEntity
  8
0
100
AcDbCircle
 10
2430.500999999987
 20
1824.044665012405
 30
0.0
 40
82.5
100
AcDbArc
 50
296.2349999999237
 51
326.1119999999928
  0
LINE
  5
5E85
330
1D9
100
AcDbEntity
  8
0
100
AcDbLine
 10
2565.5
 20
1766.044665012406
 30
0.0
 11
2563.49999999999
 21
1766.044665012406
 31
0.0
  0
ARC
  5
5E86
330
1D9
100
AcDbEntity
  8
0
100
AcDbCircle
 10
2537.499999999999
 20
1769.620665012404
 30
0.0
 40
10.0
100
AcDbArc
 50
0.0
 51
80.21750000000439
  0
LINE
  5
5E88
330
1D9
100
AcDbEntity
  8
0
100
AcDbLine
 10
2563.49999999999
 20
1736.544665012406
 30
0.0
 11
2549.49999999999
 21
1736.544665012406
 31
0.0
  0
ARC
  5
5E89
330
1D9
100
AcDbEntity
  8
0
100
AcDbCircle
 10
2549.49999999999
 20
1738.544665012406
 30
0.0
 40
2.0
100
AcDbArc
 50
180.0
 51
270.0
  0
LINE
  5
5E8B
330
1D9
100
AcDbEntity
  8
0
100
AcDbLine
 10
2605.499999999995
 20
1130.043998345739
 30
0.0
 11
2605.499999999995
 21
1008.043998345738
 31
0.0
  0
LINE
  5
5E8C
330
1D9
100
AcDbEntity
  8
0
100
AcDbLine
 10
2623.499999999995
 20
1133.043998345738
 30
0.0
 11
2623.499999999995
 21
1008.043998345738
 31
0.0
  0
LINE
  5
5E8D
330
1D9
100
AcDbEntity
  8
0
100
AcDbLine
 10
2625.499999999995
 20
1099.04399834574
 30
0.0
 11
2625.499999999995
 21
1008.043998345738
 31
0.0
  0
LINE
  5
5E8E
330
1D9
100
AcDbEntity
  8
0
100
AcDbLine
 10
2579.499999999995
 20
1080.043998345739
 30
0.0
 11
2579.499999999995
 21
1008.043998345738
 31
0.0
  0
LINE
  5
5E90
330
1D9
100
AcDbEntity
  8
0
100
AcDbLine
 10
2623.499999999995
 20
1133.043998345738
 30
0.0
 11
2608.499999999995
 21
1133.043998345738
 31
0.0
  0
LINE
  5
5E91
330
1D9
100
AcDbEntity
  8
0
100
AcDbLine
 10
2625.499999999995
 20
1099.04399834574
 30
0.0
 11
2623.499999999995
 21
1099.04399834574
 31
0.0
  0
ARC
  5
5E92
330
1D9
100
AcDbEntity
  8
0
100
AcDbCircle
 10
2608.499999999995
 20
1130.043998345739
 30
0.0
 40
3.0
100
AcDbArc
 50
90.0
 51
180.0
  0
LINE
  5
5E93
330
1D9
100
AcDbEntity
  8
0
100
AcDbLine
 10
2597.388473936494
 20
1083.484089487381
 30
0.0
 11
2579.499999999995
 21
1080.043998345739
 31
0.0
  0
ARC
  5
5E94
330
1D9
100
AcDbEntity
  8
0
100
AcDbCircle
 10
2595.499999999995
 20
1093.304153957179
 30
0.0
 40
10.0
100
AcDbArc
 50
280.8855270546861
 51
0.0
  0
LINE
  5
5E98
330
1D9
100
AcDbEntity
  8
0
100
AcDbLine
 10
2396.49999999999
 20
1944.044665012408
 30
0.0
 11
2396.49999999999
 21
1824.044665012405
 31
0.0
  0
ARC
  5
5E99
330
1D9
100
AcDbEntity
  8
0
100
AcDbCircle
 10
2385.083999999996
 20
1929.214665012406
 30
0.0
 40
22.0833
100
AcDbArc
 50
158.7607000000278
 51
201.2399999999758
  0
ARC
  5
5E9A
330
1D9
100
AcDbEntity
  8
0
100
AcDbCircle
 10
2396.575999999996
 20
1929.214665012406
 30
0.0
 40
13.0756
100
AcDbArc
 50
147.8915000000011
 51
212.108999999989
  0
LINE
  5
5E9B
330
1D9
100
AcDbEntity
  8
0
100
AcDbLine
 10
2383.499999999999
 20
1939.614665012405
 30
0.0
 11
2383.499999999999
 21
1918.814665012406
 31
0.0
  0
LINE
  5
5E9C
330
1D9
100
AcDbEntity
  8
0
100
AcDbLine
 10
2396.49999999999
 20
1944.044665012408
 30
0.0
 11
2396.49999999999
 21
1914.544665012406
 31
0.0
  0
LINE
  5
5E9D
330
1D9
100
AcDbEntity
  8
0
100
AcDbLine
 10
2373.584522956158
 20
1870.544665012405
 30
0.0
 11
2255.485999999997
 21
1870.544665012405
 31
0.0
  0
LINE
  5
5E9E
330
1D9
100
AcDbEntity
  8
0
100
AcDbLine
 10
2215.490999999999
 20
1824.044665012405
 30
0.0
 11
2215.490999999999
 21
1887.044665012407
 31
0.0
  0
LINE
  5
5E9F
330
1D9
100
AcDbEntity
  8
0
100
AcDbLine
 10
2255.485999999997
 20
1824.044665012405
 30
0.0
 11
2255.485999999997
 21
1878.044665012406
 31
0.0
  0
LINE
  5
5EA0
330
1D9
100
AcDbEntity
  8
0
100
AcDbLine
 10
2245.490999999999
 20
1897.044665012406
 30
0.0
 11
2225.490999999999
 21
1897.044665012406
 31
0.0
  0
ARC
  5
5EA1
330
1D9
100
AcDbEntity
  8
0
100
AcDbCircle
 10
2225.490999999999
 20
1887.044665012403
 30
0.0
 40
10.0
100
AcDbArc
 50
90.0
 51
180.0
  0
LINE
  5
5EA2
330
1D9
100
AcDbEntity
  8
0
100
AcDbLine
 10
2255.485999999997
 20
1878.044665012406
 30
0.0
 11
2255.485999999997
 21
1887.044665012407
 31
0.0
  0
ARC
  5
5EA3
330
1D9
100
AcDbEntity
  8
0
100
AcDbCircle
 10
2245.490999999999
 20
1887.044665012407
 30
0.0
 40
10.0
100
AcDbArc
 50
0.0
 51
90.0
  0
ARC
  5
5EA4
330
1D9
100
AcDbEntity
  8
0
100
AcDbCircle
 10
2430.480999999999
 20
1824.014665012406
 30
0.0
 40
73.5
100
AcDbArc
 50
136.1230437312694
 51
140.7236630180243
  0
ARC
  5
5EA5
330
1D9
100
AcDbEntity
  8
0
100
AcDbCircle
 10
2380.499999999991
 20
1906.544665012407
 30
0.0
 40
3.0
100
AcDbArc
 50
90.0
 51
180.0
  0
LINE
  5
5EA6
330
1D9
100
AcDbEntity
  8
0
100
AcDbLine
 10
2391.499999999999
 20
1909.544665012406
 30
0.0
 11
2380.499999999991
 21
1909.544665012406
 31
0.0
  0
ARC
  5
5EA7
330
1D9
100
AcDbEntity
  8
0
100
AcDbCircle
 10
2387.476000000003
 20
1918.814665012406
 30
0.0
 40
3.975619999999998
100
AcDbArc
 50
119.7971000000123
 51
240.2030000000181
  0
ARC
  5
5EA8
330
1D9
100
AcDbEntity
  8
0
100
AcDbCircle
 10
2391.499999999999
 20
1914.544665012406
 30
0.0
 40
5.0
100
AcDbArc
 50
270.0
 51
0.0
  0
LINE
  5
5EA9
330
1D9
100
AcDbEntity
  8
0
100
AcDbLine
 10
2385.49999999999
 20
1915.364665012405
 30
0.0
 11
2396.49999999999
 21
1915.364665012405
 31
0.0
  0
LINE
  5
5EAA
330
1D9
100
AcDbEntity
  8
0
100
AcDbLine
 10
2385.49999999999
 20
1922.264665012406
 30
0.0
 11
2396.49999999999
 21
1922.264665012406
 31
0.0
  0
LINE
  5
5EAB
330
1D9
100
AcDbEntity
  8
0
100
AcDbLine
 10
2383.499999999999
 20
1921.214665012406
 30
0.0
 11
2364.499999999999
 21
1921.214665012406
 31
0.0
  0
ARC
  5
5EAC
330
1D9
100
AcDbEntity
  8
0
100
AcDbCircle
 10
2387.476000000003
 20
1939.614665012405
 30
0.0
 40
3.975619999999998
100
AcDbArc
 50
119.7971000000123
 51
240.2030000000181
  0
LINE
  5
5EAD
330
1D9
100
AcDbEntity
  8
0
100
AcDbLine
 10
2385.49999999999
 20
1936.164665012406
 30
0.0
 11
2396.49999999999
 21
1936.164665012406
 31
0.0
  0
LINE
  5
5EAE
330
1D9
100
AcDbEntity
  8
0
100
AcDbLine
 10
2385.49999999999
 20
1943.064665012406
 30
0.0
 11
2396.49999999999
 21
1943.064665012406
 31
0.0
  0
ARC
  5
5EAF
330
1D9
100
AcDbEntity
  8
0
100
AcDbCircle
 10
2399.49999999999
 20
1944.044665012408
 30
0.0
 40
3.0
100
AcDbArc
 50
90.0
 51
180.0
  0
LINE
  5
5EB0
330
1D9
100
AcDbEntity
  8
0
100
AcDbLine
 10
2383.499999999999
 20
1937.214665012406
 30
0.0
 11
2364.499999999999
 21
1937.214665012406
 31
0.0
  0
LINE
  5
5EB2
330
1D9
100
AcDbEntity
  8
0
100
AcDbLine
 10
2430.500999999987
 20
1824.044665012405
 30
0.0
 11
2430.500999999987
 21
1956.993665012407
 31
0.0
  0
ARC
  5
5EB4
330
1D9
100
AcDbEntity
  8
0
100
AcDbCircle
 10
2439.925
 20
1929.214665012406
 30
0.0
 40
13.0756
100
AcDbArc
 50
327.8919999999962
 51
32.10899999998916
  0
LINE
  5
5EB5
330
1D9
100
AcDbEntity
  8
0
100
AcDbLine
 10
2452.999999999999
 20
1939.614665012405
 30
0.0
 11
2452.999999999999
 21
1918.814665012406
 31
0.0
  0
LINE
  5
5EB6
330
1D9
100
AcDbEntity
  8
0
100
AcDbLine
 10
2443.001
 20
1943.944665012405
 30
0.0
 11
2443.001
 21
1916.214665012406
 31
0.0
  0
LINE
  5
5EB7
330
1D9
100
AcDbEntity
  8
0
100
AcDbLine
 10
2518.499999999999
 20
1865.044665012406
 30
0.0
 11
2539.199000000003
 21
1868.604665012406
 31
0.0
  0
LINE
  5
5EB8
330
1D9
100
AcDbEntity
  8
0
100
AcDbLine
 10
2424.001
 20
1916.544665012406
 30
0.0
 11
2424.001
 21
1824.044665012405
 31
0.0
  0
LINE
  5
5EB9
330
1D9
100
AcDbEntity
  8
0
100
AcDbLine
 10
2420.500999999999
 20
1824.044665012405
 30
0.0
 11
2420.500999999999
 21
1916.544665012406
 31
0.0
  0
LINE
  5
5EBA
330
1D9
100
AcDbEntity
  8
0
100
AcDbLine
 10
2502.091
 20
1867.500111453187
 30
0.0
 11
2502.091
 21
1824.044665012405
 31
0.0
  0
LINE
  5
5EBB
330
1D9
100
AcDbEntity
  8
0
100
AcDbLine
 10
2518.499999999999
 20
1865.044665012406
 30
0.0
 11
2518.499999999999
 21
1824.044665012405
 31
0.0
  0
LINE
  5
5EBC
330
1D9
100
AcDbEntity
  8
0
100
AcDbLine
 10
2466.968999999997
 20
1898.046665012406
 30
0.0
 11
2466.968999999997
 21
1824.044665012405
 31
0.0
  0
LINE
  5
5EBD
330
1D9
100
AcDbEntity
  8
0
100
AcDbLine
 10
2443.001
 20
1916.544665012406
 30
0.0
 11
2443.001
 21
1824.044665012405
 31
0.0
  0
LINE
  5
5EBE
330
1D9
100
AcDbEntity
  8
0
100
AcDbLine
 10
2443.001
 20
1922.014665012406
 30
0.0
 11
2466.968999999997
 21
1898.044665012406
 31
0.0
  0
LINE
  5
5EBF
330
1D9
100
AcDbEntity
  8
0
100
AcDbLine
 10
2466.968999999997
 20
1898.044665012406
 30
0.0
 11
2443.001
 21
1916.214665012406
 31
0.0
  0
LINE
  5
5EC0
330
1D9
100
AcDbEntity
  8
0
100
AcDbLine
 10
2415.499999999999
 20
1910.544665012406
 30
0.0
 11
2415.499999999999
 21
1921.214665012406
 31
0.0
  0
LINE
  5
5EC1
330
1D9
100
AcDbEntity
  8
0
100
AcDbLine
 10
2415.499999999999
 20
1895.994665012405
 30
0.0
 11
2415.499999999999
 21
1902.544665012405
 31
0.0
  0
ARC
  5
5EC2
330
1D9
100
AcDbEntity
  8
0
100
AcDbCircle
 10
2449.02499999999
 20
1918.814665012406
 30
0.0
 40
3.975619999999998
100
AcDbArc
 50
299.7979999999714
 51
60.20300000001824
  0
LINE
  5
5EC3
330
1D9
100
AcDbEntity
  8
0
100
AcDbLine
 10
2450.999999999999
 20
1915.364665012405
 30
0.0
 11
2449.650445139749
 21
1915.364665012405
 31
0.0
  0
LINE
  5
5EC4
330
1D9
100
AcDbEntity
  8
0
100
AcDbLine
 10
2450.999999999999
 20
1922.264665012406
 30
0.0
 11
2442.999999999999
 21
1922.264665012406
 31
0.0
  0
LINE
  5
5EC5
330
1D9
100
AcDbEntity
  8
0
100
AcDbLine
 10
2420.500999999999
 20
1910.544665012406
 30
0.0
 11
2415.499999999999
 21
1910.544665012406
 31
0.0
  0
LINE
  5
5EC6
330
1D9
100
AcDbEntity
  8
0
100
AcDbLine
 10
2424.001
 20
1921.214665012406
 30
0.0
 11
2415.499999999999
 21
1921.214665012406
 31
0.0
  0
ARC
  5
5EC7
330
1D9
100
AcDbEntity
  8
0
100
AcDbCircle
 10
2430.500999999987
 20
1824.043665012406
 30
0.0
 40
82.5
100
AcDbArc
 50
35.05500000000903
 51
63.76600000000236
  0
LINE
  5
5EC8
330
1D9
100
AcDbEntity
  8
0
100
AcDbLine
 10
2518.499999999999
 20
1865.044665012406
 30
0.0
 11
2510.314999999986
 21
1865.044665012406
 31
0.0
  0
ARC
  5
5EC9
330
1D9
100
AcDbEntity
  8
0
100
AcDbCircle
 10
2510.314999999986
 20
1880.044665012406
 30
0.0
 40
15.0
100
AcDbArc
 50
215.055000000009
 51
270.0
  0
LINE
  5
5ECA
330
1D9
100
AcDbEntity
  8
0
100
AcDbLine
 10
2547.499999999989
 20
1909.544665012406
 30
0.0
 11
2547.499999999989
 21
1824.044665012405
 31
0.0
  0
LINE
  5
5ECB
330
1D9
100
AcDbEntity
  8
0
100
AcDbLine
 10
2565.5
 20
1824.044665012405
 30
0.0
 11
2565.5
 21
1882.044665012406
 31
0.0
  0
LINE
  5
5ECC
330
1D9
100
AcDbEntity
  8
0
100
AcDbLine
 10
2563.49999999999
 20
1824.044665012405
 30
0.0
 11
2563.49999999999
 21
1911.544665012406
 31
0.0
  0
LINE
  5
5ECD
330
1D9
100
AcDbEntity
  8
0
100
AcDbLine
 10
2563.49999999999
 20
1911.544665012406
 30
0.0
 11
2549.49999999999
 21
1911.544665012406
 31
0.0
  0
ARC
  5
5ECE
330
1D9
100
AcDbEntity
  8
0
100
AcDbCircle
 10
2549.49999999999
 20
1909.544665012406
 30
0.0
 40
2.0
100
AcDbArc
 50
90.0
 51
180.0
  0
LINE
  5
5ECF
330
1D9
100
AcDbEntity
  8
0
100
AcDbLine
 10
2565.5
 20
1882.044665012406
 30
0.0
 11
2563.49999999999
 21
1882.044665012406
 31
0.0
  0
ARC
  5
5ED0
330
1D9
100
AcDbEntity
  8
0
100
AcDbCircle
 10
2537.499999999999
 20
1878.464665012407
 30
0.0
 40
10.0
100
AcDbArc
 50
279.7829999999783
 51
0.0009999999964733
  0
LINE
  5
5ED2
330
1D9
100
AcDbEntity
  8
0
100
AcDbLine
 10
2547.499999999989
 20
1909.544665012406
 30
0.0
 11
2547.499999999989
 21
1878.464665012407
 31
0.0
  0
LINE
  5
5ED3
330
1D9
100
AcDbEntity
  8
0
100
AcDbLine
 10
2424.001
 20
1946.944665012405
 30
0.0
 11
2440.001
 21
1946.944665012405
 31
0.0
  0
ARC
  5
5ED4
330
1D9
100
AcDbEntity
  8
0
100
AcDbCircle
 10
2449.02499999999
 20
1939.614665012405
 30
0.0
 40
3.975619999999998
100
AcDbArc
 50
299.7979999999714
 51
60.20300000001824
  0
LINE
  5
5ED5
330
1D9
100
AcDbEntity
  8
0
100
AcDbLine
 10
2450.999999999999
 20
1936.164665012406
 30
0.0
 11
2442.999999999999
 21
1936.164665012406
 31
0.0
  0
LINE
  5
5ED6
330
1D9
100
AcDbEntity
  8
0
100
AcDbLine
 10
2450.999999999999
 20
1943.064665012406
 30
0.0
 11
2442.999999999999
 21
1943.064665012406
 31
0.0
  0
ARC
  5
5ED7
330
1D9
100
AcDbEntity
  8
0
100
AcDbCircle
 10
2440.001
 20
1943.944665012405
 30
0.0
 40
3.0
100
AcDbArc
 50
0.0
 51
90.0
  0
LINE
  5
5ED8
330
1D9
100
AcDbEntity
  8
0
100
AcDbLine
 10
2424.001
 20
1937.214665012406
 30
0.0
 11
2415.499999999999
 21
1937.214665012406
 31
0.0
  0
LINE
  5
5F42
330
1D9
100
AcDbEntity
  8
0
100
AcDbLine
 10
80.0
 20
1634.0
 30
0.0
 11
3990.0
 21
1634.0
 31
0.0
  0
LINE
  5
5F43
330
1D9
100
AcDbEntity
  8
0
100
AcDbLine
 10
80.0
 20
818.0
 30
0.0
 11
3990.0
 21
818.0
 31
0.0
  0
TEXT
  5
5F45
330
1D9
100
AcDbEntity
  8
0
100
AcDbText
 10
2978.336382047582
 20
1430.690716480376
 30
0.0
 40
48.51116625310172
  1
品番：NFB150A-200FF
100
AcDbText
  0
TEXT
  5
5F47
330
1D9
100
AcDbEntity
  8
0
100
AcDbText
 10
3136.622677408728
 20
1503.363414287087
 30
0.0
 40
48.51116625310172
  1
呼び径：150A
100
AcDbText
  0
TEXT
  5
5F48
330
1D9
100
AcDbEntity
  8
0
100
AcDbText
 10
1675.336382047581
 20
1430.690716480376
 30
0.0
 40
48.51116625310172
  1
品番：NFB125A-200FF
100
AcDbText
  0
TEXT
  5
5F49
330
1D9
100
AcDbEntity
  8
0
100
AcDbText
 10
1833.622677408728
 20
1503.363414287087
 30
0.0
 40
48.51116625310172
  1
呼び径：125A
100
AcDbText
  0
TEXT
  5
5F4B
330
1D9
100
AcDbEntity
  8
0
100
AcDbText
 10
372.3363820475824
 20
1430.690716480376
 30
0.0
 40
48.51116625310172
  1
品番：NFB100A-200FF
100
AcDbText
  0
TEXT
  5
5F4C
330
1D9
100
AcDbEntity
  8
0
100
AcDbText
 10
530.6226774087281
 20
1503.363414287087
 30
0.0
 40
48.51116625310172
  1
呼び径：100A
100
AcDbText
  0
TEXT
  5
5F55
330
1D9
100
AcDbEntity
  8
0
100
AcDbText
 10
372.3363820475824
 20
614.6907164803764
 30
0.0
 40
48.51116625310172
  1
品番：NFB200A-200FF
100
AcDbText
  0
TEXT
  5
5F56
330
1D9
100
AcDbEntity
  8
0
100
AcDbText
 10
530.6226774087281
 20
687.3634142870874
 30
0.0
 40
48.51116625310172
  1
呼び径：200A
100
AcDbText
  0
LINE
  5
6003
330
1D9
100
AcDbEntity
  8
0
100
AcDbLine
 10
1445.500000000004
 20
1100.043998345739
 30
0.0
 11
1445.500000000004
 21
1326.044665012407
 31
0.0
  0
LINE
  5
6004
330
1D9
100
AcDbEntity
  8
0
100
AcDbLine
 10
2625.499999999995
 20
1100.043998345739
 30
0.0
 11
2625.499999999995
 21
1326.044665012407
 31
0.0
  0
LINE
  5
6005
330
1D9
100
AcDbEntity
  8
0
100
AcDbLine
 10
1465.500000000004
 20
1308.044665012407
 30
0.0
 11
2605.499999999995
 21
1308.044665012407
 31
0.0
  0
LINE
  5
6009
330
1D9
100
AcDbEntity
  8
0
100
AcDbLine
 10
1505.499999999999
 20
1882.994665012406
 30
0.0
 11
1505.499999999999
 21
2142.044665012405
 31
0.0
  0
LINE
  5
600A
330
1D9
100
AcDbEntity
  8
0
100
AcDbLine
 10
2565.5
 20
1882.994665012406
 30
0.0
 11
2565.5
 21
2142.044665012405
 31
0.0
  0
LINE
  5
600B
330
1D9
100
AcDbEntity
  8
0
100
AcDbLine
 10
1525.499999999999
 20
2124.044665012406
 30
0.0
 11
2545.499999999999
 21
2124.044665012406
 31
0.0
  0
LINE
  5
600F
330
1D9
100
AcDbEntity
  8
0
100
AcDbLine
 10
127.5000000000003
 20
358.0446650124071
 30
0.0
 11
127.5000000000003
 21
510.0446650124071
 31
0.0
  0
LINE
  5
6010
330
1D9
100
AcDbEntity
  8
0
100
AcDbLine
 10
1337.499999999999
 20
358.0446650124071
 30
0.0
 11
1337.499999999999
 21
510.0446650124071
 31
0.0
  0
LINE
  5
6011
330
1D9
100
AcDbEntity
  8
0
100
AcDbLine
 10
147.5000000000004
 20
492.0446650124072
 30
0.0
 11
1317.499999999999
 21
492.0446650124072
 31
0.0
  0
LINE
  5
6015
330
1D9
100
AcDbEntity
  8
0
100
AcDbLine
 10
172.5000000000004
 20
1114.044665012409
 30
0.0
 11
172.5000000000004
 21
1326.044665012407
 31
0.0
  0
LINE
  5
6016
330
1D9
100
AcDbEntity
  8
0
100
AcDbLine
 10
1292.499999999998
 20
1114.044665012407
 30
0.0
 11
1292.499999999998
 21
1326.044665012407
 31
0.0
  0
LINE
  5
6017
330
1D9
100
AcDbEntity
  8
0
100
AcDbLine
 10
192.5000000000004
 20
1308.044665012407
 30
0.0
 11
1272.499999999999
 21
1308.044665012407
 31
0.0
  0
LINE
  5
601B
330
1D9
100
AcDbEntity
  8
0
100
AcDbLine
 10
275.0000000000003
 20
1902.544665012405
 30
0.0
 11
275.0000000000003
 21
2142.044665012405
 31
0.0
  0
LINE
  5
601C
330
1D9
100
AcDbEntity
  8
0
100
AcDbLine
 10
1189.999999999999
 20
1902.544665012405
 30
0.0
 11
1189.999999999999
 21
2142.044665012405
 31
0.0
  0
LINE
  5
601D
330
1D9
100
AcDbEntity
  8
0
100
AcDbLine
 10
295.0000000000004
 20
2124.044665012406
 30
0.0
 11
1169.999999999998
 21
2124.044665012406
 31
0.0
  0
LINE
  5
6021
330
1D9
100
AcDbEntity
  8
0
100
AcDbLine
 10
1650.498999999999
 20
1731.494665012406
 30
0.0
 11
1646.998999999999
 21
1731.494665012406
 31
0.0
  0
LINE
  5
6022
330
1D9
100
AcDbEntity
  8
0
100
AcDbLine
 10
1646.998999999999
 20
1731.494665012406
 30
0.0
 11
1646.998999999999
 21
1700.994665012406
 31
0.0
  0
LINE
  5
6023
330
1D9
100
AcDbEntity
  8
0
100
AcDbLine
 10
1646.998999999999
 20
1700.994665012406
 30
0.0
 11
1630.998999999998
 21
1700.994665012406
 31
0.0
  0
LINE
  5
6024
330
1D9
100
AcDbEntity
  8
0
100
AcDbLine
 10
1655.499999999999
 20
1823.994665012406
 30
0.0
 11
1655.499999999999
 21
1700.994665012406
 31
0.0
  0
LINE
  5
6025
330
1D9
100
AcDbEntity
  8
0
100
AcDbLine
 10
1655.499999999999
 20
1700.994665012406
 30
0.0
 11
1671.499999999999
 21
1700.994665012406
 31
0.0
  0
LINE
  5
6026
330
1D9
100
AcDbEntity
  8
0
100
AcDbLine
 10
1655.499999999999
 20
1823.994665012406
 30
0.0
 11
1655.499999999999
 21
1946.994665012405
 31
0.0
  0
LINE
  5
6027
330
1D9
100
AcDbEntity
  8
0
100
AcDbLine
 10
1655.499999999999
 20
1946.994665012405
 30
0.0
 11
1671.499999999999
 21
1946.994665012405
 31
0.0
  0
LINE
  5
6028
330
1D9
100
AcDbEntity
  8
0
100
AcDbLine
 10
1650.498999999999
 20
1916.494665012405
 30
0.0
 11
1646.998999999999
 21
1916.494665012405
 31
0.0
  0
LINE
  5
6029
330
1D9
100
AcDbEntity
  8
0
100
AcDbLine
 10
1646.998999999999
 20
1916.494665012405
 30
0.0
 11
1646.998999999999
 21
1946.894665012407
 31
0.0
  0
LINE
  5
602A
330
1D9
100
AcDbEntity
  8
0
100
AcDbLine
 10
1655.499999999999
 20
1937.164665012405
 30
0.0
 11
1655.499999999999
 21
1946.994665012405
 31
0.0
  0
LINE
  5
602B
330
1D9
100
AcDbEntity
  8
0
100
AcDbLine
 10
1655.499999999999
 20
1946.994665012405
 30
0.0
 11
1671.499999999999
 21
1946.994665012405
 31
0.0
  0
LINE
  5
602C
330
1D9
100
AcDbEntity
  8
0
100
AcDbLine
 10
2763.5
 20
1149.044665012406
 30
0.0
 11
2763.5
 21
1326.044665012407
 31
0.0
  0
LINE
  5
602D
330
1D9
100
AcDbEntity
  8
0
100
AcDbLine
 10
3913.499999999998
 20
1149.044665012406
 30
0.0
 11
3913.499999999998
 21
1326.044665012407
 31
0.0
  0
LINE
  5
602E
330
1D9
100
AcDbEntity
  8
0
100
AcDbLine
 10
2783.5
 20
1308.044665012407
 30
0.0
 11
3893.499999999999
 21
1308.044665012407
 31
0.0
  0
LINE
  5
6032
330
1D9
100
AcDbEntity
  8
0
100
AcDbLine
 10
2808.5
 20
1917.544665012407
 30
0.0
 11
2808.5
 21
2142.044665012405
 31
0.0
  0
LINE
  5
6033
330
1D9
100
AcDbEntity
  8
0
100
AcDbLine
 10
3868.499999999999
 20
1917.544665012407
 30
0.0
 11
3868.499999999999
 21
2142.044665012405
 31
0.0
  0
LINE
  5
6034
330
1D9
100
AcDbEntity
  8
0
100
AcDbLine
 10
2828.5
 20
2124.044665012406
 30
0.0
 11
3848.499999999998
 21
2124.044665012406
 31
0.0
  0
LINE
  5
6038
330
1D9
100
AcDbEntity
  8
0
100
AcDbLine
 10
2420.500999999999
 20
1731.544665012407
 30
0.0
 11
2424.001
 21
1731.544665012407
 31
0.0
  0
LINE
  5
6039
330
1D9
100
AcDbEntity
  8
0
100
AcDbLine
 10
2424.001
 20
1731.544665012407
 30
0.0
 11
2424.001
 21
1701.044665012406
 31
0.0
  0
LINE
  5
603A
330
1D9
100
AcDbEntity
  8
0
100
AcDbLine
 10
2424.001
 20
1701.044665012406
 30
0.0
 11
2440.001
 21
1701.044665012406
 31
0.0
  0
LINE
  5
603B
330
1D9
100
AcDbEntity
  8
0
100
AcDbLine
 10
2415.499999999999
 20
1824.044665012405
 30
0.0
 11
2415.499999999999
 21
1701.044665012406
 31
0.0
  0
LINE
  5
603C
330
1D9
100
AcDbEntity
  8
0
100
AcDbLine
 10
2415.499999999999
 20
1701.044665012406
 30
0.0
 11
2399.49999999999
 21
1701.044665012406
 31
0.0
  0
LINE
  5
603D
330
1D9
100
AcDbEntity
  8
0
100
AcDbLine
 10
2415.499999999999
 20
1824.044665012405
 30
0.0
 11
2415.499999999999
 21
1947.044665012406
 31
0.0
  0
LINE
  5
603E
330
1D9
100
AcDbEntity
  8
0
100
AcDbLine
 10
2415.499999999999
 20
1947.044665012406
 30
0.0
 11
2399.49999999999
 21
1947.044665012406
 31
0.0
  0
LINE
  5
603F
330
1D9
100
AcDbEntity
  8
0
100
AcDbLine
 10
2420.500999999999
 20
1916.544665012406
 30
0.0
 11
2424.001
 21
1916.544665012406
 31
0.0
  0
LINE
  5
6040
330
1D9
100
AcDbEntity
  8
0
100
AcDbLine
 10
2424.001
 20
1916.544665012406
 30
0.0
 11
2424.001
 21
1946.944665012405
 31
0.0
  0
LINE
  5
6041
330
1D9
100
AcDbEntity
  8
0
100
AcDbLine
 10
2415.499999999999
 20
1937.214665012406
 30
0.0
 11
2415.499999999999
 21
1947.044665012406
 31
0.0
  0
LINE
  5
6042
330
1D9
100
AcDbEntity
  8
0
100
AcDbLine
 10
2415.499999999999
 20
1947.044665012406
 30
0.0
 11
2399.49999999999
 21
1947.044665012406
 31
0.0
  0
LINE
  5
6043
330
1D9
100
AcDbEntity
  8
0
100
AcDbLine
 10
127.5000000000003
 20
492.0446650124072
 30
0.0
 11
147.5000000000004
 21
497.4036488610293
 31
0.0
  0
LINE
  5
6044
330
1D9
100
AcDbEntity
  8
0
100
AcDbLine
 10
127.5000000000003
 20
492.0446650124072
 30
0.0
 11
147.5000000000004
 21
486.6856811637851
 31
0.0
  0
LINE
  5
6045
330
1D9
100
AcDbEntity
  8
0
100
AcDbLine
 10
147.5000000000004
 20
492.0446650124072
 30
0.0
 11
127.5000000000003
 21
492.0446650124072
 31
0.0
  0
TEXT
  5
6046
330
1D9
100
AcDbEntity
  8
0
100
AcDbText
 10
690.0
 20
507.0446650124071
 30
0.0
 40
30.0
  1
1210
100
AcDbText
  0
LINE
  5
6047
330
1D9
100
AcDbEntity
  8
0
100
AcDbLine
 10
172.5000000000004
 20
1308.044665012407
 30
0.0
 11
192.5000000000004
 21
1313.403648861029
 31
0.0
  0
LINE
  5
6048
330
1D9
100
AcDbEntity
  8
0
100
AcDbLine
 10
172.5000000000004
 20
1308.044665012407
 30
0.0
 11
192.5000000000004
 21
1302.685681163785
 31
0.0
  0
LINE
  5
6049
330
1D9
100
AcDbEntity
  8
0
100
AcDbLine
 10
192.5000000000004
 20
1308.044665012407
 30
0.0
 11
172.5000000000004
 21
1308.044665012407
 31
0.0
  0
TEXT
  5
604A
330
1D9
100
AcDbEntity
  8
0
100
AcDbText
 10
690.0
 20
1323.044665012407
 30
0.0
 40
30.0
  1
1120
100
AcDbText
  0
LINE
  5
604B
330
1D9
100
AcDbEntity
  8
0
100
AcDbLine
 10
1337.499999999999
 20
492.0446650124072
 30
0.0
 11
1317.499999999999
 21
486.6856811637851
 31
0.0
  0
LINE
  5
604C
330
1D9
100
AcDbEntity
  8
0
100
AcDbLine
 10
1337.499999999999
 20
492.0446650124072
 30
0.0
 11
1317.499999999999
 21
497.4036488610293
 31
0.0
  0
LINE
  5
604D
330
1D9
100
AcDbEntity
  8
0
100
AcDbLine
 10
1317.499999999999
 20
492.0446650124072
 30
0.0
 11
1337.499999999999
 21
492.0446650124072
 31
0.0
  0
LINE
  5
604E
330
1D9
100
AcDbEntity
  8
0
100
AcDbLine
 10
1292.499999999998
 20
1308.044665012407
 30
0.0
 11
1272.499999999999
 21
1302.685681163785
 31
0.0
  0
LINE
  5
604F
330
1D9
100
AcDbEntity
  8
0
100
AcDbLine
 10
1292.499999999998
 20
1308.044665012407
 30
0.0
 11
1272.499999999999
 21
1313.403648861029
 31
0.0
  0
LINE
  5
6050
330
1D9
100
AcDbEntity
  8
0
100
AcDbLine
 10
1272.499999999999
 20
1308.044665012407
 30
0.0
 11
1292.499999999998
 21
1308.044665012407
 31
0.0
  0
LINE
  5
6051
330
1D9
100
AcDbEntity
  8
0
100
AcDbLine
 10
1445.500000000004
 20
1308.044665012407
 30
0.0
 11
1465.500000000004
 21
1313.403648861029
 31
0.0
  0
LINE
  5
6052
330
1D9
100
AcDbEntity
  8
0
100
AcDbLine
 10
1445.500000000004
 20
1308.044665012407
 30
0.0
 11
1465.500000000004
 21
1302.685681163785
 31
0.0
  0
LINE
  5
6053
330
1D9
100
AcDbEntity
  8
0
100
AcDbLine
 10
1465.500000000004
 20
1308.044665012407
 30
0.0
 11
1445.500000000004
 21
1308.044665012407
 31
0.0
  0
TEXT
  5
6054
330
1D9
100
AcDbEntity
  8
0
100
AcDbText
 10
1993.0
 20
1323.044665012407
 30
0.0
 40
30.0
  1
1180
100
AcDbText
  0
LINE
  5
6055
330
1D9
100
AcDbEntity
  8
0
100
AcDbLine
 10
275.0000000000003
 20
2124.044665012406
 30
0.0
 11
295.0000000000004
 21
2129.403648861028
 31
0.0
  0
LINE
  5
6056
330
1D9
100
AcDbEntity
  8
0
100
AcDbLine
 10
275.0000000000003
 20
2124.044665012406
 30
0.0
 11
295.0000000000004
 21
2118.685681163784
 31
0.0
  0
LINE
  5
6057
330
1D9
100
AcDbEntity
  8
0
100
AcDbLine
 10
295.0000000000004
 20
2124.044665012406
 30
0.0
 11
275.0000000000003
 21
2124.044665012406
 31
0.0
  0
TEXT
  5
6058
330
1D9
100
AcDbEntity
  8
0
100
AcDbText
 10
697.5
 20
2139.044665012407
 30
0.0
 40
30.0
  1
915
100
AcDbText
  0
LINE
  5
6059
330
1D9
100
AcDbEntity
  8
0
100
AcDbLine
 10
1189.999999999999
 20
2124.044665012406
 30
0.0
 11
1169.999999999998
 21
2118.685681163784
 31
0.0
  0
LINE
  5
605A
330
1D9
100
AcDbEntity
  8
0
100
AcDbLine
 10
1189.999999999999
 20
2124.044665012406
 30
0.0
 11
1169.999999999998
 21
2129.403648861029
 31
0.0
  0
LINE
  5
605B
330
1D9
100
AcDbEntity
  8
0
100
AcDbLine
 10
1169.999999999998
 20
2124.044665012406
 30
0.0
 11
1189.999999999999
 21
2124.044665012406
 31
0.0
  0
LINE
  5
605C
330
1D9
100
AcDbEntity
  8
0
100
AcDbLine
 10
1505.499999999999
 20
2124.044665012406
 30
0.0
 11
1525.499999999999
 21
2129.403648861028
 31
0.0
  0
LINE
  5
605D
330
1D9
100
AcDbEntity
  8
0
100
AcDbLine
 10
1505.499999999999
 20
2124.044665012406
 30
0.0
 11
1525.499999999999
 21
2118.685681163784
 31
0.0
  0
LINE
  5
605E
330
1D9
100
AcDbEntity
  8
0
100
AcDbLine
 10
1525.499999999999
 20
2124.044665012406
 30
0.0
 11
1505.499999999999
 21
2124.044665012406
 31
0.0
  0
TEXT
  5
605F
330
1D9
100
AcDbEntity
  8
0
100
AcDbText
 10
1990.499999999999
 20
2139.044665012407
 30
0.0
 40
30.0
  1
1060
100
AcDbText
  0
LINE
  5
6060
330
1D9
100
AcDbEntity
  8
0
100
AcDbLine
 10
2625.499999999995
 20
1308.044665012407
 30
0.0
 11
2605.499999999995
 21
1302.685681163785
 31
0.0
  0
LINE
  5
6061
330
1D9
100
AcDbEntity
  8
0
100
AcDbLine
 10
2625.499999999995
 20
1308.044665012407
 30
0.0
 11
2605.499999999995
 21
1313.403648861029
 31
0.0
  0
LINE
  5
6062
330
1D9
100
AcDbEntity
  8
0
100
AcDbLine
 10
2605.499999999995
 20
1308.044665012407
 30
0.0
 11
2625.499999999995
 21
1308.044665012407
 31
0.0
  0
LINE
  5
6063
330
1D9
100
AcDbEntity
  8
0
100
AcDbLine
 10
2763.5
 20
1308.044665012407
 30
0.0
 11
2783.5
 21
1313.403648861029
 31
0.0
  0
LINE
  5
6064
330
1D9
100
AcDbEntity
  8
0
100
AcDbLine
 10
2763.5
 20
1308.044665012407
 30
0.0
 11
2783.5
 21
1302.685681163785
 31
0.0
  0
LINE
  5
6065
330
1D9
100
AcDbEntity
  8
0
100
AcDbLine
 10
2783.5
 20
1308.044665012407
 30
0.0
 11
2763.5
 21
1308.044665012407
 31
0.0
  0
TEXT
  5
6066
330
1D9
100
AcDbEntity
  8
0
100
AcDbText
 10
3296.0
 20
1323.044665012407
 30
0.0
 40
30.0
  1
1150
100
AcDbText
  0
LINE
  5
6067
330
1D9
100
AcDbEntity
  8
0
100
AcDbLine
 10
3913.499999999998
 20
1308.044665012407
 30
0.0
 11
3893.499999999999
 21
1302.685681163785
 31
0.0
  0
LINE
  5
6068
330
1D9
100
AcDbEntity
  8
0
100
AcDbLine
 10
3913.499999999998
 20
1308.044665012407
 30
0.0
 11
3893.499999999999
 21
1313.403648861029
 31
0.0
  0
LINE
  5
6069
330
1D9
100
AcDbEntity
  8
0
100
AcDbLine
 10
3893.499999999999
 20
1308.044665012407
 30
0.0
 11
3913.499999999998
 21
1308.044665012407
 31
0.0
  0
LINE
  5
606A
330
1D9
100
AcDbEntity
  8
0
100
AcDbLine
 10
2565.5
 20
2124.044665012406
 30
0.0
 11
2545.499999999999
 21
2118.685681163784
 31
0.0
  0
LINE
  5
606B
330
1D9
100
AcDbEntity
  8
0
100
AcDbLine
 10
2565.5
 20
2124.044665012406
 30
0.0
 11
2545.499999999999
 21
2129.403648861029
 31
0.0
  0
LINE
  5
606C
330
1D9
100
AcDbEntity
  8
0
100
AcDbLine
 10
2545.499999999999
 20
2124.044665012406
 30
0.0
 11
2565.5
 21
2124.044665012406
 31
0.0
  0
LINE
  5
606D
330
1D9
100
AcDbEntity
  8
0
100
AcDbLine
 10
2808.5
 20
2124.044665012406
 30
0.0
 11
2828.5
 21
2129.403648861028
 31
0.0
  0
LINE
  5
606E
330
1D9
100
AcDbEntity
  8
0
100
AcDbLine
 10
2808.5
 20
2124.044665012406
 30
0.0
 11
2828.5
 21
2118.685681163784
 31
0.0
  0
LINE
  5
606F
330
1D9
100
AcDbEntity
  8
0
100
AcDbLine
 10
2828.5
 20
2124.044665012406
 30
0.0
 11
2808.5
 21
2124.044665012406
 31
0.0
  0
TEXT
  5
6070
330
1D9
100
AcDbEntity
  8
0
100
AcDbText
 10
3293.5
 20
2139.044665012407
 30
0.0
 40
30.0
  1
1060
100
AcDbText
  0
LINE
  5
6071
330
1D9
100
AcDbEntity
  8
0
100
AcDbLine
 10
3868.499999999999
 20
2124.044665012406
 30
0.0
 11
3848.499999999998
 21
2118.685681163784
 31
0.0
  0
LINE
  5
6072
330
1D9
100
AcDbEntity
  8
0
100
AcDbLine
 10
3868.499999999999
 20
2124.044665012406
 30
0.0
 11
3848.499999999998
 21
2129.403648861029
 31
0.0
  0
LINE
  5
6073
330
1D9
100
AcDbEntity
  8
0
100
AcDbLine
 10
3848.499999999998
 20
2124.044665012406
 30
0.0
 11
3868.499999999999
 21
2124.044665012406
 31
0.0
  0
ENDSEC
  0
SECTION
  2
OBJECTS
  0
DICTIONARY
  5
1CD
330
0
100
AcDbDictionary
  3
ACAD_GROUP
350
1CE
  3
ACAD_LAYOUT
350
2DE
  3
ACAD_MLINESTYLE
350
1CF
  3
ACAD_PLOTSETTINGS
350
2DF
1001
ACAD
1000
TREAT_AS_HARD
1070
     0
1000
TREAT_AS_HARD
1070
     0
  0
DICTIONARY
  5
2738
330
1C3
100
AcDbDictionary
  3
ACAD_LAYERSTATES
350
2739
1001
ACAD
1000
TREAT_AS_HARD
1070
     1
1000
TREAT_AS_HARD
1070
     0
  0
DICTIONARY
  5
607A
330
1D9
100
AcDbDictionary
  3
ACAD_LAYOUTSELFREF
350
60B0
1001
ACAD
1000
TREAT_AS_HARD
1070
     0
  0
DICTIONARY
  5
6078
330
1D6
100
AcDbDictionary
  3
ACAD_LAYOUTSELFREF
350
60AF
1001
ACAD
1000
TREAT_AS_HARD
1070
     0
  0
DICTIONARY
  5
1CE
102
{ACAD_REACTORS
330
1CD
102
}
330
1CD
100
AcDbDictionary
1001
ACAD
1000
TREAT_AS_HARD
1070
     0
1000
TREAT_AS_HARD
1070
     0
  0
DICTIONARY
  5
2DE
102
{ACAD_REACTORS
330
1CD
102
}
330
1CD
100
AcDbDictionary
1001
ACAD
1000
TREAT_AS_HARD
1070
     0
1000
TREAT_AS_HARD
1070
     0
  0
DICTIONARY
  5
1CF
102
{ACAD_REACTORS
330
1CD
102
}
330
1CD
100
AcDbDictionary
  3
STANDARD
350
1DC
1001
ACAD
1000
TREAT_AS_HARD
1070
     0
1000
TREAT_AS_HARD
1070
     0
  0
DICTIONARY
  5
2DF
102
{ACAD_REACTORS
330
1CD
102
}
330
1CD
100
AcDbDictionary
1001
ACAD
1000
TREAT_AS_HARD
1070
     0
1000
TREAT_AS_HARD
1070
     0
  0
DICTIONARY
  5
2739
102
{ACAD_REACTORS
330
2738
102
}
330
2738
100
AcDbDictionary
1001
ACAD
1000
TREAT_AS_HARD
1070
     0
1000
TREAT_AS_HARD
1070
     0
  0
XRECORD
  5
60B0
102
{ACAD_REACTORS
330
607A
102
}
330
607A
100
AcDbXrecord
340
1D9
  0
XRECORD
  5
60AF
102
{ACAD_REACTORS
330
6078
102
}
330
6078
100
AcDbXrecord
340
1D6
  0
MLINESTYLE
  5
1DC
102
{ACAD_REACTORS
330
1CF
102
}
330
1CF
100
AcDbMlineStyle
  2
STANDARD
 70
     0
  3

 62
     0
 51
90.0
 52
90.0
 71
     2
 49
0.5
 62
   256
  6
BYLAYER
 49
-0.5
 62
   256
  6
BYLAYER
  0
ENDSEC
  0
EOF
